  0
SECTION
  2
HEADER
  9
$ACADVER
  1
AC1015
  9
$ACADMAINTVER
 70
     6
  9
$DWGCODEPAGE
  3
DOS932
  9
$INSBASE
 10
0.0
 20
0.0
 30
0.0
  9
$EXTMIN
 10
0.0
 20
0.0
 30
0.0
  9
$EXTMAX
 10
1189.0
 20
841.0
 30
0.0
  9
$LIMMIN
 10
0.0
 20
0.0
  9
$LIMMAX
 10
1189.0
 20
841.0
  9
$ORTHOMODE
 70
     0
  9
$REGENMODE
 70
     1
  9
$FILLMODE
 70
     1
  9
$QTEXTMODE
 70
     0
  9
$MIRRTEXT
 70
     1
  9
$LTSCALE
 40
1.0
  9
$ATTMODE
 70
     1
  9
$TEXTSIZE
 40
4.0
  9
$TRACEWID
 40
1.0
  9
$TEXTSTYLE
  7
Standard
  9
$CLAYER
  8
0
  9
$CELTYPE
  6
ByLayer
  9
$CECOLOR
 62
   256
  9
$CELTSCALE
 40
1.0
  9
$DISPSILH
 70
     0
  9
$DIMSCALE
 40
1.0
  9
$DIMASZ
 40
3.0
  9
$DIMEXO
 40
0.0
  9
$DIMDLI
 40
3.75
  9
$DIMRND
 40
0.0
  9
$DIMDLE
 40
0.0
  9
$DIMEXE
 40
1.0
  9
$DIMTP
 40
0.0
  9
$DIMTM
 40
0.0
  9
$DIMTXT
 40
4.0
  9
$DIMCEN
 40
2.5
  9
$DIMTSZ
 40
0.0
  9
$DIMTOL
 70
     0
  9
$DIMLIM
 70
     0
  9
$DIMTIH
 70
     1
  9
$DIMTOH
 70
     1
  9
$DIMSE1
 70
     0
  9
$DIMSE2
 70
     0
  9
$DIMTAD
 70
     1
  9
$DIMZIN
 70
     0
  9
$DIMBLK
  1

  9
$DIMASO
 70
     1
  9
$DIMSHO
 70
     1
  9
$DIMPOST
  1

  9
$DIMAPOST
  1

  9
$DIMALT
 70
     0
  9
$DIMALTD
 70
     3
  9
$DIMALTF
 40
0.0393700787
  9
$DIMLFAC
 40
1.0
  9
$DIMTOFL
 70
     1
  9
$DIMTVP
 40
0.0
  9
$DIMTIX
 70
     0
  9
$DIMSOXD
 70
     0
  9
$DIMSAH
 70
     0
  9
$DIMBLK1
  1

  9
$DIMBLK2
  1

  9
$DIMSTYLE
  2
ISO-25
  9
$DIMCLRD
 70
     0
  9
$DIMCLRE
 70
     0
  9
$DIMCLRT
 70
     0
  9
$DIMTFAC
 40
1.0
  9
$DIMGAP
 40
1.0
  9
$DIMJUST
 70
     0
  9
$DIMSD1
 70
     0
  9
$DIMSD2
 70
     0
  9
$DIMTOLJ
 70
     0
  9
$DIMTZIN
 70
     0
  9
$DIMALTZ
 70
     0
  9
$DIMALTTZ
 70
     0
  9
$DIMUPT
 70
     0
  9
$DIMDEC
 70
     2
  9
$DIMTDEC
 70
     2
  9
$DIMALTU
 70
     2
  9
$DIMALTTD
 70
     3
  9
$DIMTXSTY
  7
Standard
  9
$DIMAUNIT
 70
     0
  9
$DIMADEC
 70
     2
  9
$DIMALTRND
 40
0.0
  9
$DIMAZIN
 70
     0
  9
$DIMDSEP
 70
    44
  9
$DIMATFIT
 70
     3
  9
$DIMFRAC
 70
     0
  9
$DIMLDRBLK
  1

  9
$DIMLUNIT
 70
     2
  9
$DIMLWD
 70
    -2
  9
$DIMLWE
 70
    -2
  9
$DIMTMOVE
 70
     0
  9
$LUNITS
 70
     2
  9
$LUPREC
 70
     2
  9
$SKETCHINC
 40
1.0
  9
$FILLETRAD
 40
0.0
  9
$AUNITS
 70
     0
  9
$AUPREC
 70
     2
  9
$MENU
  1
.
  9
$ELEVATION
 40
0.0
  9
$PELEVATION
 40
0.0
  9
$THICKNESS
 40
0.0
  9
$LIMCHECK
 70
     0
  9
$CHAMFERA
 40
0.0
  9
$CHAMFERB
 40
0.0
  9
$CHAMFERC
 40
0.0
  9
$CHAMFERD
 40
0.0
  9
$SKPOLY
 70
     0
  9
$TDCREATE
 40
2460655.711298854
  9
$TDUCREATE
 40
2460655.336298854
  9
$TDUPDATE
 40
2460655.711299387
  9
$TDUUPDATE
 40
2460655.336299387
  9
$TDINDWG
 40
0.0000000116
  9
$TDUSRTIMER
 40
0.0000000116
  9
$USRTIMER
 70
     1
  9
$ANGBASE
 50
0.0
  9
$ANGDIR
 70
     0
  9
$PDMODE
 70
     0
  9
$PDSIZE
 40
-1.0
  9
$PLINEWID
 40
0.0
  9
$SPLFRAME
 70
     0
  9
$SPLINETYPE
 70
     6
  9
$SPLINESEGS
 70
     8
  9
$HANDSEED
  5
4ED
  9
$SURFTAB1
 70
     6
  9
$SURFTAB2
 70
     6
  9
$SURFTYPE
 70
     6
  9
$SURFU
 70
     6
  9
$SURFV
 70
     6
  9
$UCSBASE
  2

  9
$UCSNAME
  2

  9
$UCSORG
 10
0.0
 20
0.0
 30
0.0
  9
$UCSXDIR
 10
1.0
 20
0.0
 30
0.0
  9
$UCSYDIR
 10
0.0
 20
1.0
 30
0.0
  9
$UCSORTHOREF
  2

  9
$UCSORTHOVIEW
 70
     0
  9
$UCSORGTOP
 10
0.0
 20
0.0
 30
0.0
  9
$UCSORGBOTTOM
 10
0.0
 20
0.0
 30
0.0
  9
$UCSORGLEFT
 10
0.0
 20
0.0
 30
0.0
  9
$UCSORGRIGHT
 10
0.0
 20
0.0
 30
0.0
  9
$UCSORGFRONT
 10
0.0
 20
0.0
 30
0.0
  9
$UCSORGBACK
 10
0.0
 20
0.0
 30
0.0
  9
$PUCSBASE
  2

  9
$PUCSNAME
  2

  9
$PUCSORG
 10
0.0
 20
0.0
 30
0.0
  9
$PUCSXDIR
 10
1.0
 20
0.0
 30
0.0
  9
$PUCSYDIR
 10
0.0
 20
1.0
 30
0.0
  9
$PUCSORTHOREF
  2

  9
$PUCSORTHOVIEW
 70
     0
  9
$PUCSORGTOP
 10
0.0
 20
0.0
 30
0.0
  9
$PUCSORGBOTTOM
 10
0.0
 20
0.0
 30
0.0
  9
$PUCSORGLEFT
 10
0.0
 20
0.0
 30
0.0
  9
$PUCSORGRIGHT
 10
0.0
 20
0.0
 30
0.0
  9
$PUCSORGFRONT
 10
0.0
 20
0.0
 30
0.0
  9
$PUCSORGBACK
 10
0.0
 20
0.0
 30
0.0
  9
$USERI1
 70
     0
  9
$USERI2
 70
     0
  9
$USERI3
 70
     0
  9
$USERI4
 70
     0
  9
$USERI5
 70
     0
  9
$USERR1
 40
0.0
  9
$USERR2
 40
0.0
  9
$USERR3
 40
0.0
  9
$USERR4
 40
0.0
  9
$USERR5
 40
0.0
  9
$WORLDVIEW
 70
     1
  9
$SHADEDGE
 70
     3
  9
$SHADEDIF
 70
    70
  9
$TILEMODE
 70
     1
  9
$MAXACTVP
 70
    64
  9
$PINSBASE
 10
0.0
 20
0.0
 30
0.0
  9
$PLIMCHECK
 70
     0
  9
$PEXTMIN
 10
1.0000000000E+20
 20
1.0000000000E+20
 30
1.0000000000E+20
  9
$PEXTMAX
 10
-1.0000000000E+20
 20
-1.0000000000E+20
 30
-1.0000000000E+20
  9
$PLIMMIN
 10
0.0
 20
0.0
  9
$PLIMMAX
 10
420.0
 20
297.0
  9
$UNITMODE
 70
     0
  9
$VISRETAIN
 70
     1
  9
$PLINEGEN
 70
     0
  9
$PSLTSCALE
 70
     1
  9
$TREEDEPTH
 70
  3020
  9
$CMLSTYLE
  2
Standard
  9
$CMLJUST
 70
     0
  9
$CMLSCALE
 40
20.0
  9
$PROXYGRAPHICS
 70
     1
  9
$MEASUREMENT
 70
     1
  9
$CELWEIGHT
370
    -1
  9
$ENDCAPS
280
     0
  9
$JOINSTYLE
280
     0
  9
$LWDISPLAY
290
     1
  9
$INSUNITS
 70
     4
  9
$HYPERLINKBASE
  1

  9
$STYLESHEET
  1

  9
$XEDIT
290
     1
  9
$CEPSNTYPE
380
     0
  9
$PSTYLEMODE
290
     1
  9
$FINGERPRINTGUID
  2
{2ab64c8c-3d8f-46f4-9892-b349ef77961e}
  9
$VERSIONGUID
  2
{FAEB1C32-E019-11D5-929B-00C0DF256EC4}
  9
$EXTNAMES
290
     1
  9
$PSVPSCALE
 40
0.0
  9
$OLESTARTUP
290
     0
  0
ENDSEC
  0
SECTION
  2
CLASSES
  0
CLASS
  1
ACDBDICTIONARYWDFLT
  2
AcDbDictionaryWithDefault
  3
ObjectDBX Classes
 90
        0
280
     0
281
     0
  0
CLASS
  1
VISUALSTYLE
  2
AcDbVisualStyle
  3
ObjectDBX Classes
 90
     4095
280
     0
281
     0
  0
CLASS
  1
MATERIAL
  2
AcDbMaterial
  3
ObjectDBX Classes
 90
     1153
280
     0
281
     0
  0
CLASS
  1
SCALE
  2
AcDbScale
  3
ObjectDBX Classes
 90
     1153
280
     0
281
     0
  0
CLASS
  1
TABLESTYLE
  2
AcDbTableStyle
  3
ObjectDBX Classes
 90
     4095
280
     0
281
     0
  0
CLASS
  1
MLEADERSTYLE
  2
AcDbMLeaderStyle
  3
ACDB_MLEADERSTYLE_CLASS
 90
     4095
280
     0
281
     0
  0
CLASS
  1
SUN
  2
AcDbSun
  3
SCENEOE
 90
     1153
280
     0
281
     0
  0
CLASS
  1
ACDBPLACEHOLDER
  2
AcDbPlaceHolder
  3
ObjectDBX Classes
 90
        0
280
     0
281
     0
  0
CLASS
  1
LAYOUT
  2
AcDbLayout
  3
ObjectDBX Classes
 90
        0
280
     0
281
     0
  0
ENDSEC
  0
SECTION
  2
TABLES
  0
TABLE
  2
VPORT
  5
8
330
0
100
AcDbSymbolTable
 70
     1
  0
VPORT
  5
29
330
8
100
AcDbSymbolTableRecord
100
AcDbViewportTableRecord
  2
*Active
 70
     0
 10
0.0
 20
0.0
 11
1.0
 21
1.0
 12
594.5
 22
420.5
 13
0.0
 23
0.0
 14
10.0
 24
10.0
 15
10.0
 25
10.0
 16
0.0
 26
0.0
 36
1.0
 17
0.0
 27
0.0
 37
0.0
 40
841.0
 41
1.4137931034
 42
50.0
 43
0.0
 44
0.0
 50
0.0
 51
0.0
 71
     0
 72
  2000
 73
     1
 74
     3
 75
     0
 76
     0
 77
     0
 78
     0
281
     0
 65
     1
110
0.0
120
0.0
130
0.0
111
1.0
121
0.0
131
0.0
112
0.0
122
1.0
132
0.0
 79
     0
146
0.0
  0
ENDTAB
  0
TABLE
  2
LTYPE
  5
5
330
0
100
AcDbSymbolTable
 70
     6
  0
LTYPE
  5
14
330
5
100
AcDbSymbolTableRecord
100
AcDbLinetypeTableRecord
  2
ByBlock
 70
     0
  3

 72
    65
 73
     0
 40
0.0
  0
LTYPE
  5
15
330
5
100
AcDbSymbolTableRecord
100
AcDbLinetypeTableRecord
  2
ByLayer
 70
     0
  3

 72
    65
 73
     0
 40
0.0
  0
LTYPE
  5
16
330
5
100
AcDbSymbolTableRecord
100
AcDbLinetypeTableRecord
  2
Continuous
 70
     0
  3
Solid line
 72
    65
 73
     0
 40
0.0
  0
LTYPE
  5
5E
330
5
100
AcDbSymbolTableRecord
100
AcDbLinetypeTableRecord
  2
HIDDEN
 70
     0
  3
Hidden __ __ __ __ __ __ __ __ __ __ __ __ __ __
 72
    65
 73
     2
 40
1.905
 49
1.27
 74
     0
 49
-0.635
 74
     0
  0
LTYPE
  5
5F
330
5
100
AcDbSymbolTableRecord
100
AcDbLinetypeTableRecord
  2
PHANTOM
 70
     0
  3
Phantom ______  __  __  ______  __  __  ______
 72
    65
 73
     6
 40
12.7
 49
6.35
 74
     0
 49
-1.27
 74
     0
 49
1.27
 74
     0
 49
-1.27
 74
     0
 49
1.27
 74
     0
 49
-1.27
 74
     0
  0
LTYPE
  5
60
330
5
100
AcDbSymbolTableRecord
100
AcDbLinetypeTableRecord
  2
CENTER
 70
     0
  3
Center ____ _ ____ _ ____ _ ____ _ ____ _ ____
 72
    65
 73
     4
 40
10.16
 49
6.35
 74
     0
 49
-1.27
 74
     0
 49
1.27
 74
     0
 49
-1.27
 74
     0
  0
LTYPE
  5
61
330
5
100
AcDbSymbolTableRecord
100
AcDbLinetypeTableRecord
  2
CENTERX2
 70
     0
  3
Center (2x) ________  __  ________  __  _____
 72
    65
 73
     4
 40
20.32
 49
12.7
 74
     0
 49
-2.54
 74
     0
 49
2.54
 74
     0
 49
-2.54
 74
     0
  0
LTYPE
  5
62
330
5
100
AcDbSymbolTableRecord
100
AcDbLinetypeTableRecord
  2
DOT2
 70
     0
  3
Dot (.5x) ........................................
 72
    65
 73
     2
 40
0.635
 49
0.0
 74
     0
 49
-0.635
 74
     0
  0
ENDTAB
  0
TABLE
  2
LAYER
  5
2
330
0
100
AcDbSymbolTable
 70
     6
  0
LAYER
  5
10
330
2
100
AcDbSymbolTableRecord
100
AcDbLayerTableRecord
  2
0
 70
     0
 62
     7
  6
Continuous
370
    -3
390
F
  0
LAYER
  5
63
330
2
100
AcDbSymbolTableRecord
100
AcDbLayerTableRecord
  2
SLD-0
 70
     0
 62
     7
  6
Continuous
370
    -3
390
F
  0
LAYER
  5
64
330
2
100
AcDbSymbolTableRecord
100
AcDbLayerTableRecord
  2
8
 70
     0
 62
     7
  6
Continuous
370
    25
390
F
  0
LAYER
  5
65
330
2
100
AcDbSymbolTableRecord
100
AcDbLayerTableRecord
  2
9
 70
     0
 62
     7
  6
Continuous
370
    -3
390
F
  0
LAYER
  5
66
330
2
100
AcDbSymbolTableRecord
100
AcDbLayerTableRecord
  2
10
 70
     0
 62
     1
  6
Continuous
370
    -3
390
F
  0
LAYER
  5
67
330
2
100
AcDbSymbolTableRecord
100
AcDbLayerTableRecord
  2
11
 70
     0
 62
     7
  6
Continuous
370
    -3
390
F
  0
ENDTAB
  0
TABLE
  2
STYLE
  5
3
330
0
100
AcDbSymbolTable
 70
     2
  0
STYLE
  5
11
330
3
100
AcDbSymbolTableRecord
100
AcDbTextStyleTableRecord
  2
Standard
 70
     0
 40
0.0
 41
1.0
 50
0.0
 71
     0
 42
4.0
  3
txt
  4
bigfont
  0
STYLE
  5
72
330
3
100
AcDbSymbolTableRecord
100
AcDbTextStyleTableRecord
  2
SLDTEXTSTYLE0
 70
     0
 40
0.0
 41
0.7
 50
0.0
 71
     0
 42
4.0
  3
TXT
  4
bigfont
  0
ENDTAB
  0
TABLE
  2
VIEW
  5
6
330
0
100
AcDbSymbolTable
 70
     0
  0
ENDTAB
  0
TABLE
  2
UCS
  5
7
330
0
100
AcDbSymbolTable
 70
     0
  0
ENDTAB
  0
TABLE
  2
APPID
  5
9
330
0
100
AcDbSymbolTable
 70
     1
  0
APPID
  5
12
330
9
100
AcDbSymbolTableRecord
100
AcDbRegAppTableRecord
  2
ACAD
 70
     0
  0
ENDTAB
  0
TABLE
  2
DIMSTYLE
  5
A
330
0
100
AcDbSymbolTable
 70
     1
100
AcDbDimStyleTable
  0
DIMSTYLE
105
27
330
A
100
AcDbSymbolTableRecord
100
AcDbDimStyleTableRecord
  2
ISO-25
 70
     0
 41
2.5
 42
0.625
 43
3.75
 44
1.25
 73
     0
 74
     0
 77
     1
 78
     8
140
2.5
141
2.5
143
0.0393700787
147
0.625
171
     3
172
     1
178
     0
271
     2
272
     2
274
     3
278
    44
283
     0
284
     8
340
11
  0
ENDTAB
  0
TABLE
  2
BLOCK_RECORD
  5
1
330
0
100
AcDbSymbolTable
 70
     8
  0
BLOCK_RECORD
  5
1F
330
1
100
AcDbSymbolTableRecord
100
AcDbBlockTableRecord
  2
*Model_Space
340
22
  0
BLOCK_RECORD
  5
1B
330
1
100
AcDbSymbolTableRecord
100
AcDbBlockTableRecord
  2
*Paper_Space
340
1E
  0
BLOCK_RECORD
  5
23
330
1
100
AcDbSymbolTableRecord
100
AcDbBlockTableRecord
  2
*Paper_Space0
340
26
  0
BLOCK_RECORD
  5
68
330
1
100
AcDbSymbolTableRecord
100
AcDbBlockTableRecord
  2
ﾌﾞﾛｯｸ2
340
0
102
{BLKREFS
331
166
102
}
  0
BLOCK_RECORD
  5
7A
330
1
100
AcDbSymbolTableRecord
100
AcDbBlockTableRecord
  2
新SUGATSUNEロゴ
340
0
102
{BLKREFS
331
165
102
}
  0
BLOCK_RECORD
  5
158
330
1
100
AcDbSymbolTableRecord
100
AcDbBlockTableRecord
  2
ﾌﾞﾛｯｸ1
340
0
102
{BLKREFS
331
164
102
}
  0
BLOCK_RECORD
  5
33E
330
1
100
AcDbSymbolTableRecord
100
AcDbBlockTableRecord
  2
SW_CENTERMARKSYMBOL_0
340
0
102
{BLKREFS
331
349
102
}
  0
BLOCK_RECORD
  5
34A
330
1
100
AcDbSymbolTableRecord
100
AcDbBlockTableRecord
  2
SW_CENTERMARKSYMBOL_1
340
0
102
{BLKREFS
331
355
102
}
  0
BLOCK_RECORD
  5
3EF
330
1
100
AcDbSymbolTableRecord
100
AcDbBlockTableRecord
  2
SW_CENTERMARKSYMBOL_2
340
0
102
{BLKREFS
331
3FA
102
}
  0
BLOCK_RECORD
  5
3FB
330
1
100
AcDbSymbolTableRecord
100
AcDbBlockTableRecord
  2
SW_CENTERMARKSYMBOL_3
340
0
102
{BLKREFS
331
406
102
}
  0
ENDTAB
  0
ENDSEC
  0
SECTION
  2
BLOCKS
  0
BLOCK
  5
20
330
1F
100
AcDbEntity
  8
0
100
AcDbBlockBegin
  2
*Model_Space
 70
     0
 10
0.0
 20
0.0
 30
0.0
  3
*Model_Space
  1

  0
ENDBLK
  5
21
330
1F
100
AcDbEntity
  8
0
100
AcDbBlockEnd
  0
BLOCK
  5
1C
330
1B
100
AcDbEntity
 67
     1
  8
0
100
AcDbBlockBegin
  2
*Paper_Space
 70
     0
 10
0.0
 20
0.0
 30
0.0
  3
*Paper_Space
  1

  0
ENDBLK
  5
1D
330
1B
100
AcDbEntity
 67
     1
  8
0
100
AcDbBlockEnd
  0
BLOCK
  5
24
330
23
100
AcDbEntity
  8
0
100
AcDbBlockBegin
  2
*Paper_Space0
 70
     0
 10
0.0
 20
0.0
 30
0.0
  3
*Paper_Space0
  1

  0
ENDBLK
  5
25
330
23
100
AcDbEntity
  8
0
100
AcDbBlockEnd
  0
BLOCK
  5
69
330
68
100
AcDbEntity
  8
0
100
AcDbBlockBegin
  2
ﾌﾞﾛｯｸ2
 70
     2
 10
0.0
 20
0.0
 30
0.0
  3
ﾌﾞﾛｯｸ2
  1

  0
LINE
  5
6B
330
68
100
AcDbEntity
  8
8
100
AcDbLine
 10
0.0
 20
21.0
 30
0.0
 11
135.0
 21
21.0
 31
0.0
  0
LINE
  5
6C
330
68
100
AcDbEntity
  8
8
100
AcDbLine
 10
0.0
 20
0.0
 30
0.0
 11
135.0
 21
0.0
 31
0.0
  0
LINE
  5
6D
330
68
100
AcDbEntity
  8
8
100
AcDbLine
 10
135.0
 20
21.0
 30
0.0
 11
135.0
 21
0.0
 31
0.0
  0
LINE
  5
6E
330
68
100
AcDbEntity
  8
9
100
AcDbLine
 10
36.0
 20
7.0
 30
0.0
 11
135.0
 21
7.0
 31
0.0
  0
LINE
  5
6F
330
68
100
AcDbEntity
  8
9
100
AcDbLine
 10
36.0
 20
0.0
 30
0.0
 11
36.0
 21
21.0
 31
0.0
  0
LINE
  5
70
330
68
100
AcDbEntity
  8
9
100
AcDbLine
 10
65.0
 20
21.0
 30
0.0
 11
65.0
 21
0.0
 31
0.0
  0
LINE
  5
71
330
68
100
AcDbEntity
  8
8
  6
Continuous
 62
     7
100
AcDbLine
 10
0.0
 20
21.0
 30
0.0
 11
0.0
 21
0.0
 31
0.0
  0
ATTDEF
  5
73
330
68
100
AcDbEntity
  8
SLD-0
 62
     7
100
AcDbText
 10
78.3050930978
 20
15.1674944846
 30
0.0
 40
4.0
  1
180SUS-P6T
 41
0.7
  7
SLDTEXTSTYLE0
 11
78.3050930978
 21
19.1674944846
 31
0.0
100
AcDbAttributeDefinition
  3

  2
AUTOATTR0
 70
     0
 74
     3
  0
ATTDEF
  5
74
330
68
100
AcDbEntity
  8
SLD-0
 62
     7
100
AcDbText
 10
0.0
 20
0.0
 30
0.0
 40
4.0
  1

100
AcDbAttributeDefinition
  3

  2
AUTOATTR0
 70
     0
  0
ATTDEF
  5
75
330
68
100
AcDbEntity
  8
SLD-0
 62
     7
100
AcDbText
 10
66.9646413579
 20
16.3913621251
 30
0.0
 40
2.38125
  1
Title
 41
0.7
  7
SLDTEXTSTYLE0
 11
66.9646413579
 21
18.7726121251
 31
0.0
100
AcDbAttributeDefinition
  3

  2
AUTOATTR0
 70
     0
 74
     3
  0
ATTDEF
  5
76
330
68
100
AcDbEntity
  8
SLD-0
 62
     7
100
AcDbText
 10
66.9646413579
 20
2.0000964735
 30
0.0
 40
2.38125
  1
Date
 41
0.7
  7
SLDTEXTSTYLE0
 11
66.9646413579
 21
4.3813464735
 31
0.0
100
AcDbAttributeDefinition
  3

  2
AUTOATTR0
 70
     0
 74
     3
  0
ATTDEF
  5
77
330
68
100
AcDbEntity
  8
SLD-0
 62
     7
100
AcDbText
 10
51.857512217
 20
1.2697526003
 30
0.0
 40
4.0
  1
1:1
 41
0.7
  7
SLDTEXTSTYLE0
 11
51.857512217
 21
5.2697526003
 31
0.0
100
AcDbAttributeDefinition
  3

  2
AUTOATTR0
 70
     0
 74
     3
  0
ATTDEF
  5
78
330
68
100
AcDbEntity
  8
SLD-0
 62
     7
100
AcDbText
 10
38.4275608796
 20
2.0000964735
 30
0.0
 40
2.38125
  1
Scale
 41
0.7
  7
SLDTEXTSTYLE0
 11
38.4275608796
 21
4.3813464735
 31
0.0
100
AcDbAttributeDefinition
  3

  2
AUTOATTR0
 70
     0
 74
     3
  0
ATTDEF
  5
79
330
68
100
AcDbEntity
  8
SLD-0
 62
     7
100
AcDbText
 10
0.0
 20
0.0
 30
0.0
 40
4.0
  1

100
AcDbAttributeDefinition
  3

  2
AUTOATTR0
 70
     0
  0
INSERT
  5
164
330
68
100
AcDbEntity
  8
0
  6
Continuous
 62
     7
100
AcDbBlockReference
  2
ﾌﾞﾛｯｸ1
 10
39.5300077037
 20
10.3519919558
 30
0.0
  0
INSERT
  5
165
330
68
100
AcDbEntity
  8
0
  6
Continuous
 62
     7
100
AcDbBlockReference
  2
新SUGATSUNEロゴ
 10
0.0273220162
 20
-1.67308293
 30
0.0
  0
ENDBLK
  5
6A
330
68
100
AcDbEntity
  8
0
100
AcDbBlockEnd
  0
BLOCK
  5
7B
330
7A
100
AcDbEntity
  8
0
100
AcDbBlockBegin
  2
新SUGATSUNEロゴ
 70
     0
 10
0.0
 20
0.0
 30
0.0
  3
新SUGATSUNEロゴ
  1

  0
LINE
  5
7D
330
7A
100
AcDbEntity
  8
0
100
AcDbLine
 10
32.7336985468
 20
9.4483046908
 30
0.0
 11
31.5209513067
 21
9.4483046908
 31
0.0
  0
LINE
  5
7E
330
7A
100
AcDbEntity
  8
0
100
AcDbLine
 10
31.5209513067
 20
9.4483046908
 30
0.0
 11
31.5209513067
 21
11.8677744187
 31
0.0
  0
LINE
  5
7F
330
7A
100
AcDbEntity
  8
0
100
AcDbLine
 10
31.5209513067
 20
11.8677744187
 30
0.0
 11
32.484911708
 21
11.8677744187
 31
0.0
  0
LINE
  5
80
330
7A
100
AcDbEntity
  8
0
100
AcDbLine
 10
32.484911708
 20
11.8677744187
 30
0.0
 11
32.484911708
 21
12.7076957977
 31
0.0
  0
LINE
  5
81
330
7A
100
AcDbEntity
  8
0
100
AcDbLine
 10
32.484911708
 20
12.7076957977
 30
0.0
 11
31.5209513067
 21
12.7076957977
 31
0.0
  0
LINE
  5
82
330
7A
100
AcDbEntity
  8
0
100
AcDbLine
 10
31.5209513067
 20
12.7076957977
 30
0.0
 11
31.5209513067
 21
14.492440129
 31
0.0
  0
LINE
  5
83
330
7A
100
AcDbEntity
  8
0
100
AcDbLine
 10
31.5209513067
 20
14.492440129
 30
0.0
 11
32.5596186391
 21
14.492440129
 31
0.0
  0
LINE
  5
84
330
7A
100
AcDbEntity
  8
0
100
AcDbLine
 10
32.5596186391
 20
14.492440129
 30
0.0
 11
32.5596186391
 21
15.3325032669
 31
0.0
  0
LINE
  5
85
330
7A
100
AcDbEntity
  8
0
100
AcDbLine
 10
32.5596186391
 20
15.3325032669
 30
0.0
 11
30.6808881687
 21
15.3325032669
 31
0.0
  0
LINE
  5
86
330
7A
100
AcDbEntity
  8
0
100
AcDbLine
 10
30.6808881687
 20
15.3325032669
 30
0.0
 11
30.6808881687
 21
8.5904508131
 31
0.0
  0
LINE
  5
87
330
7A
100
AcDbEntity
  8
0
100
AcDbLine
 10
30.6808881687
 20
8.5904508131
 30
0.0
 11
32.7336985468
 21
8.5896002598
 31
0.0
  0
LINE
  5
88
330
7A
100
AcDbEntity
  8
0
100
AcDbLine
 10
32.7336985468
 20
8.5896002598
 30
0.0
 11
32.7336985468
 21
9.4483046908
 31
0.0
  0
LINE
  5
89
330
7A
100
AcDbEntity
  8
0
100
AcDbLine
 10
21.049364412
 20
15.3325032669
 30
0.0
 11
18.7355759311
 21
15.3325032669
 31
0.0
  0
LINE
  5
8A
330
7A
100
AcDbEntity
  8
0
100
AcDbLine
 10
18.7355759311
 20
15.3325032669
 30
0.0
 11
18.7355759311
 21
14.492440129
 31
0.0
  0
LINE
  5
8B
330
7A
100
AcDbEntity
  8
0
100
AcDbLine
 10
18.7355759311
 20
14.492440129
 30
0.0
 11
19.4922848461
 21
14.492440129
 31
0.0
  0
LINE
  5
8C
330
7A
100
AcDbEntity
  8
0
100
AcDbLine
 10
19.4922848461
 20
14.492440129
 30
0.0
 11
19.4922848461
 21
8.5904508131
 31
0.0
  0
LINE
  5
8D
330
7A
100
AcDbEntity
  8
0
100
AcDbLine
 10
19.4922848461
 20
8.5904508131
 30
0.0
 11
20.3323479841
 21
8.5904508131
 31
0.0
  0
LINE
  5
8E
330
7A
100
AcDbEntity
  8
0
100
AcDbLine
 10
20.3323479841
 20
8.5904508131
 30
0.0
 11
20.3323479841
 21
14.492440129
 31
0.0
  0
LINE
  5
8F
330
7A
100
AcDbEntity
  8
0
100
AcDbLine
 10
20.3323479841
 20
14.492440129
 30
0.0
 11
21.049364412
 21
14.492440129
 31
0.0
  0
LINE
  5
90
330
7A
100
AcDbEntity
  8
0
100
AcDbLine
 10
21.049364412
 20
14.492440129
 30
0.0
 11
21.049364412
 21
15.3325032669
 31
0.0
  0
LINE
  5
91
330
7A
100
AcDbEntity
  8
0
100
AcDbLine
 10
29.175550595
 20
15.3418593532
 30
0.0
 11
29.175550595
 21
10.4115562977
 31
0.0
  0
LINE
  5
92
330
7A
100
AcDbEntity
  8
0
100
AcDbLine
 10
29.175550595
 20
10.4115562977
 30
0.0
 11
28.3179093556
 21
15.3418593532
 31
0.0
  0
LINE
  5
93
330
7A
100
AcDbEntity
  8
0
100
AcDbLine
 10
28.3179093556
 20
15.3418593532
 30
0.0
 11
26.9115194818
 21
15.3418593532
 31
0.0
  0
LINE
  5
94
330
7A
100
AcDbEntity
  8
0
100
AcDbLine
 10
26.9115194818
 20
15.3418593532
 30
0.0
 11
26.9115194818
 21
8.5904508131
 31
0.0
  0
LINE
  5
95
330
7A
100
AcDbEntity
  8
0
100
AcDbLine
 10
26.9115194818
 20
8.5904508131
 30
0.0
 11
27.7517243787
 21
8.5904508131
 31
0.0
  0
LINE
  5
96
330
7A
100
AcDbEntity
  8
0
100
AcDbLine
 10
27.7517243787
 20
8.5904508131
 30
0.0
 11
27.7517243787
 21
13.7348097812
 31
0.0
  0
LINE
  5
97
330
7A
100
AcDbEntity
  8
0
100
AcDbLine
 10
27.7517243787
 20
13.7348097812
 30
0.0
 11
28.6387097068
 21
8.5883244299
 31
0.0
  0
LINE
  5
98
330
7A
100
AcDbEntity
  8
0
100
AcDbLine
 10
28.6387097068
 20
8.5883244299
 30
0.0
 11
30.0157554918
 21
8.5904508131
 31
0.0
  0
LINE
  5
99
330
7A
100
AcDbEntity
  8
0
100
AcDbLine
 10
30.0157554918
 20
8.5904508131
 30
0.0
 11
30.0157554918
 21
15.3418593532
 31
0.0
  0
LINE
  5
9A
330
7A
100
AcDbEntity
  8
0
100
AcDbLine
 10
30.0157554918
 20
15.3418593532
 30
0.0
 11
29.175550595
 21
15.3418593532
 31
0.0
  0
LINE
  5
9B
330
7A
100
AcDbEntity
  8
0
100
AcDbLine
 10
3.3854988525
 20
9.4534080106
 30
0.0
 11
3.292575905
 21
9.4549673583
 31
0.0
  0
LINE
  5
9C
330
7A
100
AcDbEntity
  8
0
100
AcDbLine
 10
3.292575905
 20
9.4549673583
 30
0.0
 11
3.292575905
 21
8.5959794095
 31
0.0
  0
LINE
  5
9D
330
7A
100
AcDbEntity
  8
0
100
AcDbLine
 10
3.292575905
 20
8.5959794095
 30
0.0
 11
3.4568035704
 21
8.5959794095
 31
0.0
  0
LINE
  5
9E
330
7A
100
AcDbEntity
  8
0
100
AcDbLine
 10
4.9498790008
 20
9.2970479632
 30
0.0
 11
4.9498790008
 21
9.2973314809
 31
0.0
  0
LINE
  5
9F
330
7A
100
AcDbEntity
  8
0
100
AcDbLine
 10
4.9498790008
 20
14.5159721035
 30
0.0
 11
4.9498790008
 21
15.3285340182
 31
0.0
  0
LINE
  5
A0
330
7A
100
AcDbEntity
  8
0
100
AcDbLine
 10
4.9498790008
 20
15.3285340182
 30
0.0
 11
4.6043417246
 21
15.3285340182
 31
0.0
  0
LINE
  5
A1
330
7A
100
AcDbEntity
  8
0
100
AcDbLine
 10
21.230390505
 20
9.4534080106
 30
0.0
 11
21.1375384369
 21
9.4549673583
 31
0.0
  0
LINE
  5
A2
330
7A
100
AcDbEntity
  8
0
100
AcDbLine
 10
21.1375384369
 20
9.4549673583
 30
0.0
 11
21.1375384369
 21
8.5959794095
 31
0.0
  0
LINE
  5
A3
330
7A
100
AcDbEntity
  8
0
100
AcDbLine
 10
21.1375384369
 20
8.5959794095
 30
0.0
 11
21.301553464
 21
8.5959794095
 31
0.0
  0
LINE
  5
A4
330
7A
100
AcDbEntity
  8
0
100
AcDbLine
 10
22.7946997739
 20
9.2970479632
 30
0.0
 11
22.7946997739
 21
9.2973314809
 31
0.0
  0
LINE
  5
A5
330
7A
100
AcDbEntity
  8
0
100
AcDbLine
 10
22.7946997739
 20
14.5159721035
 30
0.0
 11
22.7946997739
 21
15.3285340182
 31
0.0
  0
LINE
  5
A6
330
7A
100
AcDbEntity
  8
0
100
AcDbLine
 10
22.7946997739
 20
15.3285340182
 30
0.0
 11
22.4490916182
 21
15.3285340182
 31
0.0
  0
LINE
  5
A7
330
7A
100
AcDbEntity
  8
0
 62
     1
100
AcDbLine
 10
12.1710764777
 20
17.9278248886
 30
0.0
 11
9.7662787942
 21
17.9278248886
 31
0.0
  0
LINE
  5
A8
330
7A
100
AcDbEntity
  8
0
 62
     1
100
AcDbLine
 10
9.7662787942
 20
17.9278248886
 30
0.0
 11
9.7662787942
 21
20.3329060898
 31
0.0
  0
LINE
  5
A9
330
7A
100
AcDbEntity
  8
0
 62
     1
100
AcDbLine
 10
9.7662787942
 20
20.3329060898
 30
0.0
 11
12.1710764777
 21
20.3329060898
 31
0.0
  0
LINE
  5
AA
330
7A
100
AcDbEntity
  8
0
 62
     1
100
AcDbLine
 10
12.1710764777
 20
20.3329060898
 30
0.0
 11
12.1710764777
 21
17.9278248886
 31
0.0
  0
LINE
  5
AB
330
7A
100
AcDbEntity
  8
0
 62
     1
100
AcDbLine
 10
12.1710764777
 20
3.67
 30
0.0
 11
9.7662787942
 21
3.67
 31
0.0
  0
LINE
  5
AC
330
7A
100
AcDbEntity
  8
0
 62
     1
100
AcDbLine
 10
9.7662787942
 20
3.67
 30
0.0
 11
9.7662787942
 21
6.0749394424
 31
0.0
  0
LINE
  5
AD
330
7A
100
AcDbEntity
  8
0
 62
     1
100
AcDbLine
 10
9.7662787942
 20
6.0749394424
 30
0.0
 11
12.1710764777
 21
6.0749394424
 31
0.0
  0
LINE
  5
AE
330
7A
100
AcDbEntity
  8
0
 62
     1
100
AcDbLine
 10
12.1710764777
 20
6.0749394424
 30
0.0
 11
12.1710764777
 21
3.67
 31
0.0
  0
LINE
  5
AF
330
7A
100
AcDbEntity
  8
0
 62
     1
100
AcDbLine
 10
25.8269222715
 20
17.9278248886
 30
0.0
 11
23.422124588
 21
17.9278248886
 31
0.0
  0
LINE
  5
B0
330
7A
100
AcDbEntity
  8
0
 62
     1
100
AcDbLine
 10
23.422124588
 20
17.9278248886
 30
0.0
 11
23.422124588
 21
20.3329060898
 31
0.0
  0
LINE
  5
B1
330
7A
100
AcDbEntity
  8
0
 62
     1
100
AcDbLine
 10
23.422124588
 20
20.3329060898
 30
0.0
 11
25.8269222715
 21
20.3329060898
 31
0.0
  0
LINE
  5
B2
330
7A
100
AcDbEntity
  8
0
 62
     1
100
AcDbLine
 10
25.8269222715
 20
20.3329060898
 30
0.0
 11
25.8269222715
 21
17.9278248886
 31
0.0
  0
LINE
  5
B3
330
7A
100
AcDbEntity
  8
0
 62
     1
100
AcDbLine
 10
25.8269222715
 20
3.67
 30
0.0
 11
23.422124588
 21
3.67
 31
0.0
  0
LINE
  5
B4
330
7A
100
AcDbEntity
  8
0
 62
     1
100
AcDbLine
 10
23.422124588
 20
3.67
 30
0.0
 11
23.422124588
 21
6.0749394424
 31
0.0
  0
LINE
  5
B5
330
7A
100
AcDbEntity
  8
0
 62
     1
100
AcDbLine
 10
23.422124588
 20
6.0749394424
 30
0.0
 11
25.8269222715
 21
6.0749394424
 31
0.0
  0
LINE
  5
B6
330
7A
100
AcDbEntity
  8
0
 62
     1
100
AcDbLine
 10
25.8269222715
 20
6.0749394424
 30
0.0
 11
25.8269222715
 21
3.67
 31
0.0
  0
LINE
  5
B7
330
7A
100
AcDbEntity
  8
0
100
AcDbLine
 10
8.2465526938
 20
15.3418593532
 30
0.0
 11
7.4064186764
 21
15.3418593532
 31
0.0
  0
LINE
  5
B8
330
7A
100
AcDbEntity
  8
0
100
AcDbLine
 10
7.4064186764
 20
15.3418593532
 30
0.0
 11
7.4025203072
 21
9.7790281638
 31
0.0
  0
LINE
  5
B9
330
7A
100
AcDbEntity
  8
0
100
AcDbLine
 10
6.5577791261
 20
9.7866831435
 30
0.0
 11
6.554873069
 21
15.3418593532
 31
0.0
  0
LINE
  5
BA
330
7A
100
AcDbEntity
  8
0
100
AcDbLine
 10
6.554873069
 20
15.3418593532
 30
0.0
 11
5.7147390516
 21
15.3418593532
 31
0.0
  0
LINE
  5
BB
330
7A
100
AcDbEntity
  8
0
100
AcDbLine
 10
26.1769249525
 20
15.3418593532
 30
0.0
 11
25.3368618145
 21
15.3418593532
 31
0.0
  0
LINE
  5
BC
330
7A
100
AcDbEntity
  8
0
100
AcDbLine
 10
25.3368618145
 20
15.3418593532
 30
0.0
 11
25.3327508069
 21
9.7790281638
 31
0.0
  0
LINE
  5
BD
330
7A
100
AcDbEntity
  8
0
100
AcDbLine
 10
24.4880096259
 20
9.7866831435
 30
0.0
 11
24.4851744482
 21
15.3418593532
 31
0.0
  0
LINE
  5
BE
330
7A
100
AcDbEntity
  8
0
100
AcDbLine
 10
24.4851744482
 20
15.3418593532
 30
0.0
 11
23.6451113103
 21
15.3418593532
 31
0.0
  0
LINE
  5
BF
330
7A
100
AcDbEntity
  8
0
100
AcDbLine
 10
12.9538690271
 20
12.6636087853
 30
0.0
 11
11.909956616
 21
11.8235456473
 31
0.0
  0
LINE
  5
C0
330
7A
100
AcDbEntity
  8
0
100
AcDbLine
 10
11.909956616
 20
11.8235456473
 30
0.0
 11
14.4506301884
 21
11.8235456473
 31
0.0
  0
LINE
  5
C1
330
7A
100
AcDbEntity
  8
0
100
AcDbLine
 10
14.4506301884
 20
11.8235456473
 30
0.0
 11
14.4506301884
 21
10.4153837876
 31
0.0
  0
LINE
  5
C2
330
7A
100
AcDbEntity
  8
0
100
AcDbLine
 10
14.5099562808
 20
13.5421594598
 30
0.0
 11
15.2200265234
 21
14.0836783912
 31
0.0
  0
LINE
  5
C3
330
7A
100
AcDbEntity
  8
0
100
AcDbLine
 10
15.2916856385
 20
10.0266809316
 30
0.0
 11
15.2905515675
 21
12.6636087853
 31
0.0
  0
LINE
  5
C4
330
7A
100
AcDbEntity
  8
0
100
AcDbLine
 10
15.2905515675
 20
12.6636087853
 30
0.0
 11
12.9538690271
 21
12.6636087853
 31
0.0
  0
LINE
  5
C5
330
7A
100
AcDbEntity
  8
0
100
AcDbLine
 10
17.7875634041
 20
15.3342043735
 30
0.0
 11
16.3643042233
 21
15.3342043735
 31
0.0
  0
LINE
  5
C6
330
7A
100
AcDbEntity
  8
0
100
AcDbLine
 10
16.3643042233
 20
15.3342043735
 30
0.0
 11
15.5117663037
 21
8.5904508131
 31
0.0
  0
LINE
  5
C7
330
7A
100
AcDbEntity
  8
0
100
AcDbLine
 10
15.5117663037
 20
8.5904508131
 30
0.0
 11
16.3519003211
 21
8.5904508131
 31
0.0
  0
LINE
  5
C8
330
7A
100
AcDbEntity
  8
0
100
AcDbLine
 10
16.3519003211
 20
8.5904508131
 30
0.0
 11
16.5956547196
 21
10.5190095307
 31
0.0
  0
LINE
  5
C9
330
7A
100
AcDbEntity
  8
0
100
AcDbLine
 10
16.5956547196
 20
10.5190095307
 30
0.0
 11
17.5561420283
 21
10.5190095307
 31
0.0
  0
LINE
  5
CA
330
7A
100
AcDbEntity
  8
0
100
AcDbLine
 10
17.5561420283
 20
10.5190095307
 30
0.0
 11
17.8000381857
 21
8.5904508131
 31
0.0
  0
LINE
  5
CB
330
7A
100
AcDbEntity
  8
0
100
AcDbLine
 10
17.8000381857
 20
8.5904508131
 30
0.0
 11
18.6401722031
 21
8.5904508131
 31
0.0
  0
LINE
  5
CC
330
7A
100
AcDbEntity
  8
0
100
AcDbLine
 10
18.6401722031
 20
8.5904508131
 30
0.0
 11
17.7875634041
 21
15.3342043735
 31
0.0
  0
LINE
  5
CD
330
7A
100
AcDbEntity
  8
0
100
AcDbLine
 10
16.7253640972
 20
11.5449894431
 30
0.0
 11
17.0745162249
 21
14.306594234
 31
0.0
  0
LINE
  5
CE
330
7A
100
AcDbEntity
  8
0
100
AcDbLine
 10
17.0745162249
 20
14.306594234
 30
0.0
 11
17.4265035302
 21
11.5449894431
 31
0.0
  0
LINE
  5
CF
330
7A
100
AcDbEntity
  8
0
100
AcDbLine
 10
17.4265035302
 20
11.5449894431
 30
0.0
 11
16.7253640972
 21
11.5449894431
 31
0.0
  0
LINE
  5
D0
330
7A
100
AcDbEntity
  8
0
370
    18
100
AcDbLine
 10
32.7336985468
 20
9.4483046908
 30
0.0
 11
31.5209513067
 21
9.4483046908
 31
0.0
  0
LINE
  5
D1
330
7A
100
AcDbEntity
  8
0
370
    18
100
AcDbLine
 10
31.5209513067
 20
9.4483046908
 30
0.0
 11
31.5209513067
 21
11.8677744187
 31
0.0
  0
LINE
  5
D2
330
7A
100
AcDbEntity
  8
0
370
    18
100
AcDbLine
 10
31.5209513067
 20
11.8677744187
 30
0.0
 11
32.484911708
 21
11.8677744187
 31
0.0
  0
LINE
  5
D3
330
7A
100
AcDbEntity
  8
0
370
    18
100
AcDbLine
 10
32.484911708
 20
11.8677744187
 30
0.0
 11
32.484911708
 21
12.7076957977
 31
0.0
  0
LINE
  5
D4
330
7A
100
AcDbEntity
  8
0
370
    18
100
AcDbLine
 10
32.484911708
 20
12.7076957977
 30
0.0
 11
31.5209513067
 21
12.7076957977
 31
0.0
  0
LINE
  5
D5
330
7A
100
AcDbEntity
  8
0
370
    18
100
AcDbLine
 10
31.5209513067
 20
12.7076957977
 30
0.0
 11
31.5209513067
 21
14.492440129
 31
0.0
  0
LINE
  5
D6
330
7A
100
AcDbEntity
  8
0
370
    18
100
AcDbLine
 10
31.5209513067
 20
14.492440129
 30
0.0
 11
32.5596186391
 21
14.492440129
 31
0.0
  0
LINE
  5
D7
330
7A
100
AcDbEntity
  8
0
370
    18
100
AcDbLine
 10
32.5596186391
 20
14.492440129
 30
0.0
 11
32.5596186391
 21
15.3325032669
 31
0.0
  0
LINE
  5
D8
330
7A
100
AcDbEntity
  8
0
370
    18
100
AcDbLine
 10
32.5596186391
 20
15.3325032669
 30
0.0
 11
30.6808881687
 21
15.3325032669
 31
0.0
  0
LINE
  5
D9
330
7A
100
AcDbEntity
  8
0
370
    18
100
AcDbLine
 10
30.6808881687
 20
15.3325032669
 30
0.0
 11
30.6808881687
 21
8.5904508131
 31
0.0
  0
LINE
  5
DA
330
7A
100
AcDbEntity
  8
0
370
    18
100
AcDbLine
 10
30.6808881687
 20
8.5904508131
 30
0.0
 11
32.7336985468
 21
8.5896002598
 31
0.0
  0
LINE
  5
DB
330
7A
100
AcDbEntity
  8
0
370
    18
100
AcDbLine
 10
32.7336985468
 20
8.5896002598
 30
0.0
 11
32.7336985468
 21
9.4483046908
 31
0.0
  0
LINE
  5
DC
330
7A
100
AcDbEntity
  8
0
370
    18
100
AcDbLine
 10
21.049364412
 20
15.3325032669
 30
0.0
 11
18.7355759311
 21
15.3325032669
 31
0.0
  0
LINE
  5
DD
330
7A
100
AcDbEntity
  8
0
370
    18
100
AcDbLine
 10
18.7355759311
 20
15.3325032669
 30
0.0
 11
18.7355759311
 21
14.492440129
 31
0.0
  0
LINE
  5
DE
330
7A
100
AcDbEntity
  8
0
370
    18
100
AcDbLine
 10
18.7355759311
 20
14.492440129
 30
0.0
 11
19.4922848461
 21
14.492440129
 31
0.0
  0
LINE
  5
DF
330
7A
100
AcDbEntity
  8
0
370
    18
100
AcDbLine
 10
19.4922848461
 20
14.492440129
 30
0.0
 11
19.4922848461
 21
8.5904508131
 31
0.0
  0
LINE
  5
E0
330
7A
100
AcDbEntity
  8
0
370
    18
100
AcDbLine
 10
19.4922848461
 20
8.5904508131
 30
0.0
 11
20.3323479841
 21
8.5904508131
 31
0.0
  0
LINE
  5
E1
330
7A
100
AcDbEntity
  8
0
370
    18
100
AcDbLine
 10
20.3323479841
 20
8.5904508131
 30
0.0
 11
20.3323479841
 21
14.492440129
 31
0.0
  0
LINE
  5
E2
330
7A
100
AcDbEntity
  8
0
370
    18
100
AcDbLine
 10
20.3323479841
 20
14.492440129
 30
0.0
 11
21.049364412
 21
14.492440129
 31
0.0
  0
LINE
  5
E3
330
7A
100
AcDbEntity
  8
0
370
    18
100
AcDbLine
 10
21.049364412
 20
14.492440129
 30
0.0
 11
21.049364412
 21
15.3325032669
 31
0.0
  0
LINE
  5
E4
330
7A
100
AcDbEntity
  8
0
370
    18
100
AcDbLine
 10
29.175550595
 20
15.3418593532
 30
0.0
 11
29.175550595
 21
10.4115562977
 31
0.0
  0
LINE
  5
E5
330
7A
100
AcDbEntity
  8
0
370
    18
100
AcDbLine
 10
29.175550595
 20
10.4115562977
 30
0.0
 11
28.3179093556
 21
15.3418593532
 31
0.0
  0
LINE
  5
E6
330
7A
100
AcDbEntity
  8
0
370
    18
100
AcDbLine
 10
28.3179093556
 20
15.3418593532
 30
0.0
 11
26.9115194818
 21
15.3418593532
 31
0.0
  0
LINE
  5
E7
330
7A
100
AcDbEntity
  8
0
370
    18
100
AcDbLine
 10
26.9115194818
 20
15.3418593532
 30
0.0
 11
26.9115194818
 21
8.5904508131
 31
0.0
  0
LINE
  5
E8
330
7A
100
AcDbEntity
  8
0
370
    18
100
AcDbLine
 10
26.9115194818
 20
8.5904508131
 30
0.0
 11
27.7517243787
 21
8.5904508131
 31
0.0
  0
LINE
  5
E9
330
7A
100
AcDbEntity
  8
0
370
    18
100
AcDbLine
 10
27.7517243787
 20
8.5904508131
 30
0.0
 11
27.7517243787
 21
13.7348097812
 31
0.0
  0
LINE
  5
EA
330
7A
100
AcDbEntity
  8
0
370
    18
100
AcDbLine
 10
27.7517243787
 20
13.7348097812
 30
0.0
 11
28.6387097068
 21
8.5883244299
 31
0.0
  0
LINE
  5
EB
330
7A
100
AcDbEntity
  8
0
370
    18
100
AcDbLine
 10
28.6387097068
 20
8.5883244299
 30
0.0
 11
30.0157554918
 21
8.5904508131
 31
0.0
  0
LINE
  5
EC
330
7A
100
AcDbEntity
  8
0
370
    18
100
AcDbLine
 10
30.0157554918
 20
8.5904508131
 30
0.0
 11
30.0157554918
 21
15.3418593532
 31
0.0
  0
LINE
  5
ED
330
7A
100
AcDbEntity
  8
0
370
    18
100
AcDbLine
 10
30.0157554918
 20
15.3418593532
 30
0.0
 11
29.175550595
 21
15.3418593532
 31
0.0
  0
LINE
  5
EE
330
7A
100
AcDbEntity
  8
0
370
    18
100
AcDbLine
 10
3.3854988525
 20
9.4534080106
 30
0.0
 11
3.292575905
 21
9.4549673583
 31
0.0
  0
LINE
  5
EF
330
7A
100
AcDbEntity
  8
0
370
    18
100
AcDbLine
 10
3.292575905
 20
9.4549673583
 30
0.0
 11
3.292575905
 21
8.5959794095
 31
0.0
  0
LINE
  5
F0
330
7A
100
AcDbEntity
  8
0
370
    18
100
AcDbLine
 10
3.292575905
 20
8.5959794095
 30
0.0
 11
3.4568035704
 21
8.5959794095
 31
0.0
  0
LINE
  5
F1
330
7A
100
AcDbEntity
  8
0
370
    18
100
AcDbLine
 10
4.9498790008
 20
9.2970479632
 30
0.0
 11
4.9498790008
 21
9.2973314809
 31
0.0
  0
LINE
  5
F2
330
7A
100
AcDbEntity
  8
0
370
    18
100
AcDbLine
 10
4.9498790008
 20
14.5159721035
 30
0.0
 11
4.9498790008
 21
15.3285340182
 31
0.0
  0
LINE
  5
F3
330
7A
100
AcDbEntity
  8
0
370
    18
100
AcDbLine
 10
4.9498790008
 20
15.3285340182
 30
0.0
 11
4.6043417246
 21
15.3285340182
 31
0.0
  0
LINE
  5
F4
330
7A
100
AcDbEntity
  8
0
370
    18
100
AcDbLine
 10
21.230390505
 20
9.4534080106
 30
0.0
 11
21.1375384369
 21
9.4549673583
 31
0.0
  0
LINE
  5
F5
330
7A
100
AcDbEntity
  8
0
370
    18
100
AcDbLine
 10
21.1375384369
 20
9.4549673583
 30
0.0
 11
21.1375384369
 21
8.5959794095
 31
0.0
  0
LINE
  5
F6
330
7A
100
AcDbEntity
  8
0
370
    18
100
AcDbLine
 10
21.1375384369
 20
8.5959794095
 30
0.0
 11
21.301553464
 21
8.5959794095
 31
0.0
  0
LINE
  5
F7
330
7A
100
AcDbEntity
  8
0
370
    18
100
AcDbLine
 10
22.7946997739
 20
9.2970479632
 30
0.0
 11
22.7946997739
 21
9.2973314809
 31
0.0
  0
LINE
  5
F8
330
7A
100
AcDbEntity
  8
0
370
    18
100
AcDbLine
 10
22.7946997739
 20
14.5159721035
 30
0.0
 11
22.7946997739
 21
15.3285340182
 31
0.0
  0
LINE
  5
F9
330
7A
100
AcDbEntity
  8
0
370
    18
100
AcDbLine
 10
22.7946997739
 20
15.3285340182
 30
0.0
 11
22.4490916182
 21
15.3285340182
 31
0.0
  0
LINE
  5
FA
330
7A
100
AcDbEntity
  8
0
 62
     1
370
    18
100
AcDbLine
 10
12.1710764777
 20
17.9278248886
 30
0.0
 11
9.7662787942
 21
17.9278248886
 31
0.0
  0
LINE
  5
FB
330
7A
100
AcDbEntity
  8
0
 62
     1
370
    18
100
AcDbLine
 10
9.7662787942
 20
17.9278248886
 30
0.0
 11
9.7662787942
 21
20.3329060898
 31
0.0
  0
LINE
  5
FC
330
7A
100
AcDbEntity
  8
0
 62
     1
370
    18
100
AcDbLine
 10
9.7662787942
 20
20.3329060898
 30
0.0
 11
12.1710764777
 21
20.3329060898
 31
0.0
  0
LINE
  5
FD
330
7A
100
AcDbEntity
  8
0
 62
     1
370
    18
100
AcDbLine
 10
12.1710764777
 20
20.3329060898
 30
0.0
 11
12.1710764777
 21
17.9278248886
 31
0.0
  0
LINE
  5
FE
330
7A
100
AcDbEntity
  8
0
 62
     1
370
    18
100
AcDbLine
 10
12.1710764777
 20
3.67
 30
0.0
 11
9.7662787942
 21
3.67
 31
0.0
  0
LINE
  5
FF
330
7A
100
AcDbEntity
  8
0
 62
     1
370
    18
100
AcDbLine
 10
9.7662787942
 20
3.67
 30
0.0
 11
9.7662787942
 21
6.0749394424
 31
0.0
  0
LINE
  5
100
330
7A
100
AcDbEntity
  8
0
 62
     1
370
    18
100
AcDbLine
 10
9.7662787942
 20
6.0749394424
 30
0.0
 11
12.1710764777
 21
6.0749394424
 31
0.0
  0
LINE
  5
101
330
7A
100
AcDbEntity
  8
0
 62
     1
370
    18
100
AcDbLine
 10
12.1710764777
 20
6.0749394424
 30
0.0
 11
12.1710764777
 21
3.67
 31
0.0
  0
LINE
  5
102
330
7A
100
AcDbEntity
  8
0
 62
     1
370
    18
100
AcDbLine
 10
25.8269222715
 20
17.9278248886
 30
0.0
 11
23.422124588
 21
17.9278248886
 31
0.0
  0
LINE
  5
103
330
7A
100
AcDbEntity
  8
0
 62
     1
370
    18
100
AcDbLine
 10
23.422124588
 20
17.9278248886
 30
0.0
 11
23.422124588
 21
20.3329060898
 31
0.0
  0
LINE
  5
104
330
7A
100
AcDbEntity
  8
0
 62
     1
370
    18
100
AcDbLine
 10
23.422124588
 20
20.3329060898
 30
0.0
 11
25.8269222715
 21
20.3329060898
 31
0.0
  0
LINE
  5
105
330
7A
100
AcDbEntity
  8
0
 62
     1
370
    18
100
AcDbLine
 10
25.8269222715
 20
20.3329060898
 30
0.0
 11
25.8269222715
 21
17.9278248886
 31
0.0
  0
LINE
  5
106
330
7A
100
AcDbEntity
  8
0
 62
     1
370
    18
100
AcDbLine
 10
25.8269222715
 20
3.67
 30
0.0
 11
23.422124588
 21
3.67
 31
0.0
  0
LINE
  5
107
330
7A
100
AcDbEntity
  8
0
 62
     1
370
    18
100
AcDbLine
 10
23.422124588
 20
3.67
 30
0.0
 11
23.422124588
 21
6.0749394424
 31
0.0
  0
LINE
  5
108
330
7A
100
AcDbEntity
  8
0
 62
     1
370
    18
100
AcDbLine
 10
23.422124588
 20
6.0749394424
 30
0.0
 11
25.8269222715
 21
6.0749394424
 31
0.0
  0
LINE
  5
109
330
7A
100
AcDbEntity
  8
0
 62
     1
370
    18
100
AcDbLine
 10
25.8269222715
 20
6.0749394424
 30
0.0
 11
25.8269222715
 21
3.67
 31
0.0
  0
LINE
  5
10A
330
7A
100
AcDbEntity
  8
0
370
    18
100
AcDbLine
 10
8.2465526938
 20
15.3418593532
 30
0.0
 11
7.4064186764
 21
15.3418593532
 31
0.0
  0
LINE
  5
10B
330
7A
100
AcDbEntity
  8
0
370
    18
100
AcDbLine
 10
7.4064186764
 20
15.3418593532
 30
0.0
 11
7.4025203072
 21
9.7790281638
 31
0.0
  0
LINE
  5
10C
330
7A
100
AcDbEntity
  8
0
370
    18
100
AcDbLine
 10
6.5577791261
 20
9.7866831435
 30
0.0
 11
6.554873069
 21
15.3418593532
 31
0.0
  0
LINE
  5
10D
330
7A
100
AcDbEntity
  8
0
370
    18
100
AcDbLine
 10
6.554873069
 20
15.3418593532
 30
0.0
 11
5.7147390516
 21
15.3418593532
 31
0.0
  0
LINE
  5
10E
330
7A
100
AcDbEntity
  8
0
370
    18
100
AcDbLine
 10
26.1769249525
 20
15.3418593532
 30
0.0
 11
25.3368618145
 21
15.3418593532
 31
0.0
  0
LINE
  5
10F
330
7A
100
AcDbEntity
  8
0
370
    18
100
AcDbLine
 10
25.3368618145
 20
15.3418593532
 30
0.0
 11
25.3327508069
 21
9.7790281638
 31
0.0
  0
LINE
  5
110
330
7A
100
AcDbEntity
  8
0
370
    18
100
AcDbLine
 10
24.4880096259
 20
9.7866831435
 30
0.0
 11
24.4851744482
 21
15.3418593532
 31
0.0
  0
LINE
  5
111
330
7A
100
AcDbEntity
  8
0
370
    18
100
AcDbLine
 10
24.4851744482
 20
15.3418593532
 30
0.0
 11
23.6451113103
 21
15.3418593532
 31
0.0
  0
LINE
  5
112
330
7A
100
AcDbEntity
  8
0
370
    18
100
AcDbLine
 10
12.9538690271
 20
12.6636087853
 30
0.0
 11
11.909956616
 21
11.8235456473
 31
0.0
  0
LINE
  5
113
330
7A
100
AcDbEntity
  8
0
370
    18
100
AcDbLine
 10
11.909956616
 20
11.8235456473
 30
0.0
 11
14.4506301884
 21
11.8235456473
 31
0.0
  0
LINE
  5
114
330
7A
100
AcDbEntity
  8
0
370
    18
100
AcDbLine
 10
14.4506301884
 20
11.8235456473
 30
0.0
 11
14.4506301884
 21
10.4153837876
 31
0.0
  0
LINE
  5
115
330
7A
100
AcDbEntity
  8
0
370
    18
100
AcDbLine
 10
14.5099562808
 20
13.5421594598
 30
0.0
 11
15.2200265234
 21
14.0836783912
 31
0.0
  0
LINE
  5
116
330
7A
100
AcDbEntity
  8
0
370
    18
100
AcDbLine
 10
15.2916856385
 20
10.0266809316
 30
0.0
 11
15.2905515675
 21
12.6636087853
 31
0.0
  0
LINE
  5
117
330
7A
100
AcDbEntity
  8
0
370
    18
100
AcDbLine
 10
15.2905515675
 20
12.6636087853
 30
0.0
 11
12.9538690271
 21
12.6636087853
 31
0.0
  0
LINE
  5
118
330
7A
100
AcDbEntity
  8
0
370
    18
100
AcDbLine
 10
17.7875634041
 20
15.3342043735
 30
0.0
 11
16.3643042233
 21
15.3342043735
 31
0.0
  0
LINE
  5
119
330
7A
100
AcDbEntity
  8
0
370
    18
100
AcDbLine
 10
16.3643042233
 20
15.3342043735
 30
0.0
 11
15.5117663037
 21
8.5904508131
 31
0.0
  0
LINE
  5
11A
330
7A
100
AcDbEntity
  8
0
370
    18
100
AcDbLine
 10
15.5117663037
 20
8.5904508131
 30
0.0
 11
16.3519003211
 21
8.5904508131
 31
0.0
  0
LINE
  5
11B
330
7A
100
AcDbEntity
  8
0
370
    18
100
AcDbLine
 10
16.3519003211
 20
8.5904508131
 30
0.0
 11
16.5956547196
 21
10.5190095307
 31
0.0
  0
LINE
  5
11C
330
7A
100
AcDbEntity
  8
0
370
    18
100
AcDbLine
 10
16.5956547196
 20
10.5190095307
 30
0.0
 11
17.5561420283
 21
10.5190095307
 31
0.0
  0
LINE
  5
11D
330
7A
100
AcDbEntity
  8
0
370
    18
100
AcDbLine
 10
17.5561420283
 20
10.5190095307
 30
0.0
 11
17.8000381857
 21
8.5904508131
 31
0.0
  0
LINE
  5
11E
330
7A
100
AcDbEntity
  8
0
370
    18
100
AcDbLine
 10
17.8000381857
 20
8.5904508131
 30
0.0
 11
18.6401722031
 21
8.5904508131
 31
0.0
  0
LINE
  5
11F
330
7A
100
AcDbEntity
  8
0
370
    18
100
AcDbLine
 10
18.6401722031
 20
8.5904508131
 30
0.0
 11
17.7875634041
 21
15.3342043735
 31
0.0
  0
LINE
  5
120
330
7A
100
AcDbEntity
  8
0
370
    18
100
AcDbLine
 10
16.7253640972
 20
11.5449894431
 30
0.0
 11
17.0745162249
 21
14.306594234
 31
0.0
  0
LINE
  5
121
330
7A
100
AcDbEntity
  8
0
370
    18
100
AcDbLine
 10
17.0745162249
 20
14.306594234
 30
0.0
 11
17.4265035302
 21
11.5449894431
 31
0.0
  0
LINE
  5
122
330
7A
100
AcDbEntity
  8
0
370
    18
100
AcDbLine
 10
17.4265035302
 20
11.5449894431
 30
0.0
 11
16.7253640972
 21
11.5449894431
 31
0.0
  0
SPLINE
  5
123
330
7A
100
AcDbEntity
  8
0
370
    18
100
AcDbSpline
210
0.0
220
0.0
230
1.0
 70
     8
 71
     3
 72
     8
 73
     4
 74
     0
 42
0.00000001
 43
0.00000001
 40
0.0
 40
0.0
 40
0.0
 40
0.0
 40
1.0
 40
1.0
 40
1.0
 40
1.0
 10
3.610044922460022
 20
12.39688944776983
 30
0.0
 10
4.129095070897104
 20
11.47510231402356
 30
0.0
 10
4.338118543209125
 20
11.01807167669972
 30
0.0
 10
4.392341315782439
 20
10.69273504125985
 30
0.0
  0
SPLINE
  5
124
330
7A
100
AcDbEntity
  8
0
100
AcDbSpline
210
0.0
220
0.0
230
1.0
 70
     8
 71
     3
 72
     8
 73
     4
 74
     0
 42
0.00000001
 43
0.00000001
 40
0.0
 40
0.0
 40
0.0
 40
0.0
 40
1.0
 40
1.0
 40
1.0
 40
1.0
 10
3.456803570429299
 20
8.59597940954257
 30
0.0
 10
4.008670900175461
 20
8.625890533759485
 30
0.0
 10
4.525665544815639
 20
8.733627284493354
 30
0.0
 10
4.949879000830379
 20
9.297047963166914
 30
0.0
  0
SPLINE
  5
125
330
7A
100
AcDbEntity
  8
0
370
    18
100
AcDbSpline
210
0.0
220
0.0
230
1.0
 70
     8
 71
     3
 72
     8
 73
     4
 74
     0
 42
0.00000001
 43
0.00000001
 40
1.0
 40
1.0
 40
1.0
 40
1.0
 40
2.0
 40
2.0
 40
2.0
 40
2.0
 10
4.392341315782439
 20
10.69273504125985
 30
0.0
 10
4.44656408835575
 20
10.36732752637871
 30
0.0
 10
4.45662896901642
 20
9.982593919152642
 30
0.0
 10
4.129095070897104
 20
9.654989141592026
 30
0.0
  0
SPLINE
  5
126
330
7A
100
AcDbEntity
  8
0
100
AcDbSpline
210
0.0
220
0.0
230
1.0
 70
     8
 71
     3
 72
     8
 73
     4
 74
     0
 42
0.00000001
 43
0.00000001
 40
0.0
 40
0.0
 40
0.0
 40
0.0
 40
1.0
 40
1.0
 40
1.0
 40
1.0
 10
21.30155346402704
 20
8.59597940954257
 30
0.0
 10
21.85327903489065
 20
8.625890533759485
 30
0.0
 10
22.37041543841338
 20
8.733627284493354
 30
0.0
 10
22.79469977386939
 20
9.297047963166914
 30
0.0
  0
SPLINE
  5
127
330
7A
100
AcDbEntity
  8
0
370
    18
100
AcDbSpline
210
0.0
220
0.0
230
1.0
 70
     8
 71
     2
 72
     6
 73
     3
 74
     0
 42
0.00000001
 43
0.00000001
 40
2.0
 40
2.0
 40
2.0
 40
3.0
 40
3.0
 40
3.0
 10
4.129095070897104
 20
9.654989141592026
 30
0.0
 10
3.919858960261265
 20
9.445611272073664
 30
0.0
 10
3.385498852509362
 20
9.453408010613625
 30
0.0
  0
SPLINE
  5
128
330
7A
100
AcDbEntity
  8
0
370
    18
100
AcDbSpline
210
0.0
220
0.0
230
1.0
 70
     8
 71
     3
 72
     8
 73
     4
 74
     0
 42
0.00000001
 43
0.00000001
 40
6.0
 40
6.0
 40
6.0
 40
6.0
 40
7.0
 40
7.0
 40
7.0
 40
7.0
 10
3.456803570429299
 20
8.59597940954257
 30
0.0
 10
4.008670900175461
 20
8.625890533759485
 30
0.0
 10
4.525665544815639
 20
8.733627284493354
 30
0.0
 10
4.949879000830379
 20
9.297047963166914
 30
0.0
  0
SPLINE
  5
129
330
7A
100
AcDbEntity
  8
0
100
AcDbSpline
210
0.0
220
0.0
230
1.0
 70
     8
 71
     2
 72
     6
 73
     3
 74
     0
 42
0.00000001
 43
0.00000001
 40
0.0
 40
0.0
 40
0.0
 40
1.0
 40
1.0
 40
1.0
 10
14.45063018841125
 20
10.41538378756133
 30
0.0
 10
14.35969186525889
 20
10.27064796848328
 30
0.0
 10
14.18199710598922
 20
10.09600102518832
 30
0.0
  0
SPLINE
  5
12A
330
7A
100
AcDbEntity
  8
0
370
    18
100
AcDbSpline
210
0.0
220
0.0
230
1.0
 70
     8
 71
     3
 72
     8
 73
     4
 74
     0
 42
0.00000001
 43
0.00000001
 40
8.0
 40
8.0
 40
8.0
 40
8.0
 40
9.0
 40
9.0
 40
9.0
 40
9.0
 10
4.949879000830379
 20
9.297331480932005
 30
0.0
 10
5.118713829941009
 20
9.538605099022927
 30
0.0
 10
5.231270382681425
 20
9.822689899642315
 30
0.0
 10
5.267560656612845
 20
10.088629563296
 30
0.0
  0
SPLINE
  5
12B
330
7A
100
AcDbEntity
  8
0
370
    18
100
AcDbSpline
210
0.0
220
0.0
230
1.0
 70
     8
 71
     3
 72
     8
 73
     4
 74
     0
 42
0.00000001
 43
0.00000001
 40
9.0
 40
9.0
 40
9.0
 40
9.0
 40
10.0
 40
10.0
 40
10.0
 40
10.0
 10
5.267560656612845
 20
10.088629563296
 30
0.0
 10
5.314057570087478
 20
10.42941791693324
 30
0.0
 10
5.252038058974208
 20
10.71612525687973
 30
0.0
 10
5.182363568203539
 20
11.01041669704231
 30
0.0
  0
SPLINE
  5
12C
330
7A
100
AcDbEntity
  8
0
370
    18
100
AcDbSpline
210
0.0
220
0.0
230
1.0
 70
     8
 71
     3
 72
     8
 73
     4
 74
     0
 42
0.00000001
 43
0.00000001
 40
10.0
 40
10.0
 40
10.0
 40
10.0
 40
11.0
 40
11.0
 40
11.0
 40
11.0
 10
5.182363568203539
 20
11.01041669704231
 30
0.0
 10
5.137851279084528
 20
11.19796369864881
 30
0.0
 10
4.872478650961024
 20
11.82099398743238
 30
0.0
 10
4.833849355467621
 20
11.90122951495261
 30
0.0
  0
SPLINE
  5
12D
330
7A
100
AcDbEntity
  8
0
370
    18
100
AcDbSpline
210
0.0
220
0.0
230
1.0
 70
     8
 71
     3
 72
     8
 73
     4
 74
     0
 42
0.00000001
 43
0.00000001
 40
11.0
 40
11.0
 40
11.0
 40
11.0
 40
12.0
 40
12.0
 40
12.0
 40
12.0
 10
4.833849355467621
 20
11.90122951495261
 30
0.0
 10
4.648145219334186
 20
12.28582136329613
 30
0.0
 10
4.291692509175768
 20
12.88482352148837
 30
0.0
 10
4.175521104930461
 20
13.22568275456688
 30
0.0
  0
SPLINE
  5
12E
330
7A
100
AcDbEntity
  8
0
370
    18
100
AcDbSpline
210
0.0
220
0.0
230
1.0
 70
     8
 71
     3
 72
     8
 73
     4
 74
     0
 42
0.00000001
 43
0.00000001
 40
12.0
 40
12.0
 40
12.0
 40
12.0
 40
13.0
 40
13.0
 40
13.0
 40
13.0
 10
4.175521104930461
 20
13.22568275456688
 30
0.0
 10
4.059349700685156
 20
13.56640022876286
 30
0.0
 10
4.098049875619833
 20
13.97693395261202
 30
0.0
 10
4.160069386733099
 20
14.14711549110683
 30
0.0
  0
SPLINE
  5
12F
330
7A
100
AcDbEntity
  8
0
370
    18
100
AcDbSpline
210
0.0
220
0.0
230
1.0
 70
     8
 71
     3
 72
     8
 73
     4
 74
     0
 42
0.00000001
 43
0.00000001
 40
13.0
 40
13.0
 40
13.0
 40
13.0
 40
14.0
 40
14.0
 40
14.0
 40
14.0
 10
4.160069386733099
 20
14.14711549110683
 30
0.0
 10
4.222018018405095
 20
14.31750966792545
 30
0.0
 10
4.40006717488112
 20
14.46493890577188
 30
0.0
 10
4.578258090239689
 20
14.50349732182399
 30
0.0
  0
SPLINE
  5
130
330
7A
100
AcDbEntity
  8
0
370
    18
100
AcDbSpline
210
0.0
220
0.0
230
1.0
 70
     8
 71
     3
 72
     8
 73
     4
 74
     0
 42
0.00000001
 43
0.00000001
 40
14.0
 40
14.0
 40
14.0
 40
14.0
 40
15.0
 40
15.0
 40
15.0
 40
15.0
 10
4.578258090239689
 20
14.50349732182399
 30
0.0
 10
4.678694258522547
 20
14.52539906917713
 30
0.0
 10
4.815845977384454
 20
14.52242213264369
 30
0.0
 10
4.949879000830379
 20
14.51597210348793
 30
0.0
  0
SPLINE
  5
131
330
7A
100
AcDbEntity
  8
0
370
    18
100
AcDbSpline
210
0.0
220
0.0
230
1.0
 70
     8
 71
     3
 72
     8
 73
     4
 74
     0
 42
0.00000001
 43
0.00000001
 40
17.0
 40
17.0
 40
17.0
 40
17.0
 40
18.0
 40
18.0
 40
18.0
 40
18.0
 10
4.604341724627901
 20
15.3285340182336
 30
0.0
 10
4.293818892413936
 20
15.3285340182336
 30
0.0
 10
3.922056222940704
 20
15.17954543267921
 30
0.0
 10
3.648886856277244
 20
14.89078258893584
 30
0.0
  0
SPLINE
  5
132
330
7A
100
AcDbEntity
  8
0
370
    18
100
AcDbSpline
210
0.0
220
0.0
230
1.0
 70
     8
 71
     3
 72
     8
 73
     4
 74
     0
 42
0.00000001
 43
0.00000001
 40
18.0
 40
18.0
 40
18.0
 40
18.0
 40
19.0
 40
19.0
 40
19.0
 40
19.0
 10
3.648886856277244
 20
14.89078258893584
 30
0.0
 10
3.355091572203543
 20
14.5804723950457
 30
0.0
 10
3.176404500756066
 20
14.23252521783996
 30
0.0
 10
3.230627273329383
 20
13.57412608786154
 30
0.0
  0
SPLINE
  5
133
330
7A
100
AcDbEntity
  8
0
370
    18
100
AcDbSpline
210
0.0
220
0.0
230
1.0
 70
     8
 71
     3
 72
     8
 73
     4
 74
     0
 42
0.00000001
 43
0.00000001
 40
19.0
 40
19.0
 40
19.0
 40
19.0
 40
20.0
 40
20.0
 40
20.0
 40
20.0
 10
3.230627273329383
 20
13.57412608786154
 30
0.0
 10
3.261530709724104
 20
13.17124734366976
 30
0.0
 10
3.356792678794077
 20
12.84683214096644
 30
0.0
 10
3.610044922460022
 20
12.39688944776983
 30
0.0
  0
SPLINE
  5
134
330
7A
100
AcDbEntity
  8
0
370
    18
100
AcDbSpline
210
0.0
220
0.0
230
1.0
 70
     8
 71
     3
 72
     8
 73
     4
 74
     0
 42
0.00000001
 43
0.00000001
 40
0.0
 40
0.0
 40
0.0
 40
0.0
 40
1.0
 40
1.0
 40
1.0
 40
1.0
 10
21.45465305717521
 20
12.39688944776983
 30
0.0
 10
21.97377408505358
 20
11.47510231402356
 30
0.0
 10
22.18301019568941
 20
11.01807167669972
 30
0.0
 10
22.23716208882146
 20
10.69273504125985
 30
0.0
  0
SPLINE
  5
135
330
7A
100
AcDbEntity
  8
0
370
    18
100
AcDbSpline
210
0.0
220
0.0
230
1.0
 70
     8
 71
     3
 72
     8
 73
     4
 74
     0
 42
0.00000001
 43
0.00000001
 40
1.0
 40
1.0
 40
1.0
 40
1.0
 40
2.0
 40
2.0
 40
2.0
 40
2.0
 10
22.23716208882146
 20
10.69273504125985
 30
0.0
 10
22.29117222307095
 20
10.36732752637871
 30
0.0
 10
22.30137886261416
 20
9.982593919152642
 30
0.0
 10
21.97377408505358
 20
9.654989141592026
 30
0.0
  0
SPLINE
  5
136
330
7A
100
AcDbEntity
  8
0
370
    18
100
AcDbSpline
210
0.0
220
0.0
230
1.0
 70
     8
 71
     2
 72
     6
 73
     3
 74
     0
 42
0.00000001
 43
0.00000001
 40
2.0
 40
2.0
 40
2.0
 40
3.0
 40
3.0
 40
3.0
 10
21.97377408505358
 20
9.654989141592026
 30
0.0
 10
21.76453797441773
 20
9.445611272073664
 30
0.0
 10
21.23039050498965
 20
9.453408010613625
 30
0.0
  0
SPLINE
  5
137
330
7A
100
AcDbEntity
  8
0
370
    18
100
AcDbSpline
210
0.0
220
0.0
230
1.0
 70
     8
 71
     3
 72
     8
 73
     4
 74
     0
 42
0.00000001
 43
0.00000001
 40
6.0
 40
6.0
 40
6.0
 40
6.0
 40
7.0
 40
7.0
 40
7.0
 40
7.0
 10
21.30155346402704
 20
8.59597940954257
 30
0.0
 10
21.85327903489065
 20
8.625890533759485
 30
0.0
 10
22.37041543841338
 20
8.733627284493354
 30
0.0
 10
22.79469977386939
 20
9.297047963166914
 30
0.0
  0
SPLINE
  5
138
330
7A
100
AcDbEntity
  8
0
370
    18
100
AcDbSpline
210
0.0
220
0.0
230
1.0
 70
     8
 71
     3
 72
     8
 73
     4
 74
     0
 42
0.00000001
 43
0.00000001
 40
8.0
 40
8.0
 40
8.0
 40
8.0
 40
9.0
 40
9.0
 40
9.0
 40
9.0
 10
22.79469977386939
 20
9.297331480932005
 30
0.0
 10
22.96353460298002
 20
9.538605099022927
 30
0.0
 10
23.07609115572044
 20
9.822689899642315
 30
0.0
 10
23.11238142965186
 20
10.088629563296
 30
0.0
  0
SPLINE
  5
139
330
7A
100
AcDbEntity
  8
0
370
    18
100
AcDbSpline
210
0.0
220
0.0
230
1.0
 70
     8
 71
     3
 72
     8
 73
     4
 74
     0
 42
0.00000001
 43
0.00000001
 40
9.0
 40
9.0
 40
9.0
 40
9.0
 40
10.0
 40
10.0
 40
10.0
 40
10.0
 10
23.11238142965186
 20
10.088629563296
 30
0.0
 10
23.15887834312649
 20
10.42941791693324
 30
0.0
 10
23.09678795257196
 20
10.71612525687973
 30
0.0
 10
23.02704258236
 20
11.01041669704231
 30
0.0
  0
SPLINE
  5
13A
330
7A
100
AcDbEntity
  8
0
370
    18
100
AcDbSpline
210
0.0
220
0.0
230
1.0
 70
     8
 71
     3
 72
     8
 73
     4
 74
     0
 42
0.00000001
 43
0.00000001
 40
10.0
 40
10.0
 40
10.0
 40
10.0
 40
11.0
 40
11.0
 40
11.0
 40
11.0
 10
23.02704258236
 20
11.01041669704231
 30
0.0
 10
22.982530293241
 20
11.19796369864881
 30
0.0
 10
22.7171576651175
 20
11.82099398743238
 30
0.0
 10
22.67859924906536
 20
11.90122951495261
 30
0.0
  0
SPLINE
  5
13B
330
7A
100
AcDbEntity
  8
0
370
    18
100
AcDbSpline
210
0.0
220
0.0
230
1.0
 70
     8
 71
     3
 72
     8
 73
     4
 74
     0
 42
0.00000001
 43
0.00000001
 40
11.0
 40
11.0
 40
11.0
 40
11.0
 40
12.0
 40
12.0
 40
12.0
 40
12.0
 10
22.67859924906536
 20
11.90122951495261
 30
0.0
 10
22.49289511293193
 20
12.28582136329613
 30
0.0
 10
22.13651328221478
 20
12.88482352148837
 30
0.0
 10
22.02041275741075
 20
13.22568275456688
 30
0.0
  0
SPLINE
  5
13C
330
7A
100
AcDbEntity
  8
0
370
    18
100
AcDbSpline
210
0.0
220
0.0
230
1.0
 70
     8
 71
     3
 72
     8
 73
     4
 74
     0
 42
0.00000001
 43
0.00000001
 40
12.0
 40
12.0
 40
12.0
 40
12.0
 40
13.0
 40
13.0
 40
13.0
 40
13.0
 10
22.02041275741075
 20
13.22568275456688
 30
0.0
 10
21.90417047372417
 20
13.56640022876286
 30
0.0
 10
21.9427288897763
 20
13.97693395261202
 30
0.0
 10
22.00467752144829
 20
14.14711549110683
 30
0.0
  0
SPLINE
  5
13D
330
7A
100
AcDbEntity
  8
0
370
    18
100
AcDbSpline
210
0.0
220
0.0
230
1.0
 70
     8
 71
     3
 72
     8
 73
     4
 74
     0
 42
0.00000001
 43
0.00000001
 40
13.0
 40
13.0
 40
13.0
 40
13.0
 40
14.0
 40
14.0
 40
14.0
 40
14.0
 10
22.00467752144829
 20
14.14711549110683
 30
0.0
 10
22.06676791200283
 20
14.31750966792545
 30
0.0
 10
22.24481706847886
 20
14.46493890577188
 30
0.0
 10
22.42286622495489
 20
14.50349732182399
 30
0.0
  0
SPLINE
  5
13E
330
7A
100
AcDbEntity
  8
0
370
    18
100
AcDbSpline
210
0.0
220
0.0
230
1.0
 70
     8
 71
     3
 72
     8
 73
     4
 74
     0
 42
0.00000001
 43
0.00000001
 40
14.0
 40
14.0
 40
14.0
 40
14.0
 40
15.0
 40
15.0
 40
15.0
 40
15.0
 10
22.42286622495489
 20
14.50349732182399
 30
0.0
 10
22.52351503156157
 20
14.52539906917713
 30
0.0
 10
22.6605958709822
 20
14.52242213264369
 30
0.0
 10
22.79469977386939
 20
14.51597210348793
 30
0.0
  0
SPLINE
  5
13F
330
7A
100
AcDbEntity
  8
0
370
    18
100
AcDbSpline
210
0.0
220
0.0
230
1.0
 70
     8
 71
     3
 72
     8
 73
     4
 74
     0
 42
0.00000001
 43
0.00000001
 40
17.0
 40
17.0
 40
17.0
 40
17.0
 40
18.0
 40
18.0
 40
18.0
 40
18.0
 10
22.44909161822564
 20
15.3285340182336
 30
0.0
 10
22.13849790657041
 20
15.3285340182336
 30
0.0
 10
21.76680611653844
 20
15.17954543267921
 30
0.0
 10
21.49363674987499
 20
14.89078258893584
 30
0.0
  0
SPLINE
  5
140
330
7A
100
AcDbEntity
  8
0
370
    18
100
AcDbSpline
210
0.0
220
0.0
230
1.0
 70
     8
 71
     3
 72
     8
 73
     4
 74
     0
 42
0.00000001
 43
0.00000001
 40
18.0
 40
18.0
 40
18.0
 40
18.0
 40
19.0
 40
19.0
 40
19.0
 40
19.0
 10
21.49363674987499
 20
14.89078258893584
 30
0.0
 10
21.19977058636001
 20
14.5804723950457
 30
0.0
 10
21.02115439435381
 20
14.23252521783996
 30
0.0
 10
21.07530628748584
 20
13.57412608786154
 30
0.0
  0
SPLINE
  5
141
330
7A
100
AcDbEntity
  8
0
370
    18
100
AcDbSpline
210
0.0
220
0.0
230
1.0
 70
     8
 71
     3
 72
     8
 73
     4
 74
     0
 42
0.00000001
 43
0.00000001
 40
19.0
 40
19.0
 40
19.0
 40
19.0
 40
20.0
 40
20.0
 40
20.0
 40
20.0
 10
21.07530628748584
 20
13.57412608786154
 30
0.0
 10
21.10620972388057
 20
13.17124734366976
 30
0.0
 10
21.20147169295055
 20
12.84683214096644
 30
0.0
 10
21.45465305717521
 20
12.39688944776983
 30
0.0
  0
SPLINE
  5
142
330
7A
100
AcDbEntity
  8
0
370
    18
100
AcDbSpline
210
0.0
220
0.0
230
1.0
 70
     8
 71
     3
 72
     8
 73
     4
 74
     0
 42
0.00000001
 43
0.00000001
 40
2.0
 40
2.0
 40
2.0
 40
2.0
 40
3.0
 40
3.0
 40
3.0
 40
3.0
 10
7.402520307175909
 20
9.779028163818586
 30
0.0
 10
7.391392234896158
 20
9.555332647163173
 30
0.0
 10
7.206893049264348
 20
9.376999972922052
 30
0.0
 10
6.980291475516796
 20
9.376999972922052
 30
0.0
  0
SPLINE
  5
143
330
7A
100
AcDbEntity
  8
0
370
    18
100
AcDbSpline
210
0.0
220
0.0
230
1.0
 70
     8
 71
     3
 72
     8
 73
     4
 74
     0
 42
0.00000001
 43
0.00000001
 40
3.0
 40
3.0
 40
3.0
 40
3.0
 40
4.0
 40
4.0
 40
4.0
 40
4.0
 10
6.980291475516796
 20
9.376999972922052
 30
0.0
 10
6.751138241883437
 20
9.376999972922052
 30
0.0
 10
6.564937949661092
 20
9.559301895874432
 30
0.0
 10
6.557779126092594
 20
9.786683143475988
 30
0.0
  0
SPLINE
  5
144
330
7A
100
AcDbEntity
  8
0
370
    18
100
AcDbSpline
210
0.0
220
0.0
230
1.0
 70
     8
 71
     2
 72
     6
 73
     3
 74
     0
 42
0.00000001
 43
0.00000001
 40
6.0
 40
6.0
 40
6.0
 40
7.0
 40
7.0
 40
7.0
 10
5.714739051599811
 20
15.34185935319279
 30
0.0
 10
5.713888498304544
 20
9.698509118533215
 30
0.0
 10
5.713888498304544
 20
9.695815699764879
 30
0.0
  0
SPLINE
  5
145
330
7A
100
AcDbEntity
  8
0
370
    18
100
AcDbSpline
210
0.0
220
0.0
230
1.0
 70
     8
 71
     3
 72
     8
 73
     4
 74
     0
 42
0.00000001
 43
0.00000001
 40
7.0
 40
7.0
 40
7.0
 40
7.0
 40
8.0
 40
8.0
 40
8.0
 40
8.0
 10
5.713888498304544
 20
9.695815699764879
 30
0.0
 10
5.713888498304544
 20
8.997582323791436
 30
0.0
 10
6.279931716305157
 20
8.431680864673364
 30
0.0
 10
6.978094212837349
 20
8.431680864673364
 30
0.0
  0
SPLINE
  5
146
330
7A
100
AcDbEntity
  8
0
370
    18
100
AcDbSpline
210
0.0
220
0.0
230
1.0
 70
     8
 71
     3
 72
     8
 73
     4
 74
     0
 42
0.00000001
 43
0.00000001
 40
8.0
 40
8.0
 40
8.0
 40
8.0
 40
9.0
 40
9.0
 40
9.0
 40
9.0
 10
6.978094212837349
 20
8.431680864673364
 30
0.0
 10
7.676256709369548
 20
8.431680864673364
 30
0.0
 10
8.242299927370162
 20
8.997298806026343
 30
0.0
 10
8.242299927370162
 20
9.695815699764879
 30
0.0
  0
SPLINE
  5
147
330
7A
100
AcDbEntity
  8
0
370
    18
100
AcDbSpline
210
0.0
220
0.0
230
1.0
 70
     8
 71
     2
 72
     6
 73
     3
 74
     0
 42
0.00000001
 43
0.00000001
 40
9.0
 40
9.0
 40
9.0
 40
10.0
 40
10.0
 40
10.0
 10
8.242299927370162
 20
9.695815699764879
 30
0.0
 10
8.242299927370162
 20
9.701060778419045
 30
0.0
 10
8.246552693846501
 20
15.34185935319279
 30
0.0
  0
SPLINE
  5
148
330
7A
100
AcDbEntity
  8
0
370
    18
100
AcDbSpline
210
0.0
220
0.0
230
1.0
 70
     8
 71
     3
 72
     8
 73
     4
 74
     0
 42
0.00000001
 43
0.00000001
 40
2.0
 40
2.0
 40
2.0
 40
2.0
 40
3.0
 40
3.0
 40
3.0
 40
3.0
 10
25.33275080694805
 20
9.779028163818586
 30
0.0
 10
25.32155185522702
 20
9.555332647163173
 30
0.0
 10
25.13726530791903
 20
9.376999972922052
 30
0.0
 10
24.91073461361275
 20
9.376999972922052
 30
0.0
  0
SPLINE
  5
149
330
7A
100
AcDbEntity
  8
0
370
    18
100
AcDbSpline
210
0.0
220
0.0
230
1.0
 70
     8
 71
     3
 72
     8
 73
     4
 74
     0
 42
0.00000001
 43
0.00000001
 40
3.0
 40
3.0
 40
3.0
 40
3.0
 40
4.0
 40
4.0
 40
4.0
 40
4.0
 10
24.91073461361275
 20
9.376999972922052
 30
0.0
 10
24.68136874165558
 20
9.376999972922052
 30
0.0
 10
24.4952393288745
 20
9.559301895874432
 30
0.0
 10
24.48800962586473
 20
9.786683143475988
 30
0.0
  0
SPLINE
  5
14A
330
7A
100
AcDbEntity
  8
0
370
    18
100
AcDbSpline
210
0.0
220
0.0
230
1.0
 70
     8
 71
     2
 72
     6
 73
     3
 74
     0
 42
0.00000001
 43
0.00000001
 40
6.0
 40
6.0
 40
6.0
 40
7.0
 40
7.0
 40
7.0
 10
23.64511131025449
 20
15.34185935319279
 30
0.0
 10
23.64426075695922
 20
9.698509118533215
 30
0.0
 10
23.64426075695922
 20
9.695815699764879
 30
0.0
  0
SPLINE
  5
14B
330
7A
100
AcDbEntity
  8
0
370
    18
100
AcDbSpline
210
0.0
220
0.0
230
1.0
 70
     8
 71
     3
 72
     8
 73
     4
 74
     0
 42
0.00000001
 43
0.00000001
 40
7.0
 40
7.0
 40
7.0
 40
7.0
 40
8.0
 40
8.0
 40
8.0
 40
8.0
 10
23.64426075695922
 20
9.695815699764879
 30
0.0
 10
23.64426075695922
 20
8.997582323791436
 30
0.0
 10
24.2101622160773
 20
8.431680864673364
 30
0.0
 10
24.9083247126095
 20
8.431680864673364
 30
0.0
  0
SPLINE
  5
14C
330
7A
100
AcDbEntity
  8
0
370
    18
100
AcDbSpline
210
0.0
220
0.0
230
1.0
 70
     8
 71
     3
 72
     8
 73
     4
 74
     0
 42
0.00000001
 43
0.00000001
 40
8.0
 40
8.0
 40
8.0
 40
8.0
 40
9.0
 40
9.0
 40
9.0
 40
9.0
 10
24.9083247126095
 20
8.431680864673364
 30
0.0
 10
25.60648720914169
 20
8.431680864673364
 30
0.0
 10
26.17267218602484
 20
8.997298806026343
 30
0.0
 10
26.17267218602484
 20
9.695815699764879
 30
0.0
  0
SPLINE
  5
14D
330
7A
100
AcDbEntity
  8
0
370
    18
100
AcDbSpline
210
0.0
220
0.0
230
1.0
 70
     8
 71
     2
 72
     6
 73
     3
 74
     0
 42
0.00000001
 43
0.00000001
 40
9.0
 40
9.0
 40
9.0
 40
10.0
 40
10.0
 40
10.0
 10
26.17267218602484
 20
9.695815699764879
 30
0.0
 10
26.17267218602484
 20
9.701060778419045
 30
0.0
 10
26.17692495250119
 20
15.34185935319279
 30
0.0
  0
SPLINE
  5
14E
330
7A
100
AcDbEntity
  8
0
370
    18
100
AcDbSpline
210
0.0
220
0.0
230
1.0
 70
     8
 71
     2
 72
     6
 73
     3
 74
     0
 42
0.00000001
 43
0.00000001
 40
3.0
 40
3.0
 40
3.0
 40
4.0
 40
4.0
 40
4.0
 10
14.45063018841125
 20
10.41538378756133
 30
0.0
 10
14.35969186525889
 20
10.27064796848328
 30
0.0
 10
14.18199710598922
 20
10.09600102518832
 30
0.0
  0
SPLINE
  5
14F
330
7A
100
AcDbEntity
  8
0
370
    18
100
AcDbSpline
210
0.0
220
0.0
230
1.0
 70
     8
 71
     3
 72
     8
 73
     4
 74
     0
 42
0.00000001
 43
0.00000001
 40
4.0
 40
4.0
 40
4.0
 40
4.0
 40
5.0
 40
5.0
 40
5.0
 40
5.0
 10
14.18199710598922
 20
10.09600102518832
 30
0.0
 10
13.69647293327394
 20
9.605231773818897
 30
0.0
 10
13.01900723359326
 20
9.300450176347976
 30
0.0
 10
12.26938626269738
 20
9.300450176347976
 30
0.0
  0
SPLINE
  5
150
330
7A
100
AcDbEntity
  8
0
370
    18
100
AcDbSpline
210
0.0
220
0.0
230
1.0
 70
     8
 71
     3
 72
     8
 73
     4
 74
     0
 42
0.00000001
 43
0.00000001
 40
5.0
 40
5.0
 40
5.0
 40
5.0
 40
6.0
 40
6.0
 40
6.0
 40
6.0
 10
12.26938626269738
 20
9.300450176347976
 30
0.0
 10
10.79254222434765
 20
9.300450176347976
 30
0.0
 10
9.595246702375896
 20
10.48300277453512
 30
0.0
 10
9.595246702375896
 20
11.94219783200801
 30
0.0
  0
SPLINE
  5
151
330
7A
100
AcDbEntity
  8
0
370
    18
100
AcDbSpline
210
0.0
220
0.0
230
1.0
 70
     8
 71
     3
 72
     8
 73
     4
 74
     0
 42
0.00000001
 43
0.00000001
 40
6.0
 40
6.0
 40
6.0
 40
6.0
 40
7.0
 40
7.0
 40
7.0
 40
7.0
 10
9.595246702375896
 20
11.94219783200801
 30
0.0
 10
9.595246702375896
 20
13.40096761283331
 30
0.0
 10
10.79254222434765
 20
14.58366196990294
 30
0.0
 10
12.26938626269738
 20
14.58366196990294
 30
0.0
  0
SPLINE
  5
152
330
7A
100
AcDbEntity
  8
0
370
    18
100
AcDbSpline
210
0.0
220
0.0
230
1.0
 70
     8
 71
     3
 72
     8
 73
     4
 74
     0
 42
0.00000001
 43
0.00000001
 40
7.0
 40
7.0
 40
7.0
 40
7.0
 40
8.0
 40
8.0
 40
8.0
 40
8.0
 10
12.26938626269738
 20
14.58366196990294
 30
0.0
 10
13.16296337881731
 20
14.58366196990294
 30
0.0
 10
13.95355266676859
 20
14.15037594540535
 30
0.0
 10
14.50995628075617
 20
13.54215945984774
 30
0.0
  0
SPLINE
  5
153
330
7A
100
AcDbEntity
  8
0
370
    18
100
AcDbSpline
210
0.0
220
0.0
230
1.0
 70
     8
 71
     3
 72
     8
 73
     4
 74
     0
 42
0.00000001
 43
0.00000001
 40
9.0
 40
9.0
 40
9.0
 40
9.0
 40
10.0
 40
10.0
 40
10.0
 40
10.0
 10
15.22002652342211
 20
14.08367839116812
 30
0.0
 10
14.4993952440066
 20
14.90127274624418
 30
0.0
 10
13.45172622256067
 20
15.46922970915913
 30
0.0
 10
12.26938626269738
 20
15.46922970915913
 30
0.0
  0
SPLINE
  5
154
330
7A
100
AcDbEntity
  8
0
370
    18
100
AcDbSpline
210
0.0
220
0.0
230
1.0
 70
     8
 71
     3
 72
     8
 73
     4
 74
     0
 42
0.00000001
 43
0.00000001
 40
10.0
 40
10.0
 40
10.0
 40
10.0
 40
11.0
 40
11.0
 40
11.0
 40
11.0
 10
12.26938626269738
 20
15.46922970915913
 30
0.0
 10
10.2974493270606
 20
15.46922970915913
 30
0.0
 10
8.698692649722526
 20
13.89010663705348
 30
0.0
 10
8.698692649722526
 20
11.94219783200801
 30
0.0
  0
SPLINE
  5
155
330
7A
100
AcDbEntity
  8
0
370
    18
100
AcDbSpline
210
0.0
220
0.0
230
1.0
 70
     8
 71
     3
 72
     8
 73
     4
 74
     0
 42
0.00000001
 43
0.00000001
 40
11.0
 40
11.0
 40
11.0
 40
11.0
 40
12.0
 40
12.0
 40
12.0
 40
12.0
 10
8.698692649722526
 20
11.94219783200801
 30
0.0
 10
8.698692649722526
 20
9.993934629756218
 30
0.0
 10
10.2974493270606
 20
8.414811557650523
 30
0.0
 10
12.26938626269738
 20
8.414811557650523
 30
0.0
  0
SPLINE
  5
156
330
7A
100
AcDbEntity
  8
0
370
    18
100
AcDbSpline
210
0.0
220
0.0
230
1.0
 70
     8
 71
     3
 72
     8
 73
     4
 74
     0
 42
0.00000001
 43
0.00000001
 40
12.0
 40
12.0
 40
12.0
 40
12.0
 40
13.0
 40
13.0
 40
13.0
 40
13.0
 10
12.26938626269738
 20
8.414811557650523
 30
0.0
 10
13.33966582590916
 20
8.414811557650523
 30
0.0
 10
14.33247415981032
 20
8.880489486809598
 30
0.0
 10
14.98683316163622
 20
9.61742303771775
 30
0.0
  0
SPLINE
  5
157
330
7A
100
AcDbEntity
  8
0
370
    18
100
AcDbSpline
210
0.0
220
0.0
230
1.0
 70
     8
 71
     2
 72
     6
 73
     3
 74
     0
 42
0.00000001
 43
0.00000001
 40
13.0
 40
13.0
 40
13.0
 40
14.0
 40
14.0
 40
14.0
 10
14.98683316163622
 20
9.61742303771775
 30
0.0
 10
15.15226577756578
 20
9.800291996200263
 30
0.0
 10
15.29168563854841
 20
10.02668093162401
 30
0.0
  0
ENDBLK
  5
7C
330
7A
100
AcDbEntity
  8
0
100
AcDbBlockEnd
  0
BLOCK
  5
159
330
158
100
AcDbEntity
  8
0
100
AcDbBlockBegin
  2
ﾌﾞﾛｯｸ1
 70
     0
 10
0.0
 20
0.0
 30
0.0
  3
ﾌﾞﾛｯｸ1
  1

  0
CIRCLE
  5
15B
330
158
100
AcDbEntity
  8
9
  6
Continuous
 62
   179
100
AcDbCircle
 10
4.437888
 20
3.2320596145
 30
0.0
 40
1.109472
  0
CIRCLE
  5
15C
330
158
100
AcDbEntity
  8
9
  6
Continuous
 62
   179
100
AcDbCircle
 10
4.437888
 20
3.2320596145
 30
0.0
 40
2.218944
  0
LINE
  5
15D
330
158
100
AcDbEntity
  8
9
  6
CENTER
 62
   179
100
AcDbLine
 10
4.437888
 20
6.1328113459
 30
0.0
 11
4.437888
 21
0.0
 31
0.0
  0
LINE
  5
15E
330
158
100
AcDbEntity
  8
9
  6
CENTER
 62
   179
100
AcDbLine
 10
0.0
 20
3.2320596145
 30
0.0
 11
19.970496
 21
3.2320596145
 31
0.0
  0
LINE
  5
15F
330
158
100
AcDbEntity
  8
9
  6
Continuous
 62
   179
100
AcDbLine
 10
9.985248
 20
2.1225876145
 30
0.0
 11
17.751552
 21
1.0131156145
 31
0.0
  0
LINE
  5
160
330
158
100
AcDbEntity
  8
9
  6
Continuous
 62
   179
100
AcDbLine
 10
17.751552
 20
1.0131156145
 30
0.0
 11
17.751552
 21
3.2320596145
 31
0.0
  0
LINE
  5
161
330
158
100
AcDbEntity
  8
9
  6
Continuous
 62
   179
100
AcDbLine
 10
9.985248
 20
4.3415316145
 30
0.0
 11
9.985248
 21
2.1225876145
 31
0.0
  0
LINE
  5
162
330
158
100
AcDbEntity
  8
9
  6
Continuous
 62
   179
100
AcDbLine
 10
17.751552
 20
3.2320596145
 30
0.0
 11
17.751552
 21
5.4510036145
 31
0.0
  0
LINE
  5
163
330
158
100
AcDbEntity
  8
9
  6
Continuous
 62
   179
100
AcDbLine
 10
17.751552
 20
5.4510036145
 30
0.0
 11
9.985248
 21
4.3415316145
 31
0.0
  0
ENDBLK
  5
15A
330
158
100
AcDbEntity
  8
0
100
AcDbBlockEnd
  0
BLOCK
  5
33F
330
33E
100
AcDbEntity
  8
0
100
AcDbBlockBegin
  2
SW_CENTERMARKSYMBOL_0
 70
     0
 10
0.0
 20
0.0
 30
0.0
  3
SW_CENTERMARKSYMBOL_0
  1

  0
LINE
  5
341
330
33E
100
AcDbEntity
  8
9
 62
     0
100
AcDbLine
 10
0.0
 20
0.0
 30
0.0
 11
0.0
 21
1.0
 31
0.0
  0
LINE
  5
342
330
33E
100
AcDbEntity
  8
9
 62
     0
100
AcDbLine
 10
0.0
 20
0.0
 30
0.0
 11
-1.0
 21
0.0
 31
0.0
  0
LINE
  5
343
330
33E
100
AcDbEntity
  8
9
 62
     0
100
AcDbLine
 10
0.0
 20
0.0
 30
0.0
 11
0.0
 21
-1.0
 31
0.0
  0
LINE
  5
344
330
33E
100
AcDbEntity
  8
9
 62
     0
100
AcDbLine
 10
0.0
 20
0.0
 30
0.0
 11
1.0
 21
0.0
 31
0.0
  0
LINE
  5
345
330
33E
100
AcDbEntity
  8
9
 62
     0
100
AcDbLine
 10
0.0
 20
2.0
 30
0.0
 11
0.0
 21
5.4039432365
 31
0.0
  0
LINE
  5
346
330
33E
100
AcDbEntity
  8
9
 62
     0
100
AcDbLine
 10
-2.0
 20
0.0
 30
0.0
 11
-5.4039432365
 21
0.0
 31
0.0
  0
LINE
  5
347
330
33E
100
AcDbEntity
  8
9
 62
     0
100
AcDbLine
 10
0.0
 20
-2.0
 30
0.0
 11
0.0
 21
-5.4039432365
 31
0.0
  0
LINE
  5
348
330
33E
100
AcDbEntity
  8
9
 62
     0
100
AcDbLine
 10
2.0
 20
0.0
 30
0.0
 11
5.4039432365
 21
0.0
 31
0.0
  0
ENDBLK
  5
340
330
33E
100
AcDbEntity
  8
0
100
AcDbBlockEnd
  0
BLOCK
  5
34B
330
34A
100
AcDbEntity
  8
0
100
AcDbBlockBegin
  2
SW_CENTERMARKSYMBOL_1
 70
     0
 10
0.0
 20
0.0
 30
0.0
  3
SW_CENTERMARKSYMBOL_1
  1

  0
LINE
  5
34D
330
34A
100
AcDbEntity
  8
9
 62
     0
100
AcDbLine
 10
0.0
 20
0.0
 30
0.0
 11
0.0
 21
1.0
 31
0.0
  0
LINE
  5
34E
330
34A
100
AcDbEntity
  8
9
 62
     0
100
AcDbLine
 10
0.0
 20
0.0
 30
0.0
 11
-1.0
 21
0.0
 31
0.0
  0
LINE
  5
34F
330
34A
100
AcDbEntity
  8
9
 62
     0
100
AcDbLine
 10
0.0
 20
0.0
 30
0.0
 11
0.0
 21
-1.0
 31
0.0
  0
LINE
  5
350
330
34A
100
AcDbEntity
  8
9
 62
     0
100
AcDbLine
 10
0.0
 20
0.0
 30
0.0
 11
1.0
 21
0.0
 31
0.0
  0
LINE
  5
351
330
34A
100
AcDbEntity
  8
9
 62
     0
100
AcDbLine
 10
0.0
 20
2.0
 30
0.0
 11
0.0
 21
5.4039432365
 31
0.0
  0
LINE
  5
352
330
34A
100
AcDbEntity
  8
9
 62
     0
100
AcDbLine
 10
-2.0
 20
0.0
 30
0.0
 11
-5.4039432365
 21
0.0
 31
0.0
  0
LINE
  5
353
330
34A
100
AcDbEntity
  8
9
 62
     0
100
AcDbLine
 10
0.0
 20
-2.0
 30
0.0
 11
0.0
 21
-5.4039432365
 31
0.0
  0
LINE
  5
354
330
34A
100
AcDbEntity
  8
9
 62
     0
100
AcDbLine
 10
2.0
 20
0.0
 30
0.0
 11
5.4039432365
 21
0.0
 31
0.0
  0
ENDBLK
  5
34C
330
34A
100
AcDbEntity
  8
0
100
AcDbBlockEnd
  0
BLOCK
  5
3F0
330
3EF
100
AcDbEntity
  8
0
100
AcDbBlockBegin
  2
SW_CENTERMARKSYMBOL_2
 70
     0
 10
0.0
 20
0.0
 30
0.0
  3
SW_CENTERMARKSYMBOL_2
  1

  0
LINE
  5
3F2
330
3EF
100
AcDbEntity
  8
9
 62
     0
100
AcDbLine
 10
0.0
 20
0.0
 30
0.0
 11
0.0
 21
1.0
 31
0.0
  0
LINE
  5
3F3
330
3EF
100
AcDbEntity
  8
9
 62
     0
100
AcDbLine
 10
0.0
 20
0.0
 30
0.0
 11
-1.0
 21
0.0
 31
0.0
  0
LINE
  5
3F4
330
3EF
100
AcDbEntity
  8
9
 62
     0
100
AcDbLine
 10
0.0
 20
0.0
 30
0.0
 11
0.0
 21
-1.0
 31
0.0
  0
LINE
  5
3F5
330
3EF
100
AcDbEntity
  8
9
 62
     0
100
AcDbLine
 10
0.0
 20
0.0
 30
0.0
 11
1.0
 21
0.0
 31
0.0
  0
LINE
  5
3F6
330
3EF
100
AcDbEntity
  8
9
 62
     0
100
AcDbLine
 10
0.0
 20
2.0
 30
0.0
 11
0.0
 21
4.9000000005
 31
0.0
  0
LINE
  5
3F7
330
3EF
100
AcDbEntity
  8
9
 62
     0
100
AcDbLine
 10
-2.0
 20
0.0
 30
0.0
 11
-4.9000000005
 21
0.0
 31
0.0
  0
LINE
  5
3F8
330
3EF
100
AcDbEntity
  8
9
 62
     0
100
AcDbLine
 10
0.0
 20
-2.0
 30
0.0
 11
0.0
 21
-4.9000000005
 31
0.0
  0
LINE
  5
3F9
330
3EF
100
AcDbEntity
  8
9
 62
     0
100
AcDbLine
 10
2.0
 20
0.0
 30
0.0
 11
4.9000000005
 21
0.0
 31
0.0
  0
ENDBLK
  5
3F1
330
3EF
100
AcDbEntity
  8
0
100
AcDbBlockEnd
  0
BLOCK
  5
3FC
330
3FB
100
AcDbEntity
  8
0
100
AcDbBlockBegin
  2
SW_CENTERMARKSYMBOL_3
 70
     0
 10
0.0
 20
0.0
 30
0.0
  3
SW_CENTERMARKSYMBOL_3
  1

  0
LINE
  5
3FE
330
3FB
100
AcDbEntity
  8
9
 62
     0
100
AcDbLine
 10
0.0
 20
0.0
 30
0.0
 11
0.0
 21
1.0
 31
0.0
  0
LINE
  5
3FF
330
3FB
100
AcDbEntity
  8
9
 62
     0
100
AcDbLine
 10
0.0
 20
0.0
 30
0.0
 11
-1.0
 21
0.0
 31
0.0
  0
LINE
  5
400
330
3FB
100
AcDbEntity
  8
9
 62
     0
100
AcDbLine
 10
0.0
 20
0.0
 30
0.0
 11
0.0
 21
-1.0
 31
0.0
  0
LINE
  5
401
330
3FB
100
AcDbEntity
  8
9
 62
     0
100
AcDbLine
 10
0.0
 20
0.0
 30
0.0
 11
1.0
 21
0.0
 31
0.0
  0
LINE
  5
402
330
3FB
100
AcDbEntity
  8
9
 62
     0
100
AcDbLine
 10
0.0
 20
2.0
 30
0.0
 11
0.0
 21
4.9
 31
0.0
  0
LINE
  5
403
330
3FB
100
AcDbEntity
  8
9
 62
     0
100
AcDbLine
 10
-2.0
 20
0.0
 30
0.0
 11
-4.9
 21
0.0
 31
0.0
  0
LINE
  5
404
330
3FB
100
AcDbEntity
  8
9
 62
     0
100
AcDbLine
 10
0.0
 20
-2.0
 30
0.0
 11
0.0
 21
-4.9
 31
0.0
  0
LINE
  5
405
330
3FB
100
AcDbEntity
  8
9
 62
     0
100
AcDbLine
 10
2.0
 20
0.0
 30
0.0
 11
4.9
 21
0.0
 31
0.0
  0
ENDBLK
  5
3FD
330
3FB
100
AcDbEntity
  8
0
100
AcDbBlockEnd
  0
ENDSEC
  0
SECTION
  2
ENTITIES
  0
INSERT
  5
166
330
1F
100
AcDbEntity
  8
0
  6
Continuous
 62
     7
100
AcDbBlockReference
 66
     1
  2
ﾌﾞﾛｯｸ2
 10
0.0
 20
0.0
 30
0.0
  0
ATTRIB
  5
167
330
166
100
AcDbEntity
  8
SLD-0
 62
     7
100
AcDbText
 10
78.3050930978
 20
15.9259892778
 30
0.0
 40
4.0
  1
180SUS-P6T
 41
0.7
  7
SLDTEXTSTYLE0
 11
78.3050930978
 21
14.5129490301
 31
0.0
100
AcDbAttribute
  2
AUTOATTR0
 70
     0
 74
     1
  0
ATTRIB
  5
168
330
166
100
AcDbEntity
  8
SLD-0
 62
     7
100
AcDbText
 10
78.3050930978
 20
9.8784313554
 30
0.0
 40
4.0
  1

 41
0.7
  7
SLDTEXTSTYLE0
 11
78.3050930978
 21
8.4653911077
 31
0.0
100
AcDbAttribute
  2
AUTOATTR0
 70
     0
 74
     1
  0
ATTRIB
  5
169
330
166
100
AcDbEntity
  8
SLD-0
 62
     7
100
AcDbText
 10
66.9646413579
 20
16.8429035566
 30
0.0
 40
2.38125
  1
Title
 41
0.7
  7
SLDTEXTSTYLE0
 11
66.9646413579
 21
16.0017030342
 31
0.0
100
AcDbAttribute
  2
AUTOATTR0
 70
     0
 74
     1
  0
ATTRIB
  5
16A
330
166
100
AcDbEntity
  8
SLD-0
 62
     7
100
AcDbText
 10
66.9646413579
 20
2.4516379051
 30
0.0
 40
2.38125
  1
Date
 41
0.7
  7
SLDTEXTSTYLE0
 11
66.9646413579
 21
1.6104373826
 31
0.0
100
AcDbAttribute
  2
AUTOATTR0
 70
     0
 74
     1
  0
ATTRIB
  5
16B
330
166
100
AcDbEntity
  8
SLD-0
 62
     7
100
AcDbText
 10
51.857512217
 20
2.0282473934
 30
0.0
 40
4.0
  1
1:1
 41
0.7
  7
SLDTEXTSTYLE0
 11
51.857512217
 21
0.6152071457
 31
0.0
100
AcDbAttribute
  2
AUTOATTR0
 70
     0
 74
     1
  0
ATTRIB
  5
16C
330
166
100
AcDbEntity
  8
SLD-0
 62
     7
100
AcDbText
 10
38.4275608796
 20
2.4516379051
 30
0.0
 40
2.38125
  1
Scale
 41
0.7
  7
SLDTEXTSTYLE0
 11
38.4275608796
 21
1.6104373826
 31
0.0
100
AcDbAttribute
  2
AUTOATTR0
 70
     0
 74
     1
  0
ATTRIB
  5
16D
330
166
100
AcDbEntity
  8
SLD-0
 62
     7
100
AcDbText
 10
78.3050930978
 20
2.0282474516
 30
0.0
 40
4.0
  1

 41
0.7
  7
SLDTEXTSTYLE0
 11
78.3050930978
 21
0.6152072039
 31
0.0
100
AcDbAttribute
  2
AUTOATTR0
 70
     0
 74
     1
  0
SEQEND
  5
16E
330
166
100
AcDbEntity
  8
0
  6
Continuous
 62
     7
  0
MTEXT
  5
16F
330
1F
100
AcDbEntity
  8
9
 62
     7
100
AcDbMText
 10
78.2361068966
 20
6.188676847
 30
0.0
 40
4.0
 41
0.0
 71
     1
 72
     1
  1
2024/12/10
  7
SLDTEXTSTYLE0
 73
     1
 44
1.0
  0
LINE
  5
170
330
1F
100
AcDbEntity
  8
0
  6
Continuous
 62
     7
370
    25
100
AcDbLine
 10
286.2440920827
 20
106.4390661557
 30
0.0
 11
291.2440920827
 21
106.4390661557
 31
0.0
  0
LINE
  5
171
330
1F
100
AcDbEntity
  8
0
  6
Continuous
 62
     7
370
    25
100
AcDbLine
 10
286.2440920827
 20
105.4390661557
 30
0.0
 11
291.2440920827
 21
105.4390661557
 31
0.0
  0
LINE
  5
172
330
1F
100
AcDbEntity
  8
0
  6
Continuous
 62
     7
370
    25
100
AcDbLine
 10
286.2440920827
 20
105.4390661557
 30
0.0
 11
286.2440920827
 21
106.4390661557
 31
0.0
  0
LINE
  5
173
330
1F
100
AcDbEntity
  8
0
  6
Continuous
 62
     7
370
    25
100
AcDbLine
 10
291.2440920827
 20
106.4390661557
 30
0.0
 11
313.2440920816
 21
106.4390661557
 31
0.0
  0
LINE
  5
174
330
1F
100
AcDbEntity
  8
0
  6
Continuous
 62
     7
370
    25
100
AcDbLine
 10
291.2440920827
 20
105.4390661557
 30
0.0
 11
313.2440920816
 21
105.4390661557
 31
0.0
  0
LINE
  5
175
330
1F
100
AcDbEntity
  8
0
  6
Continuous
 62
     7
370
    25
100
AcDbLine
 10
313.2440920816
 20
106.4390661557
 30
0.0
 11
318.2440920847
 21
106.4390661557
 31
0.0
  0
LINE
  5
176
330
1F
100
AcDbEntity
  8
0
  6
Continuous
 62
     7
370
    25
100
AcDbLine
 10
318.2440920827
 20
105.4390661557
 30
0.0
 11
318.2440920847
 21
106.4390661557
 31
0.0
  0
LINE
  5
177
330
1F
100
AcDbEntity
  8
0
  6
Continuous
 62
     7
370
    25
100
AcDbLine
 10
313.2440920816
 20
105.4390661557
 30
0.0
 11
318.2440920827
 21
105.4390661557
 31
0.0
  0
LINE
  5
178
330
1F
100
AcDbEntity
  8
0
  6
Continuous
 62
     7
370
    25
100
AcDbLine
 10
317.2440920827
 20
106.4390661557
 30
0.0
 11
317.2440920827
 21
107.9390661552
 31
0.0
  0
LINE
  5
179
330
1F
100
AcDbEntity
  8
0
  6
Continuous
 62
     7
370
    25
100
AcDbLine
 10
287.2440920827
 20
106.4390661557
 30
0.0
 11
287.2440920827
 21
107.9390661552
 31
0.0
  0
LINE
  5
17A
330
1F
100
AcDbEntity
  8
0
  6
Continuous
 62
     7
370
    25
100
AcDbLine
 10
290.9940920827
 20
108.9390661552
 30
0.0
 11
313.4940920811
 21
108.9390661552
 31
0.0
  0
ARC
  5
17B
330
1F
100
AcDbEntity
  8
0
  6
Continuous
 62
     7
370
    25
100
AcDbCircle
 10
288.2440920827
 20
107.9390661552
 30
0.0
 40
1.0
100
AcDbArc
 50
90.0
 51
180.0
  0
LINE
  5
17C
330
1F
100
AcDbEntity
  8
0
  6
Continuous
 62
     7
370
    25
100
AcDbLine
 10
288.2440920827
 20
108.9390661552
 30
0.0
 11
290.9940920827
 21
108.9390661552
 31
0.0
  0
LINE
  5
17D
330
1F
100
AcDbEntity
  8
0
  6
Continuous
 62
     7
370
    25
100
AcDbLine
 10
313.4940920811
 20
108.9390661552
 30
0.0
 11
316.2440920827
 21
108.9390661552
 31
0.0
  0
ARC
  5
17E
330
1F
100
AcDbEntity
  8
0
  6
Continuous
 62
     7
370
    25
100
AcDbCircle
 10
316.2440920827
 20
107.9390661552
 30
0.0
 40
1.0
100
AcDbArc
 50
0.0
 51
90.0
  0
LINE
  5
17F
330
1F
100
AcDbEntity
  8
0
  6
Continuous
 62
     7
370
    25
100
AcDbLine
 10
316.2440920827
 20
108.9390661552
 30
0.0
 11
323.2440909606
 21
108.9390661552
 31
0.0
  0
LINE
  5
180
330
1F
100
AcDbEntity
  8
0
  6
Continuous
 62
     7
370
    25
100
AcDbLine
 10
323.3440920847
 20
105.4390661557
 30
0.0
 11
323.3440920847
 21
106.4390661557
 31
0.0
  0
LINE
  5
181
330
1F
100
AcDbEntity
  8
0
  6
Continuous
 62
     7
370
    25
100
AcDbLine
 10
318.2440920827
 20
105.4390661557
 30
0.0
 11
323.3440920847
 21
105.4390661557
 31
0.0
  0
LINE
  5
182
330
1F
100
AcDbEntity
  8
0
  6
Continuous
 62
     7
370
    25
100
AcDbLine
 10
318.2440920847
 20
106.4390661557
 30
0.0
 11
323.3440920847
 21
106.4390661557
 31
0.0
  0
LINE
  5
183
330
1F
100
AcDbEntity
  8
0
  6
Continuous
 62
     7
370
    25
100
AcDbLine
 10
332.2440920827
 20
105.4390661557
 30
0.0
 11
332.2440920827
 21
106.4390661557
 31
0.0
  0
LINE
  5
184
330
1F
100
AcDbEntity
  8
0
  6
Continuous
 62
     7
370
    25
100
AcDbLine
 10
323.3440920847
 20
105.4390661557
 30
0.0
 11
332.2440920827
 21
105.4390661557
 31
0.0
  0
LINE
  5
185
330
1F
100
AcDbEntity
  8
0
  6
Continuous
 62
     7
370
    25
100
AcDbLine
 10
323.3440920847
 20
106.4390661557
 30
0.0
 11
332.2440920827
 21
106.4390661557
 31
0.0
  0
LINE
  5
186
330
1F
100
AcDbEntity
  8
0
  6
Continuous
 62
     7
370
    25
100
AcDbLine
 10
332.2440920827
 20
107.9390661552
 30
0.0
 11
332.2440920827
 21
106.4390661557
 31
0.0
  0
LINE
  5
187
330
1F
100
AcDbEntity
  8
0
  6
Continuous
 62
     7
370
    25
100
AcDbLine
 10
293.0440920827
 20
110.6890661552
 30
0.0
 11
290.2440920827
 21
110.6890661552
 31
0.0
  0
LINE
  5
188
330
1F
100
AcDbEntity
  8
0
  6
Continuous
 62
     7
370
    25
100
AcDbLine
 10
293.0440920827
 20
110.6890661552
 30
0.0
 11
296.0440920827
 21
110.6890661552
 31
0.0
  0
LINE
  5
189
330
1F
100
AcDbEntity
  8
0
  6
Continuous
 62
     7
370
    25
100
AcDbLine
 10
318.8240920815
 20
110.6890661552
 30
0.0
 11
296.0440920827
 21
110.6890661552
 31
0.0
  0
LINE
  5
18A
330
1F
100
AcDbEntity
  8
0
  6
Continuous
 62
     7
370
    25
100
AcDbLine
 10
318.8240920815
 20
109.6890661552
 30
0.0
 11
318.8240920815
 21
110.6890661552
 31
0.0
  0
LINE
  5
18B
330
1F
100
AcDbEntity
  8
0
  6
Continuous
 62
     7
370
    25
100
AcDbLine
 10
290.2440920827
 20
109.6890661552
 30
0.0
 11
290.2440920827
 21
110.6890661552
 31
0.0
  0
LINE
  5
18C
330
1F
100
AcDbEntity
  8
0
  6
Continuous
 62
     7
370
    25
100
AcDbLine
 10
318.8240920815
 20
108.9390661552
 30
0.0
 11
318.8240920815
 21
109.6890661552
 31
0.0
  0
LINE
  5
18D
330
1F
100
AcDbEntity
  8
0
  6
Continuous
 62
     7
370
    25
100
AcDbLine
 10
290.2440920827
 20
108.9390661552
 30
0.0
 11
290.2440920827
 21
109.6890661552
 31
0.0
  0
LINE
  5
18E
330
1F
100
AcDbEntity
  8
0
  6
Continuous
 62
     7
370
    25
100
AcDbLine
 10
323.2440909606
 20
108.9390661552
 30
0.0
 11
323.3240920827
 21
108.9390661552
 31
0.0
  0
LINE
  5
18F
330
1F
100
AcDbEntity
  8
0
  6
Continuous
 62
     7
370
    25
100
AcDbLine
 10
323.3240920827
 20
108.9390661552
 30
0.0
 11
332.2440920827
 21
108.9390661552
 31
0.0
  0
LINE
  5
190
330
1F
100
AcDbEntity
  8
0
  6
Continuous
 62
     7
370
    25
100
AcDbLine
 10
332.2440920827
 20
108.9390661552
 30
0.0
 11
332.2440920827
 21
107.9390661552
 31
0.0
  0
LINE
  5
191
330
1F
100
AcDbEntity
  8
0
  6
Continuous
 62
     7
370
    25
100
AcDbLine
 10
293.2732208674
 20
110.8390661552
 30
0.0
 11
295.8149632979
 21
110.8390661552
 31
0.0
  0
ARC
  5
192
330
1F
100
AcDbEntity
  8
0
  6
Continuous
 62
     7
370
    25
100
AcDbCircle
 10
293.2732208674
 20
110.5890661552
 30
0.0
 40
0.2500000000000387
100
AcDbArc
 50
90.0
 51
156.4218215218
  0
ARC
  5
193
330
1F
100
AcDbEntity
  8
0
  6
Continuous
 62
     7
370
    25
100
AcDbCircle
 10
295.8149632979
 20
110.5890661552
 30
0.0
 40
0.2500000000000387
100
AcDbArc
 50
23.5781784782
 51
90.0
  0
LINE
  5
194
330
1F
100
AcDbEntity
  8
0
  6
Continuous
 62
     7
370
    25
100
AcDbLine
 10
300.4940920827
 20
113.0890661546
 30
0.0
 11
300.2440920827
 21
113.3390661546
 31
0.0
  0
LINE
  5
195
330
1F
100
AcDbEntity
  8
0
  6
Continuous
 62
     7
370
    25
100
AcDbLine
 10
300.2440920827
 20
113.2248525922
 30
0.0
 11
300.2440920827
 21
110.6890661552
 31
0.0
  0
LINE
  5
196
330
1F
100
AcDbEntity
  8
0
  6
Continuous
 62
     7
370
    25
100
AcDbLine
 10
300.2440920827
 20
113.3390661546
 30
0.0
 11
300.2440920827
 21
113.2248525922
 31
0.0
  0
LINE
  5
197
330
1F
100
AcDbEntity
  8
0
  6
Continuous
 62
     7
370
    25
100
AcDbLine
 10
302.9940920827
 20
113.0890661546
 30
0.0
 11
303.2440920827
 21
113.3390661546
 31
0.0
  0
LINE
  5
198
330
1F
100
AcDbEntity
  8
0
  6
Continuous
 62
     7
370
    25
100
AcDbLine
 10
303.2440920827
 20
113.3390661546
 30
0.0
 11
303.2440920827
 21
110.6890661552
 31
0.0
  0
LINE
  5
199
330
1F
100
AcDbEntity
  8
0
  6
Continuous
 62
     7
370
    25
100
AcDbLine
 10
328.2440920827
 20
112.1390661546
 30
0.0
 11
328.2440920827
 21
108.9390661552
 31
0.0
  0
LINE
  5
19A
330
1F
100
AcDbEntity
  8
0
  6
Continuous
 62
     7
370
    25
100
AcDbLine
 10
328.2440920827
 20
112.1390661546
 30
0.0
 11
327.9940920827
 21
111.8890661546
 31
0.0
  0
LINE
  5
19B
330
1F
100
AcDbEntity
  8
0
  6
Continuous
 62
     7
370
    25
100
AcDbLine
 10
328.2440920827
 20
112.1390661546
 30
0.0
 11
325.2440920827
 21
112.1390661546
 31
0.0
  0
LINE
  5
19C
330
1F
100
AcDbEntity
  8
0
  6
Continuous
 62
     7
370
    25
100
AcDbLine
 10
325.2440920827
 20
112.1390661546
 30
0.0
 11
325.4940920827
 21
111.8890661546
 31
0.0
  0
LINE
  5
19D
330
1F
100
AcDbEntity
  8
0
  6
Continuous
 62
     7
370
    25
100
AcDbLine
 10
325.2440920827
 20
112.1390661546
 30
0.0
 11
325.2440920827
 21
108.9390661552
 31
0.0
  0
LINE
  5
19E
330
1F
100
AcDbEntity
  8
0
  6
Continuous
 62
     7
370
    25
100
AcDbLine
 10
300.3997270013
 20
113.3390661546
 30
0.0
 11
300.2440920827
 21
113.3390661546
 31
0.0
  0
LINE
  5
19F
330
1F
100
AcDbEntity
  8
0
  6
Continuous
 62
     7
370
    25
100
AcDbLine
 10
303.2440920827
 20
113.3390661546
 30
0.0
 11
300.3997270013
 21
113.3390661546
 31
0.0
  0
LINE
  5
1A0
330
1F
100
AcDbEntity
  8
0
  6
Continuous
 62
     7
370
    25
100
AcDbLine
 10
323.3240920827
 20
111.3390661564
 30
0.0
 11
318.8240920777
 21
111.3390661564
 31
0.0
  0
LINE
  5
1A1
330
1F
100
AcDbEntity
  8
0
  6
Continuous
 62
     7
370
    25
100
AcDbLine
 10
323.3240920827
 20
108.9390661552
 30
0.0
 11
323.3240920827
 21
111.3390661557
 31
0.0
  0
LINE
  5
1A2
330
1F
100
AcDbEntity
  8
0
  6
Continuous
 62
     7
370
    25
100
AcDbLine
 10
318.8240920827
 20
110.6890661552
 30
0.0
 11
318.8240920827
 21
111.3390661557
 31
0.0
  0
LINE
  5
1A3
330
1F
100
AcDbEntity
  8
0
  6
Continuous
 62
     7
370
    25
100
AcDbLine
 10
298.5662746244
 20
112.9612486964
 30
0.0
 11
299.621909542
 21
114.0168836139
 31
0.0
  0
ARC
  5
1A4
330
1F
100
AcDbEntity
  8
0
  6
Continuous
 62
     7
370
    25
100
AcDbCircle
 10
297.7884571651
 20
113.7390661557
 30
0.0
 40
1.099999999999994
100
AcDbArc
 50
270.0
 51
315.0
  0
LINE
  5
1A5
330
1F
100
AcDbEntity
  8
0
  6
Continuous
 62
     7
370
    25
100
AcDbLine
 10
315.360416759
 20
114.0227414783
 30
0.0
 11
315.921909542
 21
113.4612486953
 31
0.0
  0
LINE
  5
1A6
330
1F
100
AcDbEntity
  8
0
  6
Continuous
 62
     7
370
    25
100
AcDbLine
 10
316.6997270013
 20
113.1390661546
 30
0.0
 11
331.6440920827
 21
113.1390661546
 31
0.0
  0
LINE
  5
1A7
330
1F
100
AcDbEntity
  8
0
  6
Continuous
 62
     7
370
    25
100
AcDbLine
 10
332.2440920827
 20
112.5390661546
 30
0.0
 11
331.6440920827
 21
113.1390661546
 31
0.0
  0
LINE
  5
1A8
330
1F
100
AcDbEntity
  8
0
  6
Continuous
 62
     7
370
    25
100
AcDbLine
 10
332.2440920827
 20
112.5390661546
 30
0.0
 11
332.2440920827
 21
112.1390661546
 31
0.0
  0
LINE
  5
1A9
330
1F
100
AcDbEntity
  8
0
  6
Continuous
 62
     7
370
    25
100
AcDbLine
 10
290.2440920827
 20
112.6390661557
 30
0.0
 11
297.7884571651
 21
112.6390661557
 31
0.0
  0
LINE
  5
1AA
330
1F
100
AcDbEntity
  8
0
  6
Continuous
 62
     7
370
    25
100
AcDbLine
 10
290.2440920827
 20
111.6390661557
 30
0.0
 11
290.2440920827
 21
112.6390661557
 31
0.0
  0
LINE
  5
1AB
330
1F
100
AcDbEntity
  8
0
  6
Continuous
 62
     7
370
    25
100
AcDbLine
 10
300.3997270013
 20
114.3390661546
 30
0.0
 11
314.5967414353
 21
114.3390661546
 31
0.0
  0
ARC
  5
1AC
330
1F
100
AcDbEntity
  8
0
  6
Continuous
 62
     7
370
    25
100
AcDbCircle
 10
314.5967414353
 20
113.2590661546
 30
0.0
 40
1.079999999999998
100
AcDbArc
 50
45.0
 51
90.0
  0
ARC
  5
1AD
330
1F
100
AcDbEntity
  8
0
  6
Continuous
 62
     7
370
    25
100
AcDbCircle
 10
300.3997270013
 20
113.2390661546
 30
0.0
 40
1.100000000000009
100
AcDbArc
 50
90.0
 51
135.0
  0
ARC
  5
1AE
330
1F
100
AcDbEntity
  8
0
  6
Continuous
 62
     7
370
    25
100
AcDbCircle
 10
316.6997270013
 20
114.2390661546
 30
0.0
 40
1.100000000000009
100
AcDbArc
 50
225.0
 51
270.0
  0
LINE
  5
1AF
330
1F
100
AcDbEntity
  8
0
  6
Continuous
 62
     7
370
    25
100
AcDbLine
 10
290.2440920827
 20
111.6390661557
 30
0.0
 11
290.2440920827
 21
110.6890661552
 31
0.0
  0
LINE
  5
1B0
330
1F
100
AcDbEntity
  8
0
  6
Continuous
 62
     7
370
    25
100
AcDbLine
 10
332.2440920827
 20
112.1390661546
 30
0.0
 11
332.2440920827
 21
108.9390661552
 31
0.0
  0
LINE
  5
1B1
330
1F
100
AcDbEntity
  8
0
  6
PHANTOM
 62
     7
370
    18
100
AcDbLine
 10
291.2440920827
 20
105.4390661557
 30
0.0
 11
291.2440920827
 21
106.4390661557
 31
0.0
  0
LINE
  5
1B2
330
1F
100
AcDbEntity
  8
0
  6
PHANTOM
 62
     7
370
    18
100
AcDbLine
 10
313.2440920816
 20
105.4390661557
 30
0.0
 11
313.2440920816
 21
106.4390661557
 31
0.0
  0
LINE
  5
1B3
330
1F
100
AcDbEntity
  8
0
  6
PHANTOM
 62
     7
370
    18
100
AcDbLine
 10
313.4940920819
 20
106.4390661557
 30
0.0
 11
313.4940920811
 21
107.9390661552
 31
0.0
  0
LINE
  5
1B4
330
1F
100
AcDbEntity
  8
0
  6
PHANTOM
 62
     7
370
    18
100
AcDbLine
 10
317.2440920827
 20
107.9390661552
 30
0.0
 11
313.4940920811
 21
107.9390661552
 31
0.0
  0
LINE
  5
1B5
330
1F
100
AcDbEntity
  8
0
  6
PHANTOM
 62
     7
370
    18
100
AcDbLine
 10
290.9940920827
 20
107.9390661552
 30
0.0
 11
287.2440920827
 21
107.9390661552
 31
0.0
  0
LINE
  5
1B6
330
1F
100
AcDbEntity
  8
0
  6
PHANTOM
 62
     7
370
    18
100
AcDbLine
 10
290.9940920827
 20
106.4390661557
 30
0.0
 11
290.9940920827
 21
107.9390661552
 31
0.0
  0
LINE
  5
1B7
330
1F
100
AcDbEntity
  8
0
  6
PHANTOM
 62
     7
370
    18
100
AcDbLine
 10
313.4940920811
 20
107.9390661552
 30
0.0
 11
290.9940920827
 21
107.9390661552
 31
0.0
  0
LINE
  5
1B8
330
1F
100
AcDbEntity
  8
0
  6
PHANTOM
 62
     7
370
    18
100
AcDbLine
 10
290.9940920827
 20
107.9390661552
 30
0.0
 11
290.9940920827
 21
108.9390661552
 31
0.0
  0
LINE
  5
1B9
330
1F
100
AcDbEntity
  8
0
  6
PHANTOM
 62
     7
370
    18
100
AcDbLine
 10
313.4940920811
 20
107.9390661552
 30
0.0
 11
313.4940920811
 21
108.9390661552
 31
0.0
  0
LINE
  5
1BA
330
1F
100
AcDbEntity
  8
0
  6
PHANTOM
 62
     7
370
    18
100
AcDbLine
 10
323.2440920827
 20
107.9390661552
 30
0.0
 11
317.2440920827
 21
107.9390661552
 31
0.0
  0
LWPOLYLINE
  5
1BB
330
1F
100
AcDbEntity
  8
0
  6
PHANTOM
 62
     7
370
    18
100
AcDbPolyline
 90
        9
 70
   128
 43
0.0
 10
323.2440920827
 20
107.9390661552
 10
323.2440920827
 20
108.1341564772
 10
323.2440920827
 20
108.3217495876
 10
323.2440920827
 20
108.4946363882
 10
323.2440920827
 20
108.6461729364
 10
323.2440920827
 20
108.7705357675
 10
323.2440920827
 20
108.8629456877
 10
323.2440920827
 20
108.9198514356
 10
323.2440909606
 20
108.9390661552
  0
LINE
  5
1BC
330
1F
100
AcDbEntity
  8
0
  6
PHANTOM
 62
     7
370
    18
100
AcDbLine
 10
323.2440920827
 20
106.4390661557
 30
0.0
 11
323.2440920827
 21
107.9390661552
 31
0.0
  0
LINE
  5
1BD
330
1F
100
AcDbEntity
  8
0
  6
PHANTOM
 62
     7
370
    18
100
AcDbLine
 10
332.2440920827
 20
107.9390661552
 30
0.0
 11
323.2440920827
 21
107.9390661552
 31
0.0
  0
LINE
  5
1BE
330
1F
100
AcDbEntity
  8
0
  6
PHANTOM
 62
     7
370
    18
100
AcDbLine
 10
318.8240920815
 20
109.6890661552
 30
0.0
 11
290.2440920827
 21
109.6890661552
 31
0.0
  0
LINE
  5
1BF
330
1F
100
AcDbEntity
  8
0
  6
PHANTOM
 62
     7
370
    18
100
AcDbLine
 10
300.4940920827
 20
113.0890661546
 30
0.0
 11
300.4940920827
 21
110.6890661552
 31
0.0
  0
LINE
  5
1C0
330
1F
100
AcDbEntity
  8
0
  6
PHANTOM
 62
     7
370
    18
100
AcDbLine
 10
302.9940920827
 20
110.6890661552
 30
0.0
 11
302.9940920827
 21
113.0890661546
 31
0.0
  0
LINE
  5
1C1
330
1F
100
AcDbEntity
  8
0
  6
PHANTOM
 62
     7
370
    18
100
AcDbLine
 10
302.9940920827
 20
113.0890661546
 30
0.0
 11
300.4940920827
 21
113.0890661546
 31
0.0
  0
LINE
  5
1C2
330
1F
100
AcDbEntity
  8
0
  6
PHANTOM
 62
     7
370
    18
100
AcDbLine
 10
325.4940920827
 20
111.8890661546
 30
0.0
 11
325.4940920827
 21
108.9390661552
 31
0.0
  0
LINE
  5
1C3
330
1F
100
AcDbEntity
  8
0
  6
PHANTOM
 62
     7
370
    18
100
AcDbLine
 10
327.9940920827
 20
111.8890661546
 30
0.0
 11
325.4940920827
 21
111.8890661546
 31
0.0
  0
LINE
  5
1C4
330
1F
100
AcDbEntity
  8
0
  6
PHANTOM
 62
     7
370
    18
100
AcDbLine
 10
327.9940920827
 20
108.9390661552
 30
0.0
 11
327.9940920827
 21
111.8890661546
 31
0.0
  0
LINE
  5
1C5
330
1F
100
AcDbEntity
  8
0
  6
PHANTOM
 62
     7
370
    18
100
AcDbLine
 10
314.5967414353
 20
113.3390661546
 30
0.0
 11
303.2440920827
 21
113.3390661546
 31
0.0
  0
ARC
  5
1C6
330
1F
100
AcDbEntity
  8
0
  6
PHANTOM
 62
     7
370
    18
100
AcDbCircle
 10
314.5967414353
 20
113.2590661546
 30
0.0
 40
0.0799999999999983
100
AcDbArc
 50
45.0
 51
90.0
  0
LINE
  5
1C7
330
1F
100
AcDbEntity
  8
0
  6
PHANTOM
 62
     7
370
    18
100
AcDbLine
 10
315.2148027608
 20
112.7541419141
 30
0.0
 11
314.6533099778
 21
113.3156346971
 31
0.0
  0
ARC
  5
1C8
330
1F
100
AcDbEntity
  8
0
  6
PHANTOM
 62
     7
370
    18
100
AcDbCircle
 10
316.6997270013
 20
114.2390661546
 30
0.0
 40
2.100000000000041
100
AcDbArc
 50
225.0
 51
270.0
  0
LINE
  5
1C9
330
1F
100
AcDbEntity
  8
0
  6
PHANTOM
 62
     7
370
    18
100
AcDbLine
 10
325.2440920827
 20
112.1390661546
 30
0.0
 11
316.6997270013
 21
112.1390661546
 31
0.0
  0
LINE
  5
1CA
330
1F
100
AcDbEntity
  8
0
  6
PHANTOM
 62
     7
370
    18
100
AcDbLine
 10
300.2440920827
 20
113.2248525922
 30
0.0
 11
299.2733814056
 21
112.2541419152
 31
0.0
  0
LINE
  5
1CB
330
1F
100
AcDbEntity
  8
0
  6
PHANTOM
 62
     7
370
    18
100
AcDbLine
 10
299.2733814056
 20
112.2541419152
 30
0.0
 11
298.5662746244
 21
112.9612486964
 31
0.0
  0
LINE
  5
1CC
330
1F
100
AcDbEntity
  8
0
  6
PHANTOM
 62
     7
370
    18
100
AcDbLine
 10
300.2997270013
 20
113.3390661546
 30
0.0
 11
299.621909542
 21
114.0168836139
 31
0.0
  0
ARC
  5
1CD
330
1F
100
AcDbEntity
  8
0
  6
PHANTOM
 62
     7
370
    18
100
AcDbCircle
 10
297.7884571651
 20
113.7390661557
 30
0.0
 40
2.100000000000009
100
AcDbArc
 50
270.0
 51
315.0
  0
LINE
  5
1CE
330
1F
100
AcDbEntity
  8
0
  6
PHANTOM
 62
     7
370
    18
100
AcDbLine
 10
297.7884571651
 20
111.6390661557
 30
0.0
 11
297.7884571651
 21
112.6390661557
 31
0.0
  0
LINE
  5
1CF
330
1F
100
AcDbEntity
  8
0
  6
PHANTOM
 62
     7
370
    18
100
AcDbLine
 10
314.6533099778
 20
113.3156346971
 30
0.0
 11
315.360416759
 21
114.0227414783
 31
0.0
  0
LINE
  5
1D0
330
1F
100
AcDbEntity
  8
0
  6
PHANTOM
 62
     7
370
    18
100
AcDbLine
 10
315.2148027608
 20
112.7541419141
 30
0.0
 11
315.921909542
 21
113.4612486953
 31
0.0
  0
LINE
  5
1D1
330
1F
100
AcDbEntity
  8
0
  6
PHANTOM
 62
     7
370
    18
100
AcDbLine
 10
332.2440920827
 20
112.1390661546
 30
0.0
 11
328.2440920827
 21
112.1390661546
 31
0.0
  0
LINE
  5
1D2
330
1F
100
AcDbEntity
  8
0
  6
PHANTOM
 62
     7
370
    18
100
AcDbLine
 10
316.6997270013
 20
112.1390661546
 30
0.0
 11
316.6997270013
 21
113.1390661546
 31
0.0
  0
LINE
  5
1D3
330
1F
100
AcDbEntity
  8
0
  6
PHANTOM
 62
     7
370
    18
100
AcDbLine
 10
297.7884571651
 20
111.6390661557
 30
0.0
 11
290.2440920827
 21
111.6390661557
 31
0.0
  0
LINE
  5
1D4
330
1F
100
AcDbEntity
  8
0
  6
PHANTOM
 62
     7
370
    18
100
AcDbLine
 10
300.3997270013
 20
113.3390661546
 30
0.0
 11
300.3997270013
 21
114.3390661546
 31
0.0
  0
LINE
  5
1D5
330
1F
100
AcDbEntity
  8
0
  6
PHANTOM
 62
     7
370
    18
100
AcDbLine
 10
314.5967414353
 20
113.3390661546
 30
0.0
 11
314.5967414353
 21
114.3390661546
 31
0.0
  0
LINE
  5
1D6
330
1F
100
AcDbEntity
  8
9
  6
CENTERX2
 62
     7
370
    18
100
AcDbLine
 10
295.2440920827
 20
103.1794697307
 30
0.0
 11
295.2440920827
 21
110.261669489
 31
0.0
  0
LINE
  5
1D7
330
1F
100
AcDbEntity
  8
9
  6
CENTERX2
 62
     7
370
    18
100
AcDbLine
 10
309.2440920827
 20
103.2069201173
 30
0.0
 11
309.2440920827
 21
110.2342191024
 31
0.0
  0
LINE
  5
1D8
330
1F
100
AcDbEntity
  8
0
  6
Continuous
 62
     7
370
    25
100
AcDbLine
 10
197.1887357346
 20
105.4390661557
 30
0.0
 11
197.1887357346
 21
106.4390661557
 31
0.0
  0
LINE
  5
1D9
330
1F
100
AcDbEntity
  8
0
  6
Continuous
 62
     7
370
    25
100
AcDbLine
 10
197.1887357346
 20
105.4390661557
 30
0.0
 11
202.1887357346
 21
105.4390661557
 31
0.0
  0
LINE
  5
1DA
330
1F
100
AcDbEntity
  8
0
  6
Continuous
 62
     7
370
    25
100
AcDbLine
 10
197.1887357346
 20
106.4390661557
 30
0.0
 11
202.1887357346
 21
106.4390661557
 31
0.0
  0
LINE
  5
1DB
330
1F
100
AcDbEntity
  8
0
  6
Continuous
 62
     7
370
    25
100
AcDbLine
 10
212.7887357346
 20
106.4390661557
 30
0.0
 11
212.7887357346
 21
105.4390661557
 31
0.0
  0
LINE
  5
1DC
330
1F
100
AcDbEntity
  8
0
  6
Continuous
 62
     7
370
    25
100
AcDbLine
 10
202.1887357346
 20
105.4390661557
 30
0.0
 11
212.7887357346
 21
105.4390661557
 31
0.0
  0
LINE
  5
1DD
330
1F
100
AcDbEntity
  8
0
  6
Continuous
 62
     7
370
    25
100
AcDbLine
 10
202.1887357346
 20
106.4390661557
 30
0.0
 11
212.7887357346
 21
106.4390661557
 31
0.0
  0
LINE
  5
1DE
330
1F
100
AcDbEntity
  8
0
  6
Continuous
 62
     7
370
    25
100
AcDbLine
 10
232.7887357346
 20
105.4390661557
 30
0.0
 11
243.3887357355
 21
105.4390661557
 31
0.0
  0
LINE
  5
1DF
330
1F
100
AcDbEntity
  8
0
  6
Continuous
 62
     7
370
    25
100
AcDbLine
 10
232.7887357346
 20
105.4390661557
 30
0.0
 11
232.7887357346
 21
106.4390661557
 31
0.0
  0
LINE
  5
1E0
330
1F
100
AcDbEntity
  8
0
  6
Continuous
 62
     7
370
    25
100
AcDbLine
 10
232.7887357346
 20
106.4390661557
 30
0.0
 11
243.3887357355
 21
106.4390661557
 31
0.0
  0
LINE
  5
1E1
330
1F
100
AcDbEntity
  8
0
  6
Continuous
 62
     7
370
    25
100
AcDbLine
 10
248.3887357346
 20
105.4390661557
 30
0.0
 11
248.3887357346
 21
106.4390661557
 31
0.0
  0
LINE
  5
1E2
330
1F
100
AcDbEntity
  8
0
  6
Continuous
 62
     7
370
    25
100
AcDbLine
 10
243.3887357355
 20
105.4390661557
 30
0.0
 11
248.3887357346
 21
105.4390661557
 31
0.0
  0
LINE
  5
1E3
330
1F
100
AcDbEntity
  8
0
  6
Continuous
 62
     7
370
    25
100
AcDbLine
 10
243.3887357355
 20
106.4390661557
 30
0.0
 11
248.3887357346
 21
106.4390661557
 31
0.0
  0
LINE
  5
1E4
330
1F
100
AcDbEntity
  8
0
  6
Continuous
 62
     7
370
    25
100
AcDbLine
 10
202.1887357345
 20
108.9390661552
 30
0.0
 11
212.7887357346
 21
108.9390661552
 31
0.0
  0
LINE
  5
1E5
330
1F
100
AcDbEntity
  8
0
  6
Continuous
 62
     7
370
    25
100
AcDbLine
 10
212.7887357346
 20
108.9390661552
 30
0.0
 11
212.7887357346
 21
107.9390661552
 31
0.0
  0
LINE
  5
1E6
330
1F
100
AcDbEntity
  8
0
  6
Continuous
 62
     7
370
    25
100
AcDbLine
 10
212.7887357346
 20
107.9390661552
 30
0.0
 11
212.7887357346
 21
106.4390661557
 31
0.0
  0
LINE
  5
1E7
330
1F
100
AcDbEntity
  8
0
  6
Continuous
 62
     7
370
    25
100
AcDbLine
 10
232.7887357346
 20
106.4390661553
 30
0.0
 11
232.7887357346
 21
107.9390661552
 31
0.0
  0
LINE
  5
1E8
330
1F
100
AcDbEntity
  8
0
  6
Continuous
 62
     7
370
    25
100
AcDbLine
 10
198.4387357346
 20
106.4390661557
 30
0.0
 11
198.4387357344
 21
107.9390661552
 31
0.0
  0
ARC
  5
1E9
330
1F
100
AcDbEntity
  8
0
  6
Continuous
 62
     7
370
    25
100
AcDbCircle
 10
199.4387357344
 20
107.9390661552
 30
0.0
 40
1.0
100
AcDbArc
 50
90.0
 51
180.0
  0
LINE
  5
1EA
330
1F
100
AcDbEntity
  8
0
  6
Continuous
 62
     7
370
    25
100
AcDbLine
 10
199.4387357344
 20
108.9390661552
 30
0.0
 11
202.1887357345
 21
108.9390661552
 31
0.0
  0
LINE
  5
1EB
330
1F
100
AcDbEntity
  8
0
  6
Continuous
 62
     7
370
    25
100
AcDbLine
 10
232.7887357346
 20
108.9390661552
 30
0.0
 11
243.388735736
 21
108.9390661552
 31
0.0
  0
LINE
  5
1EC
330
1F
100
AcDbEntity
  8
0
  6
Continuous
 62
     7
370
    25
100
AcDbLine
 10
232.7887357346
 20
107.9390661552
 30
0.0
 11
232.7887357346
 21
108.9390661552
 31
0.0
  0
LINE
  5
1ED
330
1F
100
AcDbEntity
  8
0
  6
Continuous
 62
     7
370
    25
100
AcDbLine
 10
243.388735736
 20
108.9390661552
 30
0.0
 11
246.1387357346
 21
108.9390661552
 31
0.0
  0
ARC
  5
1EE
330
1F
100
AcDbEntity
  8
0
  6
Continuous
 62
     7
370
    25
100
AcDbCircle
 10
246.1387357346
 20
107.9390661552
 30
0.0
 40
1.0
100
AcDbArc
 50
0.0
 51
90.0
  0
LINE
  5
1EF
330
1F
100
AcDbEntity
  8
0
  6
Continuous
 62
     7
370
    25
100
AcDbLine
 10
247.1387357346
 20
106.4390661557
 30
0.0
 11
247.1387357346
 21
107.9390661552
 31
0.0
  0
ARC
  5
1F0
330
1F
100
AcDbEntity
  8
0
  6
Continuous
 62
     7
370
    25
100
AcDbCircle
 10
217.2887357346
 20
110.7890661552
 30
0.0
 40
1.100000000000009
100
AcDbArc
 50
270.0
 51
0.0
  0
LINE
  5
1F1
330
1F
100
AcDbEntity
  8
0
  6
Continuous
 62
     7
370
    25
100
AcDbLine
 10
214.7887357346
 20
109.6890661552
 30
0.0
 11
217.2887357346
 21
109.6890661552
 31
0.0
  0
LINE
  5
1F2
330
1F
100
AcDbEntity
  8
0
  6
Continuous
 62
     7
370
    25
100
AcDbLine
 10
214.7887357346
 20
107.7390661555
 30
0.0
 11
214.7887357346
 21
109.6890661552
 31
0.0
  0
LINE
  5
1F3
330
1F
100
AcDbEntity
  8
0
  6
Continuous
 62
     7
370
    25
100
AcDbLine
 10
213.7887357346
 20
109.6890661552
 30
0.0
 11
213.7887357346
 21
108.9390661552
 31
0.0
  0
ARC
  5
1F4
330
1F
100
AcDbEntity
  8
0
  6
Continuous
 62
     7
370
    25
100
AcDbCircle
 10
214.7887357346
 20
109.6890661552
 30
0.0
 40
1.0
100
AcDbArc
 50
90.0
 51
180.0
  0
LINE
  5
1F5
330
1F
100
AcDbEntity
  8
0
  6
Continuous
 62
     7
370
    25
100
AcDbLine
 10
217.3887357346
 20
110.6890661552
 30
0.0
 11
214.7887357346
 21
110.6890661552
 31
0.0
  0
LINE
  5
1F6
330
1F
100
AcDbEntity
  8
0
  6
Continuous
 62
     7
370
    25
100
AcDbLine
 10
217.3887357346
 20
111.6390661557
 30
0.0
 11
217.3887357346
 21
110.6890661552
 31
0.0
  0
ARC
  5
1F7
330
1F
100
AcDbEntity
  8
0
  6
Continuous
 62
     7
370
    25
100
AcDbCircle
 10
218.3887357346
 20
111.6390661557
 30
0.0
 40
1.000000000000014
100
AcDbArc
 50
90.0
 51
180.0
  0
LINE
  5
1F8
330
1F
100
AcDbEntity
  8
0
  6
Continuous
 62
     7
370
    25
100
AcDbLine
 10
218.3887357346
 20
112.6390661557
 30
0.0
 11
227.1887357346
 21
112.6390661557
 31
0.0
  0
ARC
  5
1F9
330
1F
100
AcDbEntity
  8
0
  6
Continuous
 62
     7
370
    25
100
AcDbCircle
 10
227.1887357346
 20
111.6390661557
 30
0.0
 40
1.000000000000014
100
AcDbArc
 50
0.0
 51
90.0
  0
LINE
  5
1FA
330
1F
100
AcDbEntity
  8
0
  6
Continuous
 62
     7
370
    25
100
AcDbLine
 10
228.1887357346
 20
111.6390661557
 30
0.0
 11
228.1887357346
 21
110.6890661552
 31
0.0
  0
LINE
  5
1FB
330
1F
100
AcDbEntity
  8
0
  6
Continuous
 62
     7
370
    25
100
AcDbLine
 10
230.7887357346
 20
110.6890661552
 30
0.0
 11
228.1887357346
 21
110.6890661552
 31
0.0
  0
ARC
  5
1FC
330
1F
100
AcDbEntity
  8
0
  6
Continuous
 62
     7
370
    25
100
AcDbCircle
 10
230.7887357346
 20
109.6890661552
 30
0.0
 40
1.0
100
AcDbArc
 50
0.0
 51
90.0
  0
LINE
  5
1FD
330
1F
100
AcDbEntity
  8
0
  6
Continuous
 62
     7
370
    25
100
AcDbLine
 10
231.7887357346
 20
108.9390661552
 30
0.0
 11
231.7887357346
 21
109.6890661552
 31
0.0
  0
LINE
  5
1FE
330
1F
100
AcDbEntity
  8
0
  6
Continuous
 62
     7
370
    25
100
AcDbLine
 10
230.7887357346
 20
109.6890661552
 30
0.0
 11
230.7887357346
 21
107.7390661555
 31
0.0
  0
LINE
  5
1FF
330
1F
100
AcDbEntity
  8
0
  6
Continuous
 62
     7
370
    25
100
AcDbLine
 10
228.2887357346
 20
109.6890661552
 30
0.0
 11
230.7887357346
 21
109.6890661552
 31
0.0
  0
ARC
  5
200
330
1F
100
AcDbEntity
  8
0
  6
Continuous
 62
     7
370
    25
100
AcDbCircle
 10
228.2887357346
 20
110.7890661552
 30
0.0
 40
1.099999999999994
100
AcDbArc
 50
180.0
 51
270.0
  0
LINE
  5
201
330
1F
100
AcDbEntity
  8
0
  6
Continuous
 62
     7
370
    25
100
AcDbLine
 10
227.1887357346
 20
110.7890661552
 30
0.0
 11
227.1887357346
 21
111.6390661557
 31
0.0
  0
LINE
  5
202
330
1F
100
AcDbEntity
  8
0
  6
Continuous
 62
     7
370
    25
100
AcDbLine
 10
227.1887357346
 20
111.6390661557
 30
0.0
 11
218.3887357346
 21
111.6390661557
 31
0.0
  0
LINE
  5
203
330
1F
100
AcDbEntity
  8
0
  6
Continuous
 62
     7
370
    25
100
AcDbLine
 10
218.3887357346
 20
111.6390661557
 30
0.0
 11
218.3887357346
 21
110.7890661552
 31
0.0
  0
LINE
  5
204
330
1F
100
AcDbEntity
  8
0
  6
Continuous
 62
     7
370
    25
100
AcDbLine
 10
230.7887357346
 20
107.7390661555
 30
0.0
 11
232.7887357346
 21
107.7390661552
 31
0.0
  0
LINE
  5
205
330
1F
100
AcDbEntity
  8
0
  6
Continuous
 62
     7
370
    25
100
AcDbLine
 10
212.7887357346
 20
107.7390661552
 30
0.0
 11
214.7887357346
 21
107.7390661555
 31
0.0
  0
LINE
  5
206
330
1F
100
AcDbEntity
  8
0
  6
Continuous
 62
     7
370
    25
100
AcDbLine
 10
231.7887357346
 20
108.9390661552
 30
0.0
 11
232.7887357346
 21
108.9390661552
 31
0.0
  0
LINE
  5
207
330
1F
100
AcDbEntity
  8
0
  6
Continuous
 62
     7
370
    25
100
AcDbLine
 10
212.7887357346
 20
108.9390661552
 30
0.0
 11
213.7887357346
 21
108.9390661552
 31
0.0
  0
LINE
  5
208
330
1F
100
AcDbEntity
  8
0
  6
Continuous
 62
     7
370
    25
100
AcDbLine
 10
215.0178645193
 20
110.8390661552
 30
0.0
 11
217.3887357346
 21
110.8390661552
 31
0.0
  0
ARC
  5
209
330
1F
100
AcDbEntity
  8
0
  6
Continuous
 62
     7
370
    25
100
AcDbCircle
 10
215.0178645193
 20
110.5890661552
 30
0.0
 40
0.25
100
AcDbArc
 50
90.0
 51
156.4218215218
  0
LINE
  5
20A
330
1F
100
AcDbEntity
  8
0
  6
Continuous
 62
     7
370
    25
100
AcDbLine
 10
228.1887357346
 20
110.8390661552
 30
0.0
 11
230.5596069498
 21
110.8390661552
 31
0.0
  0
ARC
  5
20B
330
1F
100
AcDbEntity
  8
0
  6
Continuous
 62
     7
370
    25
100
AcDbCircle
 10
230.5596069498
 20
110.5890661552
 30
0.0
 40
0.25
100
AcDbArc
 50
23.5781784782
 51
90.0
  0
LINE
  5
20C
330
1F
100
AcDbEntity
  8
0
  6
Continuous
 62
     7
370
    25
100
AcDbLine
 10
217.3887357346
 20
111.6390661557
 30
0.0
 11
217.3887357346
 21
112.2541419152
 31
0.0
  0
LINE
  5
20D
330
1F
100
AcDbEntity
  8
0
  6
Continuous
 62
     7
370
    25
100
AcDbLine
 10
228.1887357346
 20
112.2541419152
 30
0.0
 11
228.1887357346
 21
111.6390661557
 31
0.0
  0
LINE
  5
20E
330
1F
100
AcDbEntity
  8
0
  6
Continuous
 62
     7
370
    25
100
AcDbLine
 10
217.3887357346
 20
112.2541419152
 30
0.0
 11
217.3887357346
 21
113.2248525922
 31
0.0
  0
LINE
  5
20F
330
1F
100
AcDbEntity
  8
0
  6
Continuous
 62
     7
370
    25
100
AcDbLine
 10
228.1887357346
 20
113.2248525922
 30
0.0
 11
228.1887357346
 21
112.2541419152
 31
0.0
  0
ARC
  5
210
330
1F
100
AcDbEntity
  8
0
  6
Continuous
 62
     7
370
    25
100
AcDbCircle
 10
218.3887357346
 20
113.3390661546
 30
0.0
 40
1.0
100
AcDbArc
 50
90.0
 51
180.0
  0
LINE
  5
211
330
1F
100
AcDbEntity
  8
0
  6
Continuous
 62
     7
370
    25
100
AcDbLine
 10
218.3887357346
 20
114.3390661546
 30
0.0
 11
227.1887357346
 21
114.3390661546
 31
0.0
  0
ARC
  5
212
330
1F
100
AcDbEntity
  8
0
  6
Continuous
 62
     7
370
    25
100
AcDbCircle
 10
227.1887357346
 20
113.3390661546
 30
0.0
 40
1.0
100
AcDbArc
 50
0.0
 51
90.0
  0
LINE
  5
213
330
1F
100
AcDbEntity
  8
0
  6
Continuous
 62
     7
370
    25
100
AcDbLine
 10
217.1387357346
 20
110.8390661552
 30
0.0
 11
217.1387357346
 21
113.0890661546
 31
0.0
  0
LINE
  5
214
330
1F
100
AcDbEntity
  8
0
  6
Continuous
 62
     7
370
    25
100
AcDbLine
 10
217.3887357346
 20
113.3390661546
 30
0.0
 11
217.3887357346
 21
113.2248525922
 31
0.0
  0
ARC
  5
215
330
1F
100
AcDbEntity
  8
0
  6
Continuous
 62
     7
370
    25
100
AcDbCircle
 10
217.3887357346
 20
113.0890661546
 30
0.0
 40
0.25
100
AcDbArc
 50
90.0
 51
180.0
  0
ARC
  5
216
330
1F
100
AcDbEntity
  8
0
  6
Continuous
 62
     7
370
    25
100
AcDbCircle
 10
228.1887357346
 20
113.0890661546
 30
0.0
 40
0.25
100
AcDbArc
 50
0.0
 51
90.0
  0
LINE
  5
217
330
1F
100
AcDbEntity
  8
0
  6
Continuous
 62
     7
370
    25
100
AcDbLine
 10
228.4387357346
 20
113.0890661546
 30
0.0
 11
228.4387357346
 21
110.8390661552
 31
0.0
  0
LINE
  5
218
330
1F
100
AcDbEntity
  8
0
  6
Continuous
 62
     7
370
    25
100
AcDbLine
 10
228.1887357346
 20
113.3390661546
 30
0.0
 11
228.1887357346
 21
113.2248525922
 31
0.0
  0
LINE
  5
219
330
1F
100
AcDbEntity
  8
0
  6
Continuous
 62
     7
370
    25
100
AcDbLine
 10
214.8887357346
 20
107.7390661555
 30
0.0
 11
214.7887357346
 21
107.7390661555
 31
0.0
  0
LINE
  5
21A
330
1F
100
AcDbEntity
  8
0
  6
Continuous
 62
     7
370
    25
100
AcDbLine
 10
214.8887357346
 20
107.7390661555
 30
0.0
 11
214.8887357346
 21
106.4390661557
 31
0.0
  0
LINE
  5
21B
330
1F
100
AcDbEntity
  8
0
  6
Continuous
 62
     7
370
    25
100
AcDbLine
 10
230.6887357346
 20
106.4390661557
 30
0.0
 11
230.6887357309
 21
107.7390661557
 31
0.0
  0
LINE
  5
21C
330
1F
100
AcDbEntity
  8
0
  6
Continuous
 62
     7
370
    25
100
AcDbLine
 10
230.7887357346
 20
107.7390661555
 30
0.0
 11
230.6887357346
 21
107.7390661555
 31
0.0
  0
ARC
  5
21D
330
1F
100
AcDbEntity
  8
0
  6
Continuous
 62
     7
370
    25
100
AcDbCircle
 10
213.7887357346
 20
106.4390661557
 30
0.0
 40
1.100000000074483
100
AcDbArc
 50
294.6199773371
 51
0.0
  0
LINE
  5
21E
330
1F
100
AcDbEntity
  8
0
  6
Continuous
 62
     7
370
    25
100
AcDbLine
 10
214.2469933043
 20
105.4390661557
 30
0.0
 11
212.7887357346
 21
105.4390661557
 31
0.0
  0
ARC
  5
21F
330
1F
100
AcDbEntity
  8
0
  6
Continuous
 62
     7
370
    25
100
AcDbCircle
 10
231.7887357346
 20
106.4390661557
 30
0.0
 40
1.099999999999995
100
AcDbArc
 50
180.0000000103
 51
245.3800226713
  0
LINE
  5
220
330
1F
100
AcDbEntity
  8
0
  6
Continuous
 62
     7
370
    25
100
AcDbLine
 10
232.7887357346
 20
105.4390661557
 30
0.0
 11
231.3304781651
 21
105.4390661557
 31
0.0
  0
LINE
  5
221
330
1F
100
AcDbEntity
  8
0
  6
Continuous
 62
     7
370
    25
100
AcDbLine
 10
217.3887357346
 20
108.9390661552
 30
0.0
 11
214.7887357346
 21
108.9390661552
 31
0.0
  0
ARC
  5
222
330
1F
100
AcDbEntity
  8
0
  6
Continuous
 62
     7
370
    25
100
AcDbCircle
 10
217.2887451615
 20
108.8345121308
 30
0.0
 40
1.100000000000004
100
AcDbArc
 50
275.2154155093
 51
0.2372064817
  0
LINE
  5
223
330
1F
100
AcDbEntity
  8
0
  6
Continuous
 62
     7
370
    25
100
AcDbLine
 10
214.8887357419
 20
107.7390661555
 30
0.0
 11
217.3887357346
 21
107.7390661555
 31
0.0
  0
LINE
  5
224
330
1F
100
AcDbEntity
  8
0
  6
Continuous
 62
     7
370
    25
100
AcDbLine
 10
217.3887357349
 20
109.6936210402
 30
0.0
 11
217.3887357346
 21
108.9390661552
 31
0.0
  0
LINE
  5
225
330
1F
100
AcDbEntity
  8
0
  6
Continuous
 62
     7
370
    25
100
AcDbLine
 10
218.3887357346
 20
110.7890661552
 30
0.0
 11
218.3887357346
 21
108.8390661553
 31
0.0
  0
LINE
  5
226
330
1F
100
AcDbEntity
  8
0
  6
Continuous
 62
     7
370
    25
100
AcDbLine
 10
230.7887357346
 20
108.9390661552
 30
0.0
 11
228.1887357346
 21
108.9390661552
 31
0.0
  0
ARC
  5
227
330
1F
100
AcDbEntity
  8
0
  6
Continuous
 62
     7
370
    25
100
AcDbCircle
 10
228.2887263077
 20
108.8345121308
 30
0.0
 40
1.100000000001873
100
AcDbArc
 50
179.7627934969
 51
264.7845844907
  0
LINE
  5
228
330
1F
100
AcDbEntity
  8
0
  6
Continuous
 62
     7
370
    25
100
AcDbLine
 10
228.1887357346
 20
107.7390661555
 30
0.0
 11
230.6887357273
 21
107.7390661557
 31
0.0
  0
LINE
  5
229
330
1F
100
AcDbEntity
  8
0
  6
Continuous
 62
     7
370
    25
100
AcDbLine
 10
228.1887357346
 20
108.9390661552
 30
0.0
 11
228.1887357345
 21
109.6936210402
 31
0.0
  0
LINE
  5
22A
330
1F
100
AcDbEntity
  8
0
  6
Continuous
 62
     7
370
    25
100
AcDbLine
 10
227.1887357346
 20
108.8390661557
 30
0.0
 11
227.1887357346
 21
110.7890661552
 31
0.0
  0
LINE
  5
22B
330
1F
100
AcDbEntity
  8
0
  6
Continuous
 62
     7
370
    25
100
AcDbLine
 10
217.1387357346
 20
108.9390661552
 30
0.0
 11
217.1387357346
 21
109.6890661552
 31
0.0
  0
LINE
  5
22C
330
1F
100
AcDbEntity
  8
0
  6
Continuous
 62
     7
370
    25
100
AcDbLine
 10
228.4387357346
 20
109.6890661552
 30
0.0
 11
228.4387357346
 21
108.9390661552
 31
0.0
  0
LINE
  5
22D
330
1F
100
AcDbEntity
  8
0
  6
PHANTOM
 62
     7
370
    18
100
AcDbLine
 10
202.1887357346
 20
105.4390661557
 30
0.0
 11
202.1887357346
 21
106.4390661557
 31
0.0
  0
LINE
  5
22E
330
1F
100
AcDbEntity
  8
0
  6
PHANTOM
 62
     7
370
    18
100
AcDbLine
 10
243.3887357355
 20
105.4390661557
 30
0.0
 11
243.3887357355
 21
106.4390661557
 31
0.0
  0
LINE
  5
22F
330
1F
100
AcDbEntity
  8
0
  6
PHANTOM
 62
     7
370
    18
100
AcDbLine
 10
212.7887357346
 20
107.9390661552
 30
0.0
 11
202.1887357339
 21
107.9390661552
 31
0.0
  0
LINE
  5
230
330
1F
100
AcDbEntity
  8
0
  6
PHANTOM
 62
     7
370
    18
100
AcDbLine
 10
202.1887357339
 20
107.9390661552
 30
0.0
 11
202.1887357345
 21
108.9390661552
 31
0.0
  0
LINE
  5
231
330
1F
100
AcDbEntity
  8
0
  6
PHANTOM
 62
     7
370
    18
100
AcDbLine
 10
202.1887357346
 20
106.4390661557
 30
0.0
 11
202.1887357339
 21
107.9390661552
 31
0.0
  0
LINE
  5
232
330
1F
100
AcDbEntity
  8
0
  6
PHANTOM
 62
     7
370
    18
100
AcDbLine
 10
243.388735736
 20
107.9390661552
 30
0.0
 11
232.7887357346
 21
107.9390661552
 31
0.0
  0
LINE
  5
233
330
1F
100
AcDbEntity
  8
0
  6
PHANTOM
 62
     7
370
    18
100
AcDbLine
 10
243.3887357353
 20
106.4390661557
 30
0.0
 11
243.388735736
 21
107.9390661552
 31
0.0
  0
LINE
  5
234
330
1F
100
AcDbEntity
  8
0
  6
PHANTOM
 62
     7
370
    18
100
AcDbLine
 10
202.1887357339
 20
107.9390661552
 30
0.0
 11
198.4387357344
 21
107.9390661552
 31
0.0
  0
LINE
  5
235
330
1F
100
AcDbEntity
  8
0
  6
PHANTOM
 62
     7
370
    18
100
AcDbLine
 10
243.388735736
 20
107.9390661552
 30
0.0
 11
243.388735736
 21
108.9390661552
 31
0.0
  0
LINE
  5
236
330
1F
100
AcDbEntity
  8
0
  6
PHANTOM
 62
     7
370
    18
100
AcDbLine
 10
247.1387357346
 20
107.9390661552
 30
0.0
 11
243.388735736
 21
107.9390661552
 31
0.0
  0
LINE
  5
237
330
1F
100
AcDbEntity
  8
0
  6
PHANTOM
 62
     7
370
    18
100
AcDbLine
 10
218.3887357346
 20
112.9612486964
 30
0.0
 11
218.3887357346
 21
112.6390661557
 31
0.0
  0
ARC
  5
238
330
1F
100
AcDbEntity
  8
0
  6
PHANTOM
 62
     7
370
    18
100
AcDbCircle
 10
218.2637357346
 20
112.0773652199
 30
0.0
 40
0.8926785535678633
100
AcDbArc
 50
81.9505330245
 51
168.578246341
  0
LINE
  5
239
330
1F
100
AcDbEntity
  8
0
  6
PHANTOM
 62
     7
370
    18
100
AcDbLine
 10
218.3887357346
 20
112.9612486964
 30
0.0
 11
227.1887357346
 21
112.9612486964
 31
0.0
  0
LINE
  5
23A
330
1F
100
AcDbEntity
  8
0
  6
PHANTOM
 62
     7
370
    18
100
AcDbLine
 10
227.1887357346
 20
112.6390661557
 30
0.0
 11
227.1887357346
 21
112.9612486964
 31
0.0
  0
ARC
  5
23B
330
1F
100
AcDbEntity
  8
0
  6
PHANTOM
 62
     7
370
    18
100
AcDbCircle
 10
227.3137357346
 20
112.0773652199
 30
0.0
 40
0.8926785535678915
100
AcDbArc
 50
11.421753659
 51
98.0494669755
  0
LINE
  5
23C
330
1F
100
AcDbEntity
  8
0
  6
PHANTOM
 62
     7
370
    18
100
AcDbLine
 10
218.3887357346
 20
114.0168836139
 30
0.0
 11
218.3887357346
 21
112.9612486964
 31
0.0
  0
ARC
  5
23D
330
1F
100
AcDbEntity
  8
0
  6
PHANTOM
 62
     7
370
    18
100
AcDbCircle
 10
218.2637357346
 20
113.1330001374
 30
0.0
 40
0.8926785535678572
100
AcDbArc
 50
81.9505330245
 51
168.578246341
  0
LINE
  5
23E
330
1F
100
AcDbEntity
  8
0
  6
PHANTOM
 62
     7
370
    18
100
AcDbLine
 10
218.3887357346
 20
114.0168836139
 30
0.0
 11
227.1887357346
 21
114.0168836139
 31
0.0
  0
LINE
  5
23F
330
1F
100
AcDbEntity
  8
0
  6
PHANTOM
 62
     7
370
    18
100
AcDbLine
 10
227.1887357346
 20
112.9612486964
 30
0.0
 11
227.1887357346
 21
114.0168836139
 31
0.0
  0
ARC
  5
240
330
1F
100
AcDbEntity
  8
0
  6
PHANTOM
 62
     7
370
    18
100
AcDbCircle
 10
227.3137357346
 20
113.1330001374
 30
0.0
 40
0.892678553567823
100
AcDbArc
 50
11.421753659
 51
98.0494669755
  0
LINE
  5
241
330
1F
100
AcDbEntity
  8
0
  6
PHANTOM
 62
     7
370
    18
100
AcDbLine
 10
218.3887357346
 20
114.3390661546
 30
0.0
 11
218.3887357346
 21
114.0168836139
 31
0.0
  0
LINE
  5
242
330
1F
100
AcDbEntity
  8
0
  6
PHANTOM
 62
     7
370
    18
100
AcDbLine
 10
227.1887357346
 20
114.0168836139
 30
0.0
 11
227.1887357346
 21
114.3390661546
 31
0.0
  0
LINE
  5
243
330
1F
100
AcDbEntity
  8
0
  6
PHANTOM
 62
     7
370
    18
100
AcDbLine
 10
214.8887357346
 20
106.4390661557
 30
0.0
 11
212.7887357346
 21
106.4390661557
 31
0.0
  0
LINE
  5
244
330
1F
100
AcDbEntity
  8
0
  6
PHANTOM
 62
     7
370
    18
100
AcDbLine
 10
232.7887357346
 20
106.4390661557
 30
0.0
 11
230.6887357346
 21
106.4390661557
 31
0.0
  0
LINE
  5
245
330
1F
100
AcDbEntity
  8
9
  6
CENTERX2
 62
     7
370
    18
100
AcDbLine
 10
206.7887357346
 20
103.1619071387
 30
0.0
 11
206.7887357346
 21
110.1048549161
 31
0.0
  0
LINE
  5
246
330
1F
100
AcDbEntity
  8
9
  6
CENTERX2
 62
     7
370
    18
100
AcDbLine
 10
238.7887357346
 20
103.1619071387
 30
0.0
 11
238.7887357346
 21
110.1811510456
 31
0.0
  0
LINE
  5
247
330
1F
100
AcDbEntity
  8
9
  6
CENTERX2
 62
     7
370
    18
100
AcDbLine
 10
222.7887357341
 20
100.2634232621
 30
0.0
 11
222.7887357341
 21
118.9732134613
 31
0.0
  0
LINE
  5
248
330
1F
100
AcDbEntity
  8
0
  6
Continuous
 62
     7
370
    25
100
AcDbLine
 10
217.3887357346
 20
180.5081227514
 30
0.0
 11
217.3887357346
 21
180.5646912939
 31
0.0
  0
LINE
  5
249
330
1F
100
AcDbEntity
  8
0
  6
Continuous
 62
     7
370
    25
100
AcDbLine
 10
228.1887357346
 20
180.5646912939
 30
0.0
 11
228.1887357346
 21
180.5081227514
 31
0.0
  0
LINE
  5
24A
330
1F
100
AcDbEntity
  8
0
  6
Continuous
 62
     7
370
    25
100
AcDbLine
 10
217.3887357346
 20
166.3111083174
 30
0.0
 11
217.3887357346
 21
169.1554733988
 31
0.0
  0
LINE
  5
24B
330
1F
100
AcDbEntity
  8
0
  6
Continuous
 62
     7
370
    25
100
AcDbLine
 10
217.3887357346
 20
169.1554733988
 30
0.0
 11
217.3887357346
 21
180.5081227514
 31
0.0
  0
LINE
  5
24C
330
1F
100
AcDbEntity
  8
0
  6
Continuous
 62
     7
370
    25
100
AcDbLine
 10
228.1887357346
 20
180.5081227514
 30
0.0
 11
228.1887357346
 21
169.1554733988
 31
0.0
  0
LINE
  5
24D
330
1F
100
AcDbEntity
  8
0
  6
Continuous
 62
     7
370
    25
100
AcDbLine
 10
228.1887357346
 20
169.1554733988
 30
0.0
 11
228.1887357346
 21
166.3111083174
 31
0.0
  0
LINE
  5
24E
330
1F
100
AcDbEntity
  8
0
  6
Continuous
 62
     7
370
    25
100
AcDbLine
 10
217.3887357346
 20
180.5646912939
 30
0.0
 11
217.3887357346
 21
181.1261840769
 31
0.0
  0
LINE
  5
24F
330
1F
100
AcDbEntity
  8
0
  6
Continuous
 62
     7
370
    25
100
AcDbLine
 10
228.1887357346
 20
181.1261840769
 30
0.0
 11
228.1887357346
 21
180.5646912939
 31
0.0
  0
LINE
  5
250
330
1F
100
AcDbEntity
  8
0
  6
Continuous
 62
     7
370
    25
100
AcDbLine
 10
217.3887357346
 20
165.1847627217
 30
0.0
 11
217.3887357346
 21
166.1554733988
 31
0.0
  0
LINE
  5
251
330
1F
100
AcDbEntity
  8
0
  6
Continuous
 62
     7
370
    25
100
AcDbLine
 10
228.1887357346
 20
166.1554733988
 30
0.0
 11
228.1887357346
 21
165.1847627217
 31
0.0
  0
LINE
  5
252
330
1F
100
AcDbEntity
  8
0
  6
Continuous
 62
     7
370
    25
100
AcDbLine
 10
228.1887357346
 20
182.6111083174
 30
0.0
 11
228.1887357346
 21
181.1261840769
 31
0.0
  0
LINE
  5
253
330
1F
100
AcDbEntity
  8
0
  6
Continuous
 62
     7
370
    25
100
AcDbLine
 10
217.3887357346
 20
181.1261840769
 30
0.0
 11
217.3887357346
 21
182.6111083174
 31
0.0
  0
ARC
  5
254
330
1F
100
AcDbEntity
  8
0
  6
Continuous
 62
     7
370
    25
100
AcDbCircle
 10
228.1887357346
 20
168.9054733988
 30
0.0
 40
0.25
100
AcDbArc
 50
0.0
 51
90.0
  0
LINE
  5
255
330
1F
100
AcDbEntity
  8
0
  6
Continuous
 62
     7
370
    25
100
AcDbLine
 10
228.4387357346
 20
168.9054733988
 30
0.0
 11
228.4387357346
 21
166.4054733988
 31
0.0
  0
ARC
  5
256
330
1F
100
AcDbEntity
  8
0
  6
Continuous
 62
     7
370
    25
100
AcDbCircle
 10
228.1887357346
 20
166.4054733988
 30
0.0
 40
0.2500000000000284
100
AcDbArc
 50
270.0
 51
0.0
  0
LINE
  5
257
330
1F
100
AcDbEntity
  8
0
  6
Continuous
 62
     7
370
    25
100
AcDbLine
 10
228.1887357346
 20
166.3111083174
 30
0.0
 11
228.1887357346
 21
166.1554733988
 31
0.0
  0
ARC
  5
258
330
1F
100
AcDbEntity
  8
0
  6
Continuous
 62
     7
370
    25
100
AcDbCircle
 10
217.3887357346
 20
166.4054733988
 30
0.0
 40
0.2500000000000284
100
AcDbArc
 50
180.0
 51
270.0
  0
LINE
  5
259
330
1F
100
AcDbEntity
  8
0
  6
Continuous
 62
     7
370
    25
100
AcDbLine
 10
217.1387357346
 20
166.4054733988
 30
0.0
 11
217.1387357346
 21
168.9054733988
 31
0.0
  0
ARC
  5
25A
330
1F
100
AcDbEntity
  8
0
  6
Continuous
 62
     7
370
    25
100
AcDbCircle
 10
217.3887357346
 20
168.9054733988
 30
0.0
 40
0.25
100
AcDbArc
 50
90.0
 51
180.0
  0
LINE
  5
25B
330
1F
100
AcDbEntity
  8
0
  6
Continuous
 62
     7
370
    25
100
AcDbLine
 10
217.3887357346
 20
166.1554733988
 30
0.0
 11
217.3887357346
 21
166.3111083174
 31
0.0
  0
LINE
  5
25C
330
1F
100
AcDbEntity
  8
0
  6
Continuous
 62
     7
370
    25
100
AcDbLine
 10
228.1887357346
 20
198.1554733988
 30
0.0
 11
228.1887357346
 21
194.1554733988
 31
0.0
  0
LINE
  5
25D
330
1F
100
AcDbEntity
  8
0
  6
Continuous
 62
     7
370
    25
100
AcDbLine
 10
228.1887357346
 20
194.1554733988
 30
0.0
 11
228.1887357346
 21
191.1554733988
 31
0.0
  0
ARC
  5
25E
330
1F
100
AcDbEntity
  8
0
  6
Continuous
 62
     7
370
    25
100
AcDbCircle
 10
227.1887357346
 20
198.5554733988
 30
0.0
 40
1.0
100
AcDbArc
 50
270.0
 51
336.4218215218
  0
LINE
  5
25F
330
1F
100
AcDbEntity
  8
0
  6
Continuous
 62
     7
370
    25
100
AcDbLine
 10
228.1052508736
 20
198.1554733988
 30
0.0
 11
228.1887357346
 21
198.1554733988
 31
0.0
  0
LINE
  5
260
330
1F
100
AcDbEntity
  8
0
  6
Continuous
 62
     7
370
    25
100
AcDbLine
 10
228.1887357346
 20
191.1554733988
 30
0.0
 11
228.1887357346
 21
182.6111083174
 31
0.0
  0
LINE
  5
261
330
1F
100
AcDbEntity
  8
0
  6
Continuous
 62
     7
370
    25
100
AcDbLine
 10
217.4722205956
 20
198.1554733988
 30
0.0
 11
228.1052508736
 21
198.1554733988
 31
0.0
  0
LINE
  5
262
330
1F
100
AcDbEntity
  8
0
  6
Continuous
 62
     7
370
    25
100
AcDbLine
 10
227.1887357346
 20
197.5554733988
 30
0.0
 11
218.3887357346
 21
197.5554733988
 31
0.0
  0
ARC
  5
263
330
1F
100
AcDbEntity
  8
0
  6
Continuous
 62
     7
370
    25
100
AcDbCircle
 10
218.3887357346
 20
198.5554733988
 30
0.0
 40
1.0
100
AcDbArc
 50
203.5781784782
 51
270.0
  0
LINE
  5
264
330
1F
100
AcDbEntity
  8
0
  6
Continuous
 62
     7
370
    25
100
AcDbLine
 10
217.3887357346
 20
191.1554733988
 30
0.0
 11
217.3887357346
 21
194.1554733988
 31
0.0
  0
LINE
  5
265
330
1F
100
AcDbEntity
  8
0
  6
Continuous
 62
     7
370
    25
100
AcDbLine
 10
217.3887357346
 20
194.1554733988
 30
0.0
 11
217.3887357346
 21
198.1554733988
 31
0.0
  0
LINE
  5
266
330
1F
100
AcDbEntity
  8
0
  6
Continuous
 62
     7
370
    25
100
AcDbLine
 10
217.3887357346
 20
198.1554733988
 30
0.0
 11
217.4722205956
 21
198.1554733988
 31
0.0
  0
LINE
  5
267
330
1F
100
AcDbEntity
  8
0
  6
Continuous
 62
     7
370
    25
100
AcDbLine
 10
217.3887357346
 20
182.6111083174
 30
0.0
 11
217.3887357346
 21
191.1554733988
 31
0.0
  0
ARC
  5
268
330
1F
100
AcDbEntity
  8
0
  6
Continuous
 62
     7
370
    25
100
AcDbCircle
 10
222.7887357346
 20
189.4554733988
 30
0.0
 40
4.499999999999998
100
AcDbArc
 50
207.2660444507
 51
332.7339555493
  0
LINE
  5
269
330
1F
100
AcDbEntity
  8
0
  6
Continuous
 62
     7
370
    25
100
AcDbLine
 10
226.7887357346
 20
187.393920586
 30
0.0
 11
226.7887357346
 21
195.5554733988
 31
0.0
  0
LINE
  5
26A
330
1F
100
AcDbEntity
  8
0
  6
Continuous
 62
     7
370
    25
100
AcDbLine
 10
218.7887357346
 20
195.5554733988
 30
0.0
 11
226.7887357346
 21
195.5554733988
 31
0.0
  0
LINE
  5
26B
330
1F
100
AcDbEntity
  8
0
  6
Continuous
 62
     7
370
    25
100
AcDbLine
 10
218.7887357346
 20
195.5554733988
 30
0.0
 11
218.7887357346
 21
187.393920586
 31
0.0
  0
LINE
  5
26C
330
1F
100
AcDbEntity
  8
0
  6
Continuous
 62
     7
370
    25
100
AcDbLine
 10
226.7887357346
 20
194.9554733988
 30
0.0
 11
218.7887357346
 21
194.9554733988
 31
0.0
  0
LINE
  5
26D
330
1F
100
AcDbEntity
  8
0
  6
Continuous
 62
     7
370
    25
100
AcDbLine
 10
228.1887357346
 20
165.1847627217
 30
0.0
 11
228.1887357346
 21
163.6998384813
 31
0.0
  0
LINE
  5
26E
330
1F
100
AcDbEntity
  8
0
  6
Continuous
 62
     7
370
    25
100
AcDbLine
 10
217.3887357346
 20
163.6998384813
 30
0.0
 11
217.3887357346
 21
165.1847627217
 31
0.0
  0
LINE
  5
26F
330
1F
100
AcDbEntity
  8
0
  6
Continuous
 62
     7
370
    25
100
AcDbLine
 10
218.3887357346
 20
156.1554733988
 30
0.0
 11
217.3887357346
 21
156.1554733988
 31
0.0
  0
LINE
  5
270
330
1F
100
AcDbEntity
  8
0
  6
Continuous
 62
     7
370
    25
100
AcDbLine
 10
217.3887357346
 20
156.1554733988
 30
0.0
 11
217.3887357346
 21
163.6998384813
 31
0.0
  0
LINE
  5
271
330
1F
100
AcDbEntity
  8
0
  6
Continuous
 62
     7
370
    25
100
AcDbLine
 10
228.1887357346
 20
156.1554733988
 30
0.0
 11
227.1887357346
 21
156.1554733988
 31
0.0
  0
LINE
  5
272
330
1F
100
AcDbEntity
  8
0
  6
Continuous
 62
     7
370
    25
100
AcDbLine
 10
228.1887357346
 20
163.6998384813
 30
0.0
 11
228.1887357346
 21
156.1554733988
 31
0.0
  0
LINE
  5
273
330
1F
100
AcDbEntity
  8
0
  6
Continuous
 62
     7
370
    25
100
AcDbLine
 10
218.3887357346
 20
156.1554733988
 30
0.0
 11
227.1887357346
 21
156.1554733988
 31
0.0
  0
ARC
  5
274
330
1F
100
AcDbEntity
  8
0
  6
Continuous
 62
     7
370
    25
100
AcDbCircle
 10
217.3887357346
 20
191.4054733988
 30
0.0
 40
0.25
100
AcDbArc
 50
180.0
 51
270.0
  0
LINE
  5
275
330
1F
100
AcDbEntity
  8
0
  6
Continuous
 62
     7
370
    25
100
AcDbLine
 10
217.1387357346
 20
191.4054733988
 30
0.0
 11
217.1387357346
 21
193.9054733988
 31
0.0
  0
ARC
  5
276
330
1F
100
AcDbEntity
  8
0
  6
Continuous
 62
     7
370
    25
100
AcDbCircle
 10
217.3887357346
 20
193.9054733988
 30
0.0
 40
0.25
100
AcDbArc
 50
90.0
 51
180.0
  0
LINE
  5
277
330
1F
100
AcDbEntity
  8
0
  6
Continuous
 62
     7
370
    25
100
AcDbLine
 10
228.4387357346
 20
193.9054733988
 30
0.0
 11
228.4387357346
 21
191.4054733988
 31
0.0
  0
ARC
  5
278
330
1F
100
AcDbEntity
  8
0
  6
Continuous
 62
     7
370
    25
100
AcDbCircle
 10
228.1887357346
 20
191.4054733988
 30
0.0
 40
0.25
100
AcDbArc
 50
270.0
 51
0.0
  0
ARC
  5
279
330
1F
100
AcDbEntity
  8
0
  6
Continuous
 62
     7
370
    25
100
AcDbCircle
 10
228.1887357346
 20
193.9054733988
 30
0.0
 40
0.25
100
AcDbArc
 50
0.0
 51
90.0
  0
LINE
  5
27A
330
1F
100
AcDbEntity
  8
0
  6
Continuous
 62
     7
370
    25
100
AcDbLine
 10
230.7887357346
 20
161.9554733988
 30
0.0
 11
228.1887357346
 21
161.9554733988
 31
0.0
  0
LINE
  5
27B
330
1F
100
AcDbEntity
  8
0
  6
Continuous
 62
     7
370
    25
100
AcDbLine
 10
230.5596069498
 20
161.726344614
 30
0.0
 11
230.7887357346
 21
161.9554733988
 31
0.0
  0
LINE
  5
27C
330
1F
100
AcDbEntity
  8
0
  6
Continuous
 62
     7
370
    25
100
AcDbLine
 10
230.7887357346
 20
158.9554733988
 30
0.0
 11
230.7887357346
 21
161.9554733988
 31
0.0
  0
LINE
  5
27D
330
1F
100
AcDbEntity
  8
0
  6
Continuous
 62
     7
370
    25
100
AcDbLine
 10
230.5596069498
 20
159.1846021835
 30
0.0
 11
230.7887357346
 21
158.9554733988
 31
0.0
  0
LINE
  5
27E
330
1F
100
AcDbEntity
  8
0
  6
Continuous
 62
     7
370
    25
100
AcDbLine
 10
215.0178645193
 20
161.726344614
 30
0.0
 11
214.7887357346
 21
161.9554733988
 31
0.0
  0
LINE
  5
27F
330
1F
100
AcDbEntity
  8
0
  6
Continuous
 62
     7
370
    25
100
AcDbLine
 10
217.3887357346
 20
161.9554733988
 30
0.0
 11
214.7887357346
 21
161.9554733988
 31
0.0
  0
LINE
  5
280
330
1F
100
AcDbEntity
  8
0
  6
Continuous
 62
     7
370
    25
100
AcDbLine
 10
215.0178645193
 20
159.1846021835
 30
0.0
 11
214.7887357346
 21
158.9554733988
 31
0.0
  0
LINE
  5
281
330
1F
100
AcDbEntity
  8
0
  6
Continuous
 62
     7
370
    25
100
AcDbLine
 10
214.7887357346
 20
161.9554733988
 30
0.0
 11
214.7887357346
 21
158.9554733988
 31
0.0
  0
LINE
  5
282
330
1F
100
AcDbEntity
  8
0
  6
Continuous
 62
     7
370
    25
100
AcDbLine
 10
228.1887357346
 20
158.9554733988
 30
0.0
 11
230.7887357346
 21
158.9554733988
 31
0.0
  0
LINE
  5
283
330
1F
100
AcDbEntity
  8
0
  6
Continuous
 62
     7
370
    25
100
AcDbLine
 10
214.7887357346
 20
158.9554733988
 30
0.0
 11
217.3887357346
 21
158.9554733988
 31
0.0
  0
LINE
  5
284
330
1F
100
AcDbEntity
  8
0
  6
Continuous
 62
     7
370
    25
100
AcDbLine
 10
231.7887357346
 20
184.7354733976
 30
0.0
 11
231.7887357346
 21
156.1554733988
 31
0.0
  0
LINE
  5
285
330
1F
100
AcDbEntity
  8
0
  6
Continuous
 62
     7
370
    25
100
AcDbLine
 10
231.7887357346
 20
184.7354733976
 30
0.0
 11
230.7887357346
 21
184.7354733976
 31
0.0
  0
LINE
  5
286
330
1F
100
AcDbEntity
  8
0
  6
Continuous
 62
     7
370
    25
100
AcDbLine
 10
231.7887357346
 20
156.1554733988
 30
0.0
 11
230.7887357346
 21
156.1554733988
 31
0.0
  0
LINE
  5
287
330
1F
100
AcDbEntity
  8
0
  6
Continuous
 62
     7
370
    25
100
AcDbLine
 10
230.7887357346
 20
184.7354733976
 30
0.0
 11
228.1887357346
 21
184.7354733976
 31
0.0
  0
LINE
  5
288
330
1F
100
AcDbEntity
  8
0
  6
Continuous
 62
     7
370
    25
100
AcDbLine
 10
213.7887357346
 20
184.7354733976
 30
0.0
 11
213.7887357346
 21
156.1554733988
 31
0.0
  0
LINE
  5
289
330
1F
100
AcDbEntity
  8
0
  6
Continuous
 62
     7
370
    25
100
AcDbLine
 10
214.7887357346
 20
184.7354733976
 30
0.0
 11
213.7887357346
 21
184.7354733976
 31
0.0
  0
LINE
  5
28A
330
1F
100
AcDbEntity
  8
0
  6
Continuous
 62
     7
370
    25
100
AcDbLine
 10
214.7887357346
 20
156.1554733988
 30
0.0
 11
213.7887357346
 21
156.1554733988
 31
0.0
  0
LINE
  5
28B
330
1F
100
AcDbEntity
  8
0
  6
Continuous
 62
     7
370
    25
100
AcDbLine
 10
217.3887357346
 20
184.7354733976
 30
0.0
 11
214.7887357346
 21
184.7354733976
 31
0.0
  0
LINE
  5
28C
330
1F
100
AcDbEntity
  8
0
  6
Continuous
 62
     7
370
    25
100
AcDbLine
 10
230.7887357346
 20
156.1554733988
 30
0.0
 11
228.1887357346
 21
156.1554733988
 31
0.0
  0
LINE
  5
28D
330
1F
100
AcDbEntity
  8
0
  6
Continuous
 62
     7
370
    25
100
AcDbLine
 10
217.3887357346
 20
156.1554733988
 30
0.0
 11
214.7887357346
 21
156.1554733988
 31
0.0
  0
LINE
  5
28E
330
1F
100
AcDbEntity
  8
0
  6
Continuous
 62
     7
370
    25
100
AcDbLine
 10
213.7887357346
 20
189.1554733988
 30
0.0
 11
213.7887357346
 21
198.1554733988
 31
0.0
  0
LINE
  5
28F
330
1F
100
AcDbEntity
  8
0
  6
Continuous
 62
     7
370
    25
100
AcDbLine
 10
214.7887357346
 20
189.2354733988
 30
0.0
 11
214.7887357346
 21
189.1554733988
 31
0.0
  0
LINE
  5
290
330
1F
100
AcDbEntity
  8
0
  6
Continuous
 62
     7
370
    25
100
AcDbLine
 10
213.7887357346
 20
198.1554733988
 30
0.0
 11
214.7887357346
 21
198.1554733988
 31
0.0
  0
LINE
  5
291
330
1F
100
AcDbEntity
  8
0
  6
Continuous
 62
     7
370
    25
100
AcDbLine
 10
230.7887357346
 20
189.2354733988
 30
0.0
 11
228.1887357346
 21
189.2354733988
 31
0.0
  0
LINE
  5
292
330
1F
100
AcDbEntity
  8
0
  6
Continuous
 62
     7
370
    25
100
AcDbLine
 10
230.7887357346
 20
198.1554733988
 30
0.0
 11
228.1887357346
 21
198.1554733988
 31
0.0
  0
LINE
  5
293
330
1F
100
AcDbEntity
  8
0
  6
Continuous
 62
     7
370
    25
100
AcDbLine
 10
231.7887357346
 20
198.1554733988
 30
0.0
 11
231.7887357346
 21
189.1554733988
 31
0.0
  0
LINE
  5
294
330
1F
100
AcDbEntity
  8
0
  6
Continuous
 62
     7
370
    25
100
AcDbLine
 10
230.7887357346
 20
189.1554722767
 30
0.0
 11
230.7887357346
 21
189.2354733988
 31
0.0
  0
LINE
  5
295
330
1F
100
AcDbEntity
  8
0
  6
Continuous
 62
     7
370
    25
100
AcDbLine
 10
230.7887357346
 20
198.1554733988
 30
0.0
 11
231.7887357346
 21
198.1554733988
 31
0.0
  0
LINE
  5
296
330
1F
100
AcDbEntity
  8
0
  6
Continuous
 62
     7
370
    25
100
AcDbLine
 10
217.3887357346
 20
189.2354733988
 30
0.0
 11
214.7887357346
 21
189.2354733988
 31
0.0
  0
LINE
  5
297
330
1F
100
AcDbEntity
  8
0
  6
Continuous
 62
     7
370
    25
100
AcDbLine
 10
217.3887357346
 20
198.1554733988
 30
0.0
 11
214.7887357346
 21
198.1554733988
 31
0.0
  0
LINE
  5
298
330
1F
100
AcDbEntity
  8
0
  6
Continuous
 62
     7
370
    25
100
AcDbLine
 10
212.7887357346
 20
154.1554733921
 30
0.0
 11
212.7887357346
 21
156.1554733988
 31
0.0
  0
LINE
  5
299
330
1F
100
AcDbEntity
  8
0
  6
Continuous
 62
     7
370
    25
100
AcDbLine
 10
214.7887357346
 20
189.1554733988
 30
0.0
 11
214.7887357346
 21
184.7354733976
 31
0.0
  0
LINE
  5
29A
330
1F
100
AcDbEntity
  8
0
  6
Continuous
 62
     7
370
    25
100
AcDbLine
 10
212.7887357346
 20
156.1554733988
 30
0.0
 11
213.7887357346
 21
156.1554733988
 31
0.0
  0
LINE
  5
29B
330
1F
100
AcDbEntity
  8
0
  6
Continuous
 62
     7
370
    25
100
AcDbLine
 10
232.7887357346
 20
156.1554733988
 30
0.0
 11
232.7887357346
 21
154.1554733988
 31
0.0
  0
LINE
  5
29C
330
1F
100
AcDbEntity
  8
0
  6
Continuous
 62
     7
370
    25
100
AcDbLine
 10
230.7887357346
 20
189.1554722767
 30
0.0
 11
230.7887357346
 21
184.7354733976
 31
0.0
  0
LINE
  5
29D
330
1F
100
AcDbEntity
  8
0
  6
Continuous
 62
     7
370
    25
100
AcDbLine
 10
231.7887357346
 20
156.1554733988
 30
0.0
 11
232.7887357346
 21
156.1554733988
 31
0.0
  0
ARC
  5
29E
330
1F
100
AcDbEntity
  8
0
  6
Continuous
 62
     7
370
    25
100
AcDbCircle
 10
237.7887357346
 20
189.1554733988
 30
0.0
 40
6.000000000000028
100
AcDbArc
 50
180.0
 51
270.000000022
  0
ARC
  5
29F
330
1F
100
AcDbEntity
  8
0
  6
Continuous
 62
     7
370
    25
100
AcDbCircle
 10
207.7887357346
 20
189.1554733989
 30
0.0
 40
6.0
100
AcDbArc
 50
270.0
 51
359.999999999
  0
LINE
  5
2A0
330
1F
100
AcDbEntity
  8
0
  6
Continuous
 62
     7
370
    25
100
AcDbLine
 10
237.7887357369
 20
183.1554733988
 30
0.0
 11
243.3887357346
 21
183.1554733988
 31
0.0
  0
ARC
  5
2A1
330
1F
100
AcDbEntity
  8
0
  6
Continuous
 62
     7
370
    25
100
AcDbCircle
 10
202.1887357345
 20
179.405473399
 30
0.0
 40
3.749999999931788
100
AcDbArc
 50
89.999999999
 51
180.0000000154
  0
LINE
  5
2A2
330
1F
100
AcDbEntity
  8
0
  6
Continuous
 62
     7
370
    25
100
AcDbLine
 10
202.1887357346
 20
183.1554733989
 30
0.0
 11
207.7887357346
 21
183.1554733989
 31
0.0
  0
ARC
  5
2A3
330
1F
100
AcDbEntity
  8
0
  6
Continuous
 62
     7
370
    25
100
AcDbCircle
 10
243.3887357346
 20
179.4054733988
 30
0.0
 40
3.750000000000028
100
AcDbArc
 50
359.9999999765
 51
90.0
  0
LINE
  5
2A4
330
1F
100
AcDbEntity
  8
0
  6
Continuous
 62
     7
370
    25
100
AcDbLine
 10
247.1387357346
 20
179.4054733972
 30
0.0
 11
247.1387357346
 21
156.9054733988
 31
0.0
  0
LINE
  5
2A5
330
1F
100
AcDbEntity
  8
0
  6
Continuous
 62
     7
370
    25
100
AcDbLine
 10
198.4387357344
 20
156.9054733988
 30
0.0
 11
198.4387357346
 21
179.405473398
 31
0.0
  0
ARC
  5
2A6
330
1F
100
AcDbEntity
  8
0
  6
Continuous
 62
     7
370
    25
100
AcDbCircle
 10
243.3887357346
 20
156.9054733988
 30
0.0
 40
3.750000000000028
100
AcDbArc
 50
270.000000022
 51
0.0
  0
ARC
  5
2A7
330
1F
100
AcDbEntity
  8
0
  6
Continuous
 62
     7
370
    25
100
AcDbCircle
 10
202.1887357342
 20
156.9054733986
 30
0.0
 40
3.74999999983055
100
AcDbArc
 50
179.9999999974
 51
269.9999999942
  0
LINE
  5
2A8
330
1F
100
AcDbEntity
  8
0
  6
Continuous
 62
     7
370
    25
100
AcDbLine
 10
212.7887357346
 20
153.1554733921
 30
0.0
 11
202.1887357339
 21
153.1554733988
 31
0.0
  0
LINE
  5
2A9
330
1F
100
AcDbEntity
  8
0
  6
Continuous
 62
     7
370
    25
100
AcDbLine
 10
212.7887357346
 20
154.1554733921
 30
0.0
 11
212.7887357346
 21
153.1554733921
 31
0.0
  0
LINE
  5
2AA
330
1F
100
AcDbEntity
  8
0
  6
Continuous
 62
     7
370
    25
100
AcDbLine
 10
243.388735736
 20
153.1554733988
 30
0.0
 11
232.7887357346
 21
153.1554733998
 31
0.0
  0
LINE
  5
2AB
330
1F
100
AcDbEntity
  8
0
  6
Continuous
 62
     7
370
    25
100
AcDbLine
 10
232.7887357346
 20
153.1554733998
 30
0.0
 11
232.7887357346
 21
154.1554733988
 31
0.0
  0
ARC
  5
2AC
330
1F
100
AcDbEntity
  8
0
  6
Continuous
 62
     7
370
    25
100
AcDbCircle
 10
236.7887357346
 20
175.1554733988
 30
0.0
 40
2.099999999999994
100
AcDbArc
 50
90.0
 51
270.0
  0
ARC
  5
2AD
330
1F
100
AcDbEntity
  8
0
  6
Continuous
 62
     7
370
    25
100
AcDbCircle
 10
208.7887357346
 20
175.1554733988
 30
0.0
 40
2.099999999999994
100
AcDbArc
 50
270.0
 51
90.0
  0
LINE
  5
2AE
330
1F
100
AcDbEntity
  8
0
  6
Continuous
 62
     7
370
    25
100
AcDbLine
 10
204.7887357346
 20
177.2554733985
 30
0.0
 11
208.7887357346
 21
177.2554733988
 31
0.0
  0
LINE
  5
2AF
330
1F
100
AcDbEntity
  8
0
  6
Continuous
 62
     7
370
    25
100
AcDbLine
 10
236.7887357346
 20
177.2554733988
 30
0.0
 11
240.7887357346
 21
177.2554733988
 31
0.0
  0
ARC
  5
2B0
330
1F
100
AcDbEntity
  8
0
  6
Continuous
 62
     7
370
    25
100
AcDbCircle
 10
204.7887357346
 20
175.1554733988
 30
0.0
 40
2.099999999999994
100
AcDbArc
 50
90.0
 51
270.0
  0
ARC
  5
2B1
330
1F
100
AcDbEntity
  8
0
  6
Continuous
 62
     7
370
    25
100
AcDbCircle
 10
240.7887357346
 20
175.1554733988
 30
0.0
 40
2.099999999999994
100
AcDbArc
 50
270.0
 51
90.0
  0
LINE
  5
2B2
330
1F
100
AcDbEntity
  8
0
  6
Continuous
 62
     7
370
    25
100
AcDbLine
 10
208.7887357346
 20
173.0554733988
 30
0.0
 11
204.7887357346
 21
173.0554733988
 31
0.0
  0
LINE
  5
2B3
330
1F
100
AcDbEntity
  8
0
  6
Continuous
 62
     7
370
    25
100
AcDbLine
 10
240.7887357346
 20
173.055473399
 30
0.0
 11
236.7887357346
 21
173.0554733988
 31
0.0
  0
CIRCLE
  5
2B4
330
1F
100
AcDbEntity
  8
0
  6
Continuous
 62
     7
370
    25
100
AcDbCircle
 10
206.7887357346
 20
161.1554733988
 30
0.0
 40
2.099999999999966
  0
CIRCLE
  5
2B5
330
1F
100
AcDbEntity
  8
0
  6
Continuous
 62
     7
370
    25
100
AcDbCircle
 10
238.7887357346
 20
161.1554733988
 30
0.0
 40
2.099999999999994
  0
ARC
  5
2B6
330
1F
100
AcDbEntity
  8
0
  6
Continuous
 62
     7
370
    25
100
AcDbCircle
 10
237.7887357346
 20
189.1554733988
 30
0.0
 40
7.100000000000005
100
AcDbArc
 50
180.0
 51
189.6276326827
  0
LINE
  5
2B7
330
1F
100
AcDbEntity
  8
0
  6
Continuous
 62
     7
370
    25
100
AcDbLine
 10
230.6887357309
 20
189.1554733988
 30
0.0
 11
230.6887357273
 21
189.2354733988
 31
0.0
  0
ARC
  5
2B8
330
1F
100
AcDbEntity
  8
0
  6
Continuous
 62
     7
370
    25
100
AcDbCircle
 10
207.7887357346
 20
189.1554733988
 30
0.0
 40
7.100000000000005
100
AcDbArc
 50
350.3723673173
 51
359.9999999882
  0
LINE
  5
2B9
330
1F
100
AcDbEntity
  8
0
  6
Continuous
 62
     7
370
    25
100
AcDbLine
 10
214.8887357419
 20
189.2354733988
 30
0.0
 11
214.8887357346
 21
189.1554733973
 31
0.0
  0
LINE
  5
2BA
330
1F
100
AcDbEntity
  8
0
  6
Continuous
 62
     7
370
    25
100
AcDbLine
 10
232.8887357362
 20
189.2554734008
 30
0.0
 11
232.8887357362
 21
198.1554733988
 31
0.0
  0
ARC
  5
2BB
330
1F
100
AcDbEntity
  8
0
  6
Continuous
 62
     7
370
    25
100
AcDbCircle
 10
237.8877159401
 20
189.1544935956
 30
0.0
 40
5.0
100
AcDbArc
 50
178.8427779936
 51
268.8656963107
  0
LINE
  5
2BC
330
1F
100
AcDbEntity
  8
0
  6
Continuous
 62
     7
370
    25
100
AcDbLine
 10
243.3887357346
 20
184.1554734008
 30
0.0
 11
237.7887357355
 21
184.1554734008
 31
0.0
  0
ARC
  5
2BD
330
1F
100
AcDbEntity
  8
0
  6
Continuous
 62
     7
370
    25
100
AcDbCircle
 10
243.3887357346
 20
179.1554733988
 30
0.0
 40
5.000000002000036
100
AcDbArc
 50
359.9999999882
 51
90.0
  0
LINE
  5
2BE
330
1F
100
AcDbEntity
  8
0
  6
Continuous
 62
     7
370
    25
100
AcDbLine
 10
248.3887357346
 20
157.1554733988
 30
0.0
 11
248.3887357346
 21
179.1554733977
 31
0.0
  0
ARC
  5
2BF
330
1F
100
AcDbEntity
  8
0
  6
Continuous
 62
     7
370
    25
100
AcDbCircle
 10
243.3887357346
 20
157.1554733988
 30
0.0
 40
5.000000000000028
100
AcDbArc
 50
270.000000011
 51
0.0
  0
LINE
  5
2C0
330
1F
100
AcDbEntity
  8
0
  6
Continuous
 62
     7
370
    25
100
AcDbLine
 10
232.7887357346
 20
152.1554733988
 30
0.0
 11
243.3887357355
 21
152.1554733988
 31
0.0
  0
LINE
  5
2C1
330
1F
100
AcDbEntity
  8
0
  6
Continuous
 62
     7
370
    25
100
AcDbLine
 10
232.7887357346
 20
152.1554733988
 30
0.0
 11
232.7887357346
 21
153.1554733921
 31
0.0
  0
LINE
  5
2C2
330
1F
100
AcDbEntity
  8
0
  6
Continuous
 62
     7
370
    25
100
AcDbLine
 10
232.8887357362
 20
198.1554733988
 30
0.0
 11
231.7887357346
 21
198.1554733988
 31
0.0
  0
ARC
  5
2C3
330
1F
100
AcDbEntity
  8
0
  6
Continuous
 62
     7
370
    25
100
AcDbCircle
 10
202.1887357346
 20
157.1554733988
 30
0.0
 40
5.000000000000028
100
AcDbArc
 50
180.0000000051
 51
270.0
  0
LINE
  5
2C4
330
1F
100
AcDbEntity
  8
0
  6
Continuous
 62
     7
370
    25
100
AcDbLine
 10
197.1887357346
 20
179.1554733988
 30
0.0
 11
197.1887357346
 21
157.1554733983
 31
0.0
  0
ARC
  5
2C5
330
1F
100
AcDbEntity
  8
0
  6
Continuous
 62
     7
370
    25
100
AcDbCircle
 10
202.1887357346
 20
179.1554733988
 30
0.0
 40
5.000000002000036
100
AcDbArc
 50
89.9999999941
 51
180.0
  0
LINE
  5
2C6
330
1F
100
AcDbEntity
  8
0
  6
Continuous
 62
     7
370
    25
100
AcDbLine
 10
207.7887357346
 20
184.1554734008
 30
0.0
 11
202.1887357351
 21
184.1554734008
 31
0.0
  0
ARC
  5
2C7
330
1F
100
AcDbEntity
  8
0
  6
Continuous
 62
     7
370
    25
100
AcDbCircle
 10
207.688735733
 20
189.1544733007
 30
0.0
 40
4.999999999999972
100
AcDbArc
 50
271.1459920167
 51
0.0
  0
LINE
  5
2C8
330
1F
100
AcDbEntity
  8
0
  6
Continuous
 62
     7
370
    25
100
AcDbLine
 10
212.688735733
 20
198.1554733988
 30
0.0
 11
212.688735733
 21
189.1544733007
 31
0.0
  0
LINE
  5
2C9
330
1F
100
AcDbEntity
  8
0
  6
Continuous
 62
     7
370
    25
100
AcDbLine
 10
202.1887357346
 20
152.1554733988
 30
0.0
 11
212.7887357346
 21
152.1554733988
 31
0.0
  0
LINE
  5
2CA
330
1F
100
AcDbEntity
  8
0
  6
Continuous
 62
     7
370
    25
100
AcDbLine
 10
212.7887357346
 20
153.1554733921
 30
0.0
 11
212.7887357346
 21
152.1554733988
 31
0.0
  0
LINE
  5
2CB
330
1F
100
AcDbEntity
  8
0
  6
Continuous
 62
     7
370
    25
100
AcDbLine
 10
213.7887357346
 20
198.1554733988
 30
0.0
 11
212.688735733
 21
198.1554733988
 31
0.0
  0
LINE
  5
2CC
330
1F
100
AcDbEntity
  8
0
  6
PHANTOM
 62
     7
370
    18
100
AcDbLine
 10
218.3887357346
 20
181.2717980751
 30
0.0
 11
218.3887357346
 21
180.5081227514
 31
0.0
  0
LINE
  5
2CD
330
1F
100
AcDbEntity
  8
0
  6
PHANTOM
 62
     7
370
    18
100
AcDbLine
 10
218.3887357346
 20
180.5081227514
 30
0.0
 11
217.3887357346
 21
180.5081227514
 31
0.0
  0
ARC
  5
2CE
330
1F
100
AcDbEntity
  8
0
  6
PHANTOM
 62
     7
370
    18
100
AcDbCircle
 10
218.2637357346
 20
180.3879145986
 30
0.0
 40
0.892678553567815
100
AcDbArc
 50
81.9505330245
 51
168.578246341
  0
LINE
  5
2CF
330
1F
100
AcDbEntity
  8
0
  6
PHANTOM
 62
     7
370
    18
100
AcDbLine
 10
218.3887357346
 20
181.2717980751
 30
0.0
 11
227.1887357346
 21
181.2717980751
 31
0.0
  0
LINE
  5
2D0
330
1F
100
AcDbEntity
  8
0
  6
PHANTOM
 62
     7
370
    18
100
AcDbLine
 10
227.1887357346
 20
180.5081227514
 30
0.0
 11
227.1887357346
 21
181.2717980751
 31
0.0
  0
LINE
  5
2D1
330
1F
100
AcDbEntity
  8
0
  6
PHANTOM
 62
     7
370
    18
100
AcDbLine
 10
218.3887357346
 20
180.5081227514
 30
0.0
 11
227.1887357346
 21
180.5081227514
 31
0.0
  0
LINE
  5
2D2
330
1F
100
AcDbEntity
  8
0
  6
PHANTOM
 62
     7
370
    18
100
AcDbLine
 10
228.1887357346
 20
180.5081227514
 30
0.0
 11
227.1887357346
 21
180.5081227514
 31
0.0
  0
ARC
  5
2D3
330
1F
100
AcDbEntity
  8
0
  6
PHANTOM
 62
     7
370
    18
100
AcDbCircle
 10
227.3137357346
 20
180.3879145986
 30
0.0
 40
0.892678553567815
100
AcDbArc
 50
11.421753659
 51
98.0494669755
  0
LINE
  5
2D4
330
1F
100
AcDbEntity
  8
0
  6
PHANTOM
 62
     7
370
    18
100
AcDbLine
 10
218.3887357346
 20
180.5081227514
 30
0.0
 11
218.3887357346
 21
166.3111083174
 31
0.0
  0
LINE
  5
2D5
330
1F
100
AcDbEntity
  8
0
  6
PHANTOM
 62
     7
370
    18
100
AcDbLine
 10
218.3887357346
 20
166.3111083174
 30
0.0
 11
217.3887357346
 21
166.3111083174
 31
0.0
  0
LINE
  5
2D6
330
1F
100
AcDbEntity
  8
0
  6
PHANTOM
 62
     7
370
    18
100
AcDbLine
 10
227.1887357346
 20
166.3111083174
 30
0.0
 11
227.1887357346
 21
180.5081227514
 31
0.0
  0
LINE
  5
2D7
330
1F
100
AcDbEntity
  8
0
  6
PHANTOM
 62
     7
370
    18
100
AcDbLine
 10
218.3887357346
 20
166.3111083174
 30
0.0
 11
227.1887357346
 21
166.3111083174
 31
0.0
  0
LINE
  5
2D8
330
1F
100
AcDbEntity
  8
0
  6
PHANTOM
 62
     7
370
    18
100
AcDbLine
 10
228.1887357346
 20
166.3111083174
 30
0.0
 11
227.1887357346
 21
166.3111083174
 31
0.0
  0
LINE
  5
2D9
330
1F
100
AcDbEntity
  8
0
  6
PHANTOM
 62
     7
370
    18
100
AcDbLine
 10
218.3887357346
 20
166.3111083174
 30
0.0
 11
218.3887357346
 21
165.5332908581
 31
0.0
  0
ARC
  5
2DA
330
1F
100
AcDbEntity
  8
0
  6
PHANTOM
 62
     7
370
    18
100
AcDbCircle
 10
218.2637357346
 20
166.4171743346
 30
0.0
 40
0.89267855356789
100
AcDbArc
 50
191.421753659
 51
278.0494669755
  0
LINE
  5
2DB
330
1F
100
AcDbEntity
  8
0
  6
PHANTOM
 62
     7
370
    18
100
AcDbLine
 10
227.1887357346
 20
165.5332908581
 30
0.0
 11
227.1887357346
 21
166.3111083174
 31
0.0
  0
LINE
  5
2DC
330
1F
100
AcDbEntity
  8
0
  6
PHANTOM
 62
     7
370
    18
100
AcDbLine
 10
218.3887357346
 20
165.5332908581
 30
0.0
 11
227.1887357346
 21
165.5332908581
 31
0.0
  0
ARC
  5
2DD
330
1F
100
AcDbEntity
  8
0
  6
PHANTOM
 62
     7
370
    18
100
AcDbCircle
 10
227.3137357346
 20
166.4171743346
 30
0.0
 40
0.8926785535679179
100
AcDbArc
 50
261.9505330245
 51
348.578246341
  0
LINE
  5
2DE
330
1F
100
AcDbEntity
  8
0
  6
PHANTOM
 62
     7
370
    18
100
AcDbLine
 10
218.3887357346
 20
181.8332908581
 30
0.0
 11
218.3887357346
 21
181.2717980751
 31
0.0
  0
ARC
  5
2DF
330
1F
100
AcDbEntity
  8
0
  6
PHANTOM
 62
     7
370
    18
100
AcDbCircle
 10
218.2637357346
 20
180.9494073816
 30
0.0
 40
0.8926785535678431
100
AcDbArc
 50
81.9505330245
 51
168.578246341
  0
LINE
  5
2E0
330
1F
100
AcDbEntity
  8
0
  6
PHANTOM
 62
     7
370
    18
100
AcDbLine
 10
227.1887357346
 20
181.2717980751
 30
0.0
 11
227.1887357346
 21
181.8332908581
 31
0.0
  0
ARC
  5
2E1
330
1F
100
AcDbEntity
  8
0
  6
PHANTOM
 62
     7
370
    18
100
AcDbCircle
 10
227.3137357346
 20
180.9494073816
 30
0.0
 40
0.8926785535678565
100
AcDbArc
 50
11.421753659
 51
98.0494669755
  0
LINE
  5
2E2
330
1F
100
AcDbEntity
  8
0
  6
PHANTOM
 62
     7
370
    18
100
AcDbLine
 10
218.3887357346
 20
181.8332908581
 30
0.0
 11
227.1887357346
 21
181.8332908581
 31
0.0
  0
LINE
  5
2E3
330
1F
100
AcDbEntity
  8
0
  6
PHANTOM
 62
     7
370
    18
100
AcDbLine
 10
218.3887357346
 20
165.5332908581
 30
0.0
 11
218.3887357346
 21
164.4776559406
 31
0.0
  0
ARC
  5
2E4
330
1F
100
AcDbEntity
  8
0
  6
PHANTOM
 62
     7
370
    18
100
AcDbCircle
 10
218.2637357346
 20
165.361539417
 30
0.0
 40
0.8926785535678915
100
AcDbArc
 50
191.421753659
 51
278.0494669755
  0
ARC
  5
2E5
330
1F
100
AcDbEntity
  8
0
  6
PHANTOM
 62
     7
370
    18
100
AcDbCircle
 10
227.3137357346
 20
165.361539417
 30
0.0
 40
0.8926785535678915
100
AcDbArc
 50
261.9505330245
 51
348.578246341
  0
LINE
  5
2E6
330
1F
100
AcDbEntity
  8
0
  6
PHANTOM
 62
     7
370
    18
100
AcDbLine
 10
227.1887357346
 20
164.4776559406
 30
0.0
 11
227.1887357346
 21
165.5332908581
 31
0.0
  0
LINE
  5
2E7
330
1F
100
AcDbEntity
  8
0
  6
PHANTOM
 62
     7
370
    18
100
AcDbLine
 10
218.3887357346
 20
164.4776559406
 30
0.0
 11
227.1887357346
 21
164.4776559406
 31
0.0
  0
LINE
  5
2E8
330
1F
100
AcDbEntity
  8
0
  6
PHANTOM
 62
     7
370
    18
100
AcDbLine
 10
227.1887357346
 20
181.8332908581
 30
0.0
 11
227.1887357346
 21
182.6111083174
 31
0.0
  0
LINE
  5
2E9
330
1F
100
AcDbEntity
  8
0
  6
PHANTOM
 62
     7
370
    18
100
AcDbLine
 10
228.1887357346
 20
182.6111083174
 30
0.0
 11
227.1887357346
 21
182.6111083174
 31
0.0
  0
LINE
  5
2EA
330
1F
100
AcDbEntity
  8
0
  6
PHANTOM
 62
     7
370
    18
100
AcDbLine
 10
218.3887357346
 20
182.6111083174
 30
0.0
 11
218.3887357346
 21
181.8332908581
 31
0.0
  0
LINE
  5
2EB
330
1F
100
AcDbEntity
  8
0
  6
PHANTOM
 62
     7
370
    18
100
AcDbLine
 10
218.3887357346
 20
182.6111083174
 30
0.0
 11
227.1887357346
 21
182.6111083174
 31
0.0
  0
LINE
  5
2EC
330
1F
100
AcDbEntity
  8
0
  6
PHANTOM
 62
     7
370
    18
100
AcDbLine
 10
218.3887357346
 20
182.6111083174
 30
0.0
 11
217.3887357346
 21
182.6111083174
 31
0.0
  0
LINE
  5
2ED
330
1F
100
AcDbEntity
  8
0
  6
PHANTOM
 62
     7
370
    18
100
AcDbLine
 10
227.1887357346
 20
182.6111083174
 30
0.0
 11
227.1887357346
 21
197.5554733988
 31
0.0
  0
LINE
  5
2EE
330
1F
100
AcDbEntity
  8
0
  6
PHANTOM
 62
     7
370
    18
100
AcDbLine
 10
218.3887357346
 20
197.5554733988
 30
0.0
 11
218.3887357346
 21
182.6111083174
 31
0.0
  0
LINE
  5
2EF
330
1F
100
AcDbEntity
  8
0
  6
PHANTOM
 62
     7
370
    18
100
AcDbLine
 10
228.1887357346
 20
163.6998384813
 30
0.0
 11
227.1887357346
 21
163.6998384813
 31
0.0
  0
LINE
  5
2F0
330
1F
100
AcDbEntity
  8
0
  6
PHANTOM
 62
     7
370
    18
100
AcDbLine
 10
227.1887357346
 20
163.6998384813
 30
0.0
 11
227.1887357346
 21
164.4776559406
 31
0.0
  0
LINE
  5
2F1
330
1F
100
AcDbEntity
  8
0
  6
PHANTOM
 62
     7
370
    18
100
AcDbLine
 10
218.3887357346
 20
164.4776559406
 30
0.0
 11
218.3887357346
 21
163.6998384813
 31
0.0
  0
LINE
  5
2F2
330
1F
100
AcDbEntity
  8
0
  6
PHANTOM
 62
     7
370
    18
100
AcDbLine
 10
218.3887357346
 20
163.6998384813
 30
0.0
 11
217.3887357346
 21
163.6998384813
 31
0.0
  0
LINE
  5
2F3
330
1F
100
AcDbEntity
  8
0
  6
PHANTOM
 62
     7
370
    18
100
AcDbLine
 10
218.3887357346
 20
163.6998384813
 30
0.0
 11
227.1887357346
 21
163.6998384813
 31
0.0
  0
LINE
  5
2F4
330
1F
100
AcDbEntity
  8
0
  6
PHANTOM
 62
     7
370
    18
100
AcDbLine
 10
218.3887357346
 20
163.6998384813
 30
0.0
 11
218.3887357346
 21
156.1554733988
 31
0.0
  0
LINE
  5
2F5
330
1F
100
AcDbEntity
  8
0
  6
PHANTOM
 62
     7
370
    18
100
AcDbLine
 10
227.1887357346
 20
156.1554733988
 30
0.0
 11
227.1887357346
 21
163.6998384813
 31
0.0
  0
LINE
  5
2F6
330
1F
100
AcDbEntity
  8
0
  6
PHANTOM
 62
     7
370
    18
100
AcDbLine
 10
230.5596069498
 20
161.726344614
 30
0.0
 11
228.1887357346
 21
161.726344614
 31
0.0
  0
LINE
  5
2F7
330
1F
100
AcDbEntity
  8
0
  6
PHANTOM
 62
     7
370
    18
100
AcDbLine
 10
230.5596069498
 20
159.1846021835
 30
0.0
 11
230.5596069498
 21
161.726344614
 31
0.0
  0
LINE
  5
2F8
330
1F
100
AcDbEntity
  8
0
  6
PHANTOM
 62
     7
370
    18
100
AcDbLine
 10
228.1887357346
 20
159.1846021835
 30
0.0
 11
230.5596069498
 21
159.1846021835
 31
0.0
  0
LINE
  5
2F9
330
1F
100
AcDbEntity
  8
0
  6
PHANTOM
 62
     7
370
    18
100
AcDbLine
 10
217.3887357346
 20
161.726344614
 30
0.0
 11
215.0178645193
 21
161.726344614
 31
0.0
  0
LINE
  5
2FA
330
1F
100
AcDbEntity
  8
0
  6
PHANTOM
 62
     7
370
    18
100
AcDbLine
 10
215.0178645193
 20
161.726344614
 30
0.0
 11
215.0178645193
 21
159.1846021835
 31
0.0
  0
LINE
  5
2FB
330
1F
100
AcDbEntity
  8
0
  6
PHANTOM
 62
     7
370
    18
100
AcDbLine
 10
215.0178645193
 20
159.1846021835
 30
0.0
 11
217.3887357346
 21
159.1846021835
 31
0.0
  0
LINE
  5
2FC
330
1F
100
AcDbEntity
  8
0
  6
PHANTOM
 62
     7
370
    18
100
AcDbLine
 10
230.7887357346
 20
158.9554733988
 30
0.0
 11
230.7887357346
 21
156.1554733988
 31
0.0
  0
LINE
  5
2FD
330
1F
100
AcDbEntity
  8
0
  6
PHANTOM
 62
     7
370
    18
100
AcDbLine
 10
230.7887357346
 20
184.7354733976
 30
0.0
 11
230.7887357346
 21
161.9554733988
 31
0.0
  0
LINE
  5
2FE
330
1F
100
AcDbEntity
  8
0
  6
PHANTOM
 62
     7
370
    18
100
AcDbLine
 10
214.7887357346
 20
184.7354733976
 30
0.0
 11
214.7887357346
 21
161.9554733988
 31
0.0
  0
LINE
  5
2FF
330
1F
100
AcDbEntity
  8
0
  6
PHANTOM
 62
     7
370
    18
100
AcDbLine
 10
214.7887357346
 20
158.9554733988
 30
0.0
 11
214.7887357346
 21
156.1554733988
 31
0.0
  0
LINE
  5
300
330
1F
100
AcDbEntity
  8
0
  6
PHANTOM
 62
     7
370
    18
100
AcDbLine
 10
214.7887357346
 20
198.1554733988
 30
0.0
 11
214.7887357346
 21
189.2354733988
 31
0.0
  0
LINE
  5
301
330
1F
100
AcDbEntity
  8
0
  6
PHANTOM
 62
     7
370
    18
100
AcDbLine
 10
213.7887357346
 20
189.1554733988
 30
0.0
 11
214.7887357346
 21
189.1554733988
 31
0.0
  0
LINE
  5
302
330
1F
100
AcDbEntity
  8
0
  6
PHANTOM
 62
     7
370
    18
100
AcDbLine
 10
230.7887357346
 20
189.2354733988
 30
0.0
 11
230.7887357346
 21
198.1554733988
 31
0.0
  0
LWPOLYLINE
  5
303
330
1F
100
AcDbEntity
  8
0
  6
PHANTOM
 62
     7
370
    18
100
AcDbPolyline
 90
        9
 70
   128
 43
0.0
 10
231.7887357346
 20
189.1554733988
 10
231.769521015
 20
189.1554733988
 10
231.7126152671
 20
189.1554733988
 10
231.6202053469
 20
189.1554733988
 10
231.4958425158
 20
189.1554733988
 10
231.3443059676
 20
189.1554733988
 10
231.1714191669
 20
189.1554733988
 10
230.9838260566
 20
189.1554733988
 10
230.7887357346
 20
189.1554722767
  0
LINE
  5
304
330
1F
100
AcDbEntity
  8
0
  6
PHANTOM
 62
     7
370
    18
100
AcDbLine
 10
202.1887357345
 20
154.1554733988
 30
0.0
 11
212.7887357346
 21
154.1554733921
 31
0.0
  0
ARC
  5
305
330
1F
100
AcDbEntity
  8
0
  6
PHANTOM
 62
     7
370
    18
100
AcDbCircle
 10
202.1887357342
 20
156.9054733986
 30
0.0
 40
2.74999999983055
100
AcDbArc
 50
179.9999999974
 51
270.0000000051
  0
LINE
  5
306
330
1F
100
AcDbEntity
  8
0
  6
PHANTOM
 62
     7
370
    18
100
AcDbLine
 10
199.4387357346
 20
179.405473398
 30
0.0
 11
199.4387357344
 21
156.9054733987
 31
0.0
  0
ARC
  5
307
330
1F
100
AcDbEntity
  8
0
  6
PHANTOM
 62
     7
370
    18
100
AcDbCircle
 10
202.1887357345
 20
179.405473399
 30
0.0
 40
2.749999999931788
100
AcDbArc
 50
89.999999999
 51
180.0000000211
  0
LINE
  5
308
330
1F
100
AcDbEntity
  8
0
  6
PHANTOM
 62
     7
370
    18
100
AcDbLine
 10
207.7887357346
 20
182.1554733989
 30
0.0
 11
202.1887357346
 21
182.1554733989
 31
0.0
  0
ARC
  5
309
330
1F
100
AcDbEntity
  8
0
  6
PHANTOM
 62
     7
370
    18
100
AcDbCircle
 10
207.7887357346
 20
189.1554733989
 30
0.0
 40
7.0
100
AcDbArc
 50
269.9999999999
 51
359.9999999992
  0
CIRCLE
  5
30A
330
1F
100
AcDbEntity
  8
0
  6
PHANTOM
 62
     7
370
    18
100
AcDbCircle
 10
206.7887357346
 20
161.1554733988
 30
0.0
 40
4.403943236516938
  0
LINE
  5
30B
330
1F
100
AcDbEntity
  8
0
  6
PHANTOM
 62
     7
370
    18
100
AcDbLine
 10
204.7887357346
 20
179.5594166353
 30
0.0
 11
208.7887357346
 21
179.5594166353
 31
0.0
  0
ARC
  5
30C
330
1F
100
AcDbEntity
  8
0
  6
PHANTOM
 62
     7
370
    18
100
AcDbCircle
 10
204.7887357346
 20
175.1554733988
 30
0.0
 40
4.403943236516938
100
AcDbArc
 50
90.0
 51
270.0
  0
LINE
  5
30D
330
1F
100
AcDbEntity
  8
0
  6
PHANTOM
 62
     7
370
    18
100
AcDbLine
 10
208.7887357346
 20
170.7515301622
 30
0.0
 11
204.7887357346
 21
170.7515301622
 31
0.0
  0
ARC
  5
30E
330
1F
100
AcDbEntity
  8
0
  6
PHANTOM
 62
     7
370
    18
100
AcDbCircle
 10
208.7887357346
 20
175.1554733988
 30
0.0
 40
4.403943236516938
100
AcDbArc
 50
270.0
 51
90.0
  0
CIRCLE
  5
30F
330
1F
100
AcDbEntity
  8
0
  6
PHANTOM
 62
     7
370
    18
100
AcDbCircle
 10
238.7887357346
 20
161.1554733988
 30
0.0
 40
4.403943236516938
  0
LINE
  5
310
330
1F
100
AcDbEntity
  8
0
  6
PHANTOM
 62
     7
370
    18
100
AcDbLine
 10
236.7887357346
 20
179.5594166353
 30
0.0
 11
240.7887357346
 21
179.5594166353
 31
0.0
  0
ARC
  5
311
330
1F
100
AcDbEntity
  8
0
  6
PHANTOM
 62
     7
370
    18
100
AcDbCircle
 10
236.7887357346
 20
175.1554733988
 30
0.0
 40
4.403943236516938
100
AcDbArc
 50
90.0
 51
270.0
  0
LINE
  5
312
330
1F
100
AcDbEntity
  8
0
  6
PHANTOM
 62
     7
370
    18
100
AcDbLine
 10
240.7887357346
 20
170.7515301622
 30
0.0
 11
236.7887357346
 21
170.7515301622
 31
0.0
  0
ARC
  5
313
330
1F
100
AcDbEntity
  8
0
  6
PHANTOM
 62
     7
370
    18
100
AcDbCircle
 10
240.7887357346
 20
175.1554733988
 30
0.0
 40
4.403943236516938
100
AcDbArc
 50
270.0
 51
90.0
  0
ARC
  5
314
330
1F
100
AcDbEntity
  8
0
  6
PHANTOM
 62
     7
370
    18
100
AcDbCircle
 10
237.7887357346
 20
189.1554733988
 30
0.0
 40
7.00000000000009
100
AcDbArc
 50
180.0000091844
 51
270.000000022
  0
LINE
  5
315
330
1F
100
AcDbEntity
  8
0
  6
PHANTOM
 62
     7
370
    18
100
AcDbLine
 10
243.3887357346
 20
182.1554733988
 30
0.0
 11
237.7887357373
 21
182.1554733988
 31
0.0
  0
ARC
  5
316
330
1F
100
AcDbEntity
  8
0
  6
PHANTOM
 62
     7
370
    18
100
AcDbCircle
 10
243.3887357346
 20
179.4054733988
 30
0.0
 40
2.750000000000028
100
AcDbArc
 50
359.999999968
 51
90.0
  0
LINE
  5
317
330
1F
100
AcDbEntity
  8
0
  6
PHANTOM
 62
     7
370
    18
100
AcDbLine
 10
246.1387357346
 20
156.9054733988
 30
0.0
 11
246.1387357346
 21
179.4054733972
 31
0.0
  0
ARC
  5
318
330
1F
100
AcDbEntity
  8
0
  6
PHANTOM
 62
     7
370
    18
100
AcDbCircle
 10
243.3887357346
 20
156.9054733988
 30
0.0
 40
2.750000000000028
100
AcDbArc
 50
270.0000000301
 51
0.0
  0
LINE
  5
319
330
1F
100
AcDbEntity
  8
0
  6
PHANTOM
 62
     7
370
    18
100
AcDbLine
 10
232.7887357346
 20
154.1554733988
 30
0.0
 11
243.388735736
 21
154.1554733988
 31
0.0
  0
LINE
  5
31A
330
1F
100
AcDbEntity
  8
0
  6
PHANTOM
 62
     7
370
    18
100
AcDbLine
 10
237.7887357369
 20
183.1554733988
 30
0.0
 11
237.7887357373
 21
182.1554733988
 31
0.0
  0
LINE
  5
31B
330
1F
100
AcDbEntity
  8
0
  6
PHANTOM
 62
     7
370
    18
100
AcDbLine
 10
207.7887357346
 20
183.1554733989
 30
0.0
 11
207.7887357346
 21
182.1554733989
 31
0.0
  0
LINE
  5
31C
330
1F
100
AcDbEntity
  8
0
  6
PHANTOM
 62
     7
370
    18
100
AcDbLine
 10
243.3887357346
 20
183.1554733988
 30
0.0
 11
243.3887357346
 21
182.1554733988
 31
0.0
  0
LINE
  5
31D
330
1F
100
AcDbEntity
  8
0
  6
PHANTOM
 62
     7
370
    18
100
AcDbLine
 10
202.1887357346
 20
183.1554733989
 30
0.0
 11
202.1887357346
 21
182.1554733989
 31
0.0
  0
LINE
  5
31E
330
1F
100
AcDbEntity
  8
0
  6
PHANTOM
 62
     7
370
    18
100
AcDbLine
 10
198.4387357346
 20
179.405473398
 30
0.0
 11
199.4387357346
 21
179.405473398
 31
0.0
  0
LINE
  5
31F
330
1F
100
AcDbEntity
  8
0
  6
PHANTOM
 62
     7
370
    18
100
AcDbLine
 10
247.1387357346
 20
179.4054733972
 30
0.0
 11
246.1387357346
 21
179.4054733972
 31
0.0
  0
LINE
  5
320
330
1F
100
AcDbEntity
  8
0
  6
PHANTOM
 62
     7
370
    18
100
AcDbLine
 10
208.7887357346
 20
170.7515301622
 30
0.0
 11
208.7887357346
 21
171.5995782584
 31
0.0
  0
ARC
  5
321
330
1F
100
AcDbEntity
  8
0
  6
PHANTOM
 62
     7
370
    18
100
AcDbCircle
 10
208.7887357346
 20
175.1554733988
 30
0.0
 40
3.555895140360519
100
AcDbArc
 50
270.0
 51
90.0
  0
LINE
  5
322
330
1F
100
AcDbEntity
  8
0
  6
PHANTOM
 62
     7
370
    18
100
AcDbLine
 10
208.7887357346
 20
179.5594166353
 30
0.0
 11
208.7887357346
 21
178.7113685391
 31
0.0
  0
LINE
  5
323
330
1F
100
AcDbEntity
  8
0
  6
PHANTOM
 62
     7
370
    18
100
AcDbLine
 10
240.7887357346
 20
179.5594166353
 30
0.0
 11
240.7887357346
 21
178.7113685391
 31
0.0
  0
LINE
  5
324
330
1F
100
AcDbEntity
  8
0
  6
PHANTOM
 62
     7
370
    18
100
AcDbLine
 10
240.7887357346
 20
178.7113685391
 30
0.0
 11
236.7887357346
 21
178.7113685391
 31
0.0
  0
LINE
  5
325
330
1F
100
AcDbEntity
  8
0
  6
PHANTOM
 62
     7
370
    18
100
AcDbLine
 10
236.7887357346
 20
178.7113685391
 30
0.0
 11
236.7887357346
 21
179.5594166353
 31
0.0
  0
ARC
  5
326
330
1F
100
AcDbEntity
  8
0
  6
PHANTOM
 62
     7
370
    18
100
AcDbCircle
 10
236.7887357346
 20
175.1554733988
 30
0.0
 40
3.555895140360519
100
AcDbArc
 50
90.0
 51
270.0
  0
LINE
  5
327
330
1F
100
AcDbEntity
  8
0
  6
PHANTOM
 62
     7
370
    18
100
AcDbLine
 10
236.7887357346
 20
171.5995782584
 30
0.0
 11
236.7887357346
 21
170.7515301622
 31
0.0
  0
LINE
  5
328
330
1F
100
AcDbEntity
  8
0
  6
PHANTOM
 62
     7
370
    18
100
AcDbLine
 10
208.7887357346
 20
178.7113685391
 30
0.0
 11
204.7887357346
 21
178.7113685391
 31
0.0
  0
LINE
  5
329
330
1F
100
AcDbEntity
  8
0
  6
PHANTOM
 62
     7
370
    18
100
AcDbLine
 10
204.7887357346
 20
178.7113685391
 30
0.0
 11
204.7887357346
 21
179.5594166353
 31
0.0
  0
ARC
  5
32A
330
1F
100
AcDbEntity
  8
0
  6
PHANTOM
 62
     7
370
    18
100
AcDbCircle
 10
204.7887357346
 20
175.1554733988
 30
0.0
 40
3.555895140360519
100
AcDbArc
 50
90.0
 51
270.0
  0
LINE
  5
32B
330
1F
100
AcDbEntity
  8
0
  6
PHANTOM
 62
     7
370
    18
100
AcDbLine
 10
204.7887357346
 20
171.5995782584
 30
0.0
 11
204.7887357346
 21
170.7515301622
 31
0.0
  0
LINE
  5
32C
330
1F
100
AcDbEntity
  8
0
  6
PHANTOM
 62
     7
370
    18
100
AcDbLine
 10
240.7887357346
 20
170.7515301622
 30
0.0
 11
240.7887357346
 21
171.5995782584
 31
0.0
  0
ARC
  5
32D
330
1F
100
AcDbEntity
  8
0
  6
PHANTOM
 62
     7
370
    18
100
AcDbCircle
 10
240.7887357346
 20
175.1554733988
 30
0.0
 40
3.555895140360519
100
AcDbArc
 50
270.0
 51
90.0
  0
LINE
  5
32E
330
1F
100
AcDbEntity
  8
0
  6
PHANTOM
 62
     7
370
    18
100
AcDbLine
 10
247.1387357346
 20
156.9054733988
 30
0.0
 11
246.1387357346
 21
156.9054733988
 31
0.0
  0
LINE
  5
32F
330
1F
100
AcDbEntity
  8
0
  6
PHANTOM
 62
     7
370
    18
100
AcDbLine
 10
198.4387357344
 20
156.9054733988
 30
0.0
 11
199.4387357344
 21
156.9054733987
 31
0.0
  0
LINE
  5
330
330
1F
100
AcDbEntity
  8
0
  6
PHANTOM
 62
     7
370
    18
100
AcDbLine
 10
236.7887357346
 20
171.5995782584
 30
0.0
 11
240.7887357346
 21
171.5995782584
 31
0.0
  0
LINE
  5
331
330
1F
100
AcDbEntity
  8
0
  6
PHANTOM
 62
     7
370
    18
100
AcDbLine
 10
204.7887357346
 20
171.5995782584
 30
0.0
 11
208.7887357346
 21
171.5995782584
 31
0.0
  0
CIRCLE
  5
332
330
1F
100
AcDbEntity
  8
0
  6
PHANTOM
 62
     7
370
    18
100
AcDbCircle
 10
238.7887357346
 20
161.1554733988
 30
0.0
 40
3.555895140360491
  0
CIRCLE
  5
333
330
1F
100
AcDbEntity
  8
0
  6
PHANTOM
 62
     7
370
    18
100
AcDbCircle
 10
206.7887357346
 20
161.1554733988
 30
0.0
 40
3.555895140360491
  0
LINE
  5
334
330
1F
100
AcDbEntity
  8
0
  6
PHANTOM
 62
     7
370
    18
100
AcDbLine
 10
243.388735736
 20
153.1554733988
 30
0.0
 11
243.388735736
 21
154.1554733988
 31
0.0
  0
LINE
  5
335
330
1F
100
AcDbEntity
  8
0
  6
PHANTOM
 62
     7
370
    18
100
AcDbLine
 10
202.1887357339
 20
153.1554733988
 30
0.0
 11
202.1887357345
 21
154.1554733988
 31
0.0
  0
LINE
  5
336
330
1F
100
AcDbEntity
  8
0
  6
PHANTOM
 62
     7
370
    18
100
AcDbLine
 10
236.7887357346
 20
171.5995782584
 30
0.0
 11
236.7887357346
 21
173.0554733988
 31
0.0
  0
LINE
  5
337
330
1F
100
AcDbEntity
  8
0
  6
PHANTOM
 62
     7
370
    18
100
AcDbLine
 10
236.7887357346
 20
178.7113685391
 30
0.0
 11
236.7887357346
 21
177.2554733988
 31
0.0
  0
LINE
  5
338
330
1F
100
AcDbEntity
  8
0
  6
PHANTOM
 62
     7
370
    18
100
AcDbLine
 10
208.7887357346
 20
178.7113685391
 30
0.0
 11
208.7887357346
 21
177.2554733988
 31
0.0
  0
LINE
  5
339
330
1F
100
AcDbEntity
  8
0
  6
PHANTOM
 62
     7
370
    18
100
AcDbLine
 10
208.7887357346
 20
171.5995782584
 30
0.0
 11
208.7887357346
 21
173.0554733988
 31
0.0
  0
LINE
  5
33A
330
1F
100
AcDbEntity
  8
0
  6
PHANTOM
 62
     7
370
    18
100
AcDbLine
 10
204.7887357346
 20
178.7113685391
 30
0.0
 11
204.7887357346
 21
177.2554733985
 31
0.0
  0
LINE
  5
33B
330
1F
100
AcDbEntity
  8
0
  6
PHANTOM
 62
     7
370
    18
100
AcDbLine
 10
240.7887357346
 20
178.7113685391
 30
0.0
 11
240.7887357346
 21
177.2554733988
 31
0.0
  0
LINE
  5
33C
330
1F
100
AcDbEntity
  8
0
  6
PHANTOM
 62
     7
370
    18
100
AcDbLine
 10
204.7887357346
 20
171.5995782584
 30
0.0
 11
204.7887357346
 21
173.0554733988
 31
0.0
  0
LINE
  5
33D
330
1F
100
AcDbEntity
  8
0
  6
PHANTOM
 62
     7
370
    18
100
AcDbLine
 10
240.7887357346
 20
171.5995782584
 30
0.0
 11
240.7887357346
 21
173.055473399
 31
0.0
  0
INSERT
  5
349
330
1F
100
AcDbEntity
  8
9
 62
     7
100
AcDbBlockReference
  2
SW_CENTERMARKSYMBOL_0
 10
206.7887357346
 20
161.1554733988
 30
0.0
  0
INSERT
  5
355
330
1F
100
AcDbEntity
  8
9
 62
     7
100
AcDbBlockReference
  2
SW_CENTERMARKSYMBOL_1
 10
238.7887357346
 20
161.1554733988
 30
0.0
  0
LINE
  5
356
330
1F
100
AcDbEntity
  8
9
  6
CENTERX2
 62
     7
370
    18
100
AcDbLine
 10
213.543118641
 20
175.1554733989
 30
0.0
 11
199.9641633379
 21
175.1554733985
 31
0.0
  0
LINE
  5
357
330
1F
100
AcDbEntity
  8
9
  6
CENTERX2
 62
     7
370
    18
100
AcDbLine
 10
245.5886130334
 20
175.1554733991
 30
0.0
 11
232.0802817536
 21
175.1554733986
 31
0.0
  0
LINE
  5
358
330
1F
100
AcDbEntity
  8
9
  6
CENTERX2
 62
     7
370
    18
100
AcDbLine
 10
206.7887357346
 20
179.969826756
 30
0.0
 11
206.7887357346
 21
170.218683956
 31
0.0
  0
LINE
  5
359
330
1F
100
AcDbEntity
  8
9
  6
CENTERX2
 62
     7
370
    18
100
AcDbLine
 10
238.7887357346
 20
170.1344115345
 30
0.0
 11
238.7887357346
 21
180.002413004
 31
0.0
  0
LINE
  5
35A
330
1F
100
AcDbEntity
  8
9
  6
CENTERX2
 62
     7
370
    18
100
AcDbLine
 10
222.7887357341
 20
144.95923415
 30
0.0
 11
222.7887357341
 21
204.1481855381
 31
0.0
  0
LINE
  5
35B
330
1F
100
AcDbEntity
  8
0
  6
Continuous
 62
     7
370
    25
100
AcDbLine
 10
230.6887357346
 20
21.9838459811
 30
0.0
 11
230.6887357346
 21
30.9838459811
 31
0.0
  0
LINE
  5
35C
330
1F
100
AcDbEntity
  8
0
  6
Continuous
 62
     7
370
    25
100
AcDbLine
 10
231.3304781651
 20
21.9838459811
 30
0.0
 11
231.3304781651
 21
30.9838459811
 31
0.0
  0
LINE
  5
35D
330
1F
100
AcDbEntity
  8
0
  6
Continuous
 62
     7
370
    25
100
AcDbLine
 10
231.3304781651
 20
21.9838459811
 30
0.0
 11
230.6887357346
 21
21.9838459811
 31
0.0
  0
LINE
  5
35E
330
1F
100
AcDbEntity
  8
0
  6
Continuous
 62
     7
370
    25
100
AcDbLine
 10
237.7887357359
 20
38.0838459811
 30
0.0
 11
243.3887357346
 21
38.0838459811
 31
0.0
  0
LINE
  5
35F
330
1F
100
AcDbEntity
  8
0
  6
Continuous
 62
     7
370
    25
100
AcDbLine
 10
237.7887357346
 20
37.4421035508
 30
0.0
 11
243.3887357346
 21
37.4421035506
 31
0.0
  0
LINE
  5
360
330
1F
100
AcDbEntity
  8
0
  6
Continuous
 62
     7
370
    25
100
AcDbLine
 10
207.7887357346
 20
38.0838459811
 30
0.0
 11
202.1887357349
 21
38.0838459811
 31
0.0
  0
LINE
  5
361
330
1F
100
AcDbEntity
  8
0
  6
Continuous
 62
     7
370
    25
100
AcDbLine
 10
202.1887357346
 20
37.4421035509
 30
0.0
 11
207.7887357346
 21
37.4421035506
 31
0.0
  0
LINE
  5
362
330
1F
100
AcDbEntity
  8
0
  6
Continuous
 62
     7
370
    25
100
AcDbLine
 10
246.0387357346
 20
40.7338459817
 30
0.0
 11
246.0387357346
 21
63.2338459811
 31
0.0
  0
LINE
  5
363
330
1F
100
AcDbEntity
  8
0
  6
Continuous
 62
     7
370
    25
100
AcDbLine
 10
246.6804781648
 20
40.7338459811
 30
0.0
 11
246.6804781651
 21
63.2338459811
 31
0.0
  0
LINE
  5
364
330
1F
100
AcDbEntity
  8
0
  6
Continuous
 62
     7
370
    25
100
AcDbLine
 10
199.5387357346
 20
40.7338459811
 30
0.0
 11
199.5387357346
 21
63.2338459814
 31
0.0
  0
LINE
  5
365
330
1F
100
AcDbEntity
  8
0
  6
Continuous
 62
     7
370
    25
100
AcDbLine
 10
198.8969933043
 20
63.2338459811
 30
0.0
 11
198.8969933041
 21
40.7338459811
 31
0.0
  0
LINE
  5
366
330
1F
100
AcDbEntity
  8
0
  6
Continuous
 62
     7
370
    25
100
AcDbLine
 10
212.7887357346
 20
65.8838459811
 30
0.0
 11
202.1887357346
 21
65.8838459811
 31
0.0
  0
LINE
  5
367
330
1F
100
AcDbEntity
  8
0
  6
Continuous
 62
     7
370
    25
100
AcDbLine
 10
212.7887357346
 20
66.5255884108
 30
0.0
 11
202.1887357346
 21
66.5255884117
 31
0.0
  0
LINE
  5
368
330
1F
100
AcDbEntity
  8
0
  6
Continuous
 62
     7
370
    25
100
AcDbLine
 10
212.7887357346
 20
66.5255884108
 30
0.0
 11
212.7887357346
 21
65.8838459831
 31
0.0
  0
ARC
  5
369
330
1F
100
AcDbEntity
  8
0
  6
Continuous
 62
     7
370
    25
100
AcDbCircle
 10
207.7887357346
 20
30.9838459811
 30
0.0
 40
7.100000000000005
100
AcDbArc
 50
0.0000000118
 51
89.999999978
  0
ARC
  5
36A
330
1F
100
AcDbEntity
  8
0
  6
Continuous
 62
     7
370
    25
100
AcDbCircle
 10
207.7887357346
 20
30.9838459811
 30
0.0
 40
6.458257569674373
100
AcDbArc
 50
0.0
 51
90.0
  0
ARC
  5
36B
330
1F
100
AcDbEntity
  8
0
  6
Continuous
 62
     7
370
    25
100
AcDbCircle
 10
237.7887357346
 20
30.9838459811
 30
0.0
 40
7.100000000000005
100
AcDbArc
 50
89.999999989
 51
180.0
  0
ARC
  5
36C
330
1F
100
AcDbEntity
  8
0
  6
Continuous
 62
     7
370
    25
100
AcDbCircle
 10
237.7887357346
 20
30.9838459811
 30
0.0
 40
6.458257569674384
100
AcDbArc
 50
90.0
 51
180.0
  0
ARC
  5
36D
330
1F
100
AcDbEntity
  8
0
  6
Continuous
 62
     7
370
    25
100
AcDbCircle
 10
243.3887357346
 20
40.7338459811
 30
0.0
 40
2.650000000000034
100
AcDbArc
 50
270.0
 51
0.0000000118
  0
ARC
  5
36E
330
1F
100
AcDbEntity
  8
0
  6
Continuous
 62
     7
370
    25
100
AcDbCircle
 10
243.3887357346
 20
40.7338459811
 30
0.0
 40
3.291742430504421
100
AcDbArc
 50
270.0
 51
0.0
  0
ARC
  5
36F
330
1F
100
AcDbEntity
  8
0
  6
Continuous
 62
     7
370
    25
100
AcDbCircle
 10
202.1887357346
 20
63.2338459811
 30
0.0
 40
2.650000000000034
100
AcDbArc
 50
90.0
 51
179.9999999949
  0
ARC
  5
370
330
1F
100
AcDbEntity
  8
0
  6
Continuous
 62
     7
370
    25
100
AcDbCircle
 10
202.1887357346
 20
63.2338459811
 30
0.0
 40
3.291742430504428
100
AcDbArc
 50
90.0
 51
180.0
  0
ARC
  5
371
330
1F
100
AcDbEntity
  8
0
  6
Continuous
 62
     7
370
    25
100
AcDbCircle
 10
243.3887357346
 20
63.2338459811
 30
0.0
 40
2.650000000000034
100
AcDbArc
 50
0.0
 51
89.999999989
  0
ARC
  5
372
330
1F
100
AcDbEntity
  8
0
  6
Continuous
 62
     7
370
    25
100
AcDbCircle
 10
243.3887357346
 20
63.2338459811
 30
0.0
 40
3.291742430504428
100
AcDbArc
 50
0.0
 51
90.0
  0
ARC
  5
373
330
1F
100
AcDbEntity
  8
0
  6
Continuous
 62
     7
370
    25
100
AcDbCircle
 10
202.1887357346
 20
40.7338459811
 30
0.0
 40
2.650000000000034
100
AcDbArc
 50
180.0
 51
270.0000000059
  0
ARC
  5
374
330
1F
100
AcDbEntity
  8
0
  6
Continuous
 62
     7
370
    25
100
AcDbCircle
 10
202.1887357346
 20
40.7338459811
 30
0.0
 40
3.291742430504428
100
AcDbArc
 50
180.0
 51
270.0
  0
LINE
  5
375
330
1F
100
AcDbEntity
  8
0
  6
Continuous
 62
     7
370
    25
100
AcDbLine
 10
214.2469933043
 20
30.9838459811
 30
0.0
 11
214.2469933041
 21
21.9838459811
 31
0.0
  0
LINE
  5
376
330
1F
100
AcDbEntity
  8
0
  6
Continuous
 62
     7
370
    25
100
AcDbLine
 10
214.2469933041
 20
21.9838459811
 30
0.0
 11
212.688735733
 21
21.9838459811
 31
0.0
  0
LINE
  5
377
330
1F
100
AcDbEntity
  8
0
  6
Continuous
 62
     7
370
    25
100
AcDbLine
 10
212.688735733
 20
21.9838459811
 30
0.0
 11
212.688735733
 21
30.9848460792
 31
0.0
  0
ARC
  5
378
330
1F
100
AcDbEntity
  8
0
  6
Continuous
 62
     7
370
    25
100
AcDbCircle
 10
207.688735733
 20
30.9848460792
 30
0.0
 40
4.999999999999997
100
AcDbArc
 50
0.0
 51
88.8540079833
  0
LINE
  5
379
330
1F
100
AcDbEntity
  8
0
  6
Continuous
 62
     7
370
    25
100
AcDbLine
 10
207.7887357346
 20
35.9838459791
 30
0.0
 11
202.1887357351
 21
35.9838459801
 31
0.0
  0
ARC
  5
37A
330
1F
100
AcDbEntity
  8
0
  6
Continuous
 62
     7
370
    25
100
AcDbCircle
 10
202.1887357346
 20
40.9838459811
 30
0.0
 40
5.000000001000004
100
AcDbArc
 50
180.0
 51
270.0000000059
  0
LINE
  5
37B
330
1F
100
AcDbEntity
  8
0
  6
Continuous
 62
     7
370
    25
100
AcDbLine
 10
197.1887357346
 20
40.9838459811
 30
0.0
 11
197.1887357346
 21
62.9838459816
 31
0.0
  0
ARC
  5
37C
330
1F
100
AcDbEntity
  8
0
  6
Continuous
 62
     7
370
    25
100
AcDbCircle
 10
202.1887357346
 20
62.9838459811
 30
0.0
 40
5.000000000000028
100
AcDbArc
 50
90.0
 51
179.9999999949
  0
LINE
  5
37D
330
1F
100
AcDbEntity
  8
0
  6
Continuous
 62
     7
370
    25
100
AcDbLine
 10
202.1887357346
 20
67.9838459811
 30
0.0
 11
212.7887357346
 21
67.9838459811
 31
0.0
  0
LINE
  5
37E
330
1F
100
AcDbEntity
  8
0
  6
Continuous
 62
     7
370
    25
100
AcDbLine
 10
212.7887357346
 20
67.9838459811
 30
0.0
 11
212.7887357346
 21
66.5255884108
 31
0.0
  0
LINE
  5
37F
330
1F
100
AcDbEntity
  8
0
  6
Continuous
 62
     7
370
    25
100
AcDbLine
 10
232.7887357346
 20
67.9838459811
 30
0.0
 11
243.3887357355
 21
67.9838459811
 31
0.0
  0
ARC
  5
380
330
1F
100
AcDbEntity
  8
0
  6
Continuous
 62
     7
370
    25
100
AcDbCircle
 10
243.3887357346
 20
62.9838459811
 30
0.0
 40
5.000000000000028
100
AcDbArc
 50
0.0
 51
89.999999989
  0
LINE
  5
381
330
1F
100
AcDbEntity
  8
0
  6
Continuous
 62
     7
370
    25
100
AcDbLine
 10
248.3887357346
 20
62.9838459811
 30
0.0
 11
248.3887357346
 21
40.9838459822
 31
0.0
  0
ARC
  5
382
330
1F
100
AcDbEntity
  8
0
  6
Continuous
 62
     7
370
    25
100
AcDbCircle
 10
243.3887357346
 20
40.9838459811
 30
0.0
 40
5.000000000000028
100
AcDbArc
 50
270.0
 51
0.0000000118
  0
LINE
  5
383
330
1F
100
AcDbEntity
  8
0
  6
Continuous
 62
     7
370
    25
100
AcDbLine
 10
243.3887357346
 20
35.9838459811
 30
0.0
 11
237.7887357355
 21
35.9838459811
 31
0.0
  0
ARC
  5
384
330
1F
100
AcDbEntity
  8
0
  6
Continuous
 62
     7
370
    25
100
AcDbCircle
 10
237.8877159401
 20
30.9848257843
 30
0.0
 40
5.000000000960812
100
AcDbArc
 50
91.1343036888
 51
181.1572220064
  0
LINE
  5
385
330
1F
100
AcDbEntity
  8
0
  6
Continuous
 62
     7
370
    25
100
AcDbLine
 10
232.8887357362
 20
30.8838459791
 30
0.0
 11
232.8887357362
 21
21.9838459811
 31
0.0
  0
LINE
  5
386
330
1F
100
AcDbEntity
  8
0
  6
Continuous
 62
     7
370
    25
100
AcDbLine
 10
232.8887357362
 20
21.9838459811
 30
0.0
 11
231.3304781651
 21
21.9838459811
 31
0.0
  0
LINE
  5
387
330
1F
100
AcDbEntity
  8
0
  6
Continuous
 62
     7
370
    25
100
AcDbLine
 10
243.3887357346
 20
66.5255884114
 30
0.0
 11
232.7887357346
 21
66.5255884117
 31
0.0
  0
LINE
  5
388
330
1F
100
AcDbEntity
  8
0
  6
Continuous
 62
     7
370
    25
100
AcDbLine
 10
232.7887357346
 20
66.5255884117
 30
0.0
 11
232.7887357346
 21
67.9838459811
 31
0.0
  0
LINE
  5
389
330
1F
100
AcDbEntity
  8
0
  6
Continuous
 62
     7
370
    25
100
AcDbLine
 10
214.8887357346
 20
21.9838459811
 30
0.0
 11
214.8887357346
 21
30.9838459826
 31
0.0
  0
LINE
  5
38A
330
1F
100
AcDbEntity
  8
0
  6
Continuous
 62
     7
370
    25
100
AcDbLine
 10
214.8887357346
 20
21.9838459811
 30
0.0
 11
214.2469933041
 21
21.9838459811
 31
0.0
  0
LINE
  5
38B
330
1F
100
AcDbEntity
  8
0
  6
Continuous
 62
     7
370
    25
100
AcDbLine
 10
232.7887357346
 20
65.8838459811
 30
0.0
 11
243.3887357351
 21
65.8838459811
 31
0.0
  0
LINE
  5
38C
330
1F
100
AcDbEntity
  8
0
  6
Continuous
 62
     7
370
    25
100
AcDbLine
 10
232.7887357346
 20
65.8838459811
 30
0.0
 11
232.7887357346
 21
66.5255884117
 31
0.0
  0
ARC
  5
38D
330
1F
100
AcDbEntity
  8
0
  6
Continuous
 62
     7
370
    25
100
AcDbCircle
 10
236.7887357346
 20
44.9838459811
 30
0.0
 40
2.299999999999997
100
AcDbArc
 50
90.0
 51
270.0
  0
ARC
  5
38E
330
1F
100
AcDbEntity
  8
0
  6
Continuous
 62
     7
370
    25
100
AcDbCircle
 10
236.7887357346
 20
44.9838459811
 30
0.0
 40
3.900000000000006
100
AcDbArc
 50
90.0
 51
270.0
  0
ARC
  5
38F
330
1F
100
AcDbEntity
  8
0
  6
Continuous
 62
     7
370
    25
100
AcDbCircle
 10
204.7887357346
 20
44.9838459811
 30
0.0
 40
2.299999999999997
100
AcDbArc
 50
90.0
 51
270.0
  0
ARC
  5
390
330
1F
100
AcDbEntity
  8
0
  6
Continuous
 62
     7
370
    25
100
AcDbCircle
 10
204.7887357346
 20
44.9838459811
 30
0.0
 40
3.900000000451222
100
AcDbArc
 50
90.0
 51
270.0
  0
ARC
  5
391
330
1F
100
AcDbEntity
  8
0
  6
Continuous
 62
     7
370
    25
100
AcDbCircle
 10
208.7887357346
 20
44.9838459811
 30
0.0
 40
2.299999999999997
100
AcDbArc
 50
270.0
 51
90.0
  0
ARC
  5
392
330
1F
100
AcDbEntity
  8
0
  6
Continuous
 62
     7
370
    25
100
AcDbCircle
 10
208.7887357346
 20
44.9838459811
 30
0.0
 40
3.900000000451222
100
AcDbArc
 50
270.0
 51
90.0
  0
LINE
  5
393
330
1F
100
AcDbEntity
  8
0
  6
Continuous
 62
     7
370
    25
100
AcDbLine
 10
208.7887357346
 20
42.6838459811
 30
0.0
 11
204.7887357346
 21
42.6838459811
 31
0.0
  0
LINE
  5
394
330
1F
100
AcDbEntity
  8
0
  6
Continuous
 62
     7
370
    25
100
AcDbLine
 10
208.7887357346
 20
41.0838459807
 30
0.0
 11
204.7887357346
 21
41.0838459807
 31
0.0
  0
LINE
  5
395
330
1F
100
AcDbEntity
  8
0
  6
Continuous
 62
     7
370
    25
100
AcDbLine
 10
240.7887357346
 20
42.6838459811
 30
0.0
 11
236.7887357346
 21
42.6838459811
 31
0.0
  0
LINE
  5
396
330
1F
100
AcDbEntity
  8
0
  6
Continuous
 62
     7
370
    25
100
AcDbLine
 10
240.7887357346
 20
41.0838459811
 30
0.0
 11
236.7887357346
 21
41.0838459811
 31
0.0
  0
ARC
  5
397
330
1F
100
AcDbEntity
  8
0
  6
Continuous
 62
     7
370
    25
100
AcDbCircle
 10
240.7887357346
 20
44.9838459811
 30
0.0
 40
2.299999999999997
100
AcDbArc
 50
270.0
 51
90.0
  0
ARC
  5
398
330
1F
100
AcDbEntity
  8
0
  6
Continuous
 62
     7
370
    25
100
AcDbCircle
 10
240.7887357346
 20
44.9838459811
 30
0.0
 40
3.900000000000006
100
AcDbArc
 50
270.0
 51
90.0
  0
LINE
  5
399
330
1F
100
AcDbEntity
  8
0
  6
Continuous
 62
     7
370
    25
100
AcDbLine
 10
204.7887357346
 20
47.2838459811
 30
0.0
 11
208.7887357346
 21
47.2838459811
 31
0.0
  0
ARC
  5
39A
330
1F
100
AcDbEntity
  8
0
  6
Continuous
 62
     7
370
    25
100
AcDbCircle
 10
208.7887357346
 20
44.9838459811
 30
0.0
 40
2.100000000000001
100
AcDbArc
 50
270.0
 51
90.0
  0
LINE
  5
39B
330
1F
100
AcDbEntity
  8
0
  6
Continuous
 62
     7
370
    25
100
AcDbLine
 10
208.7887357346
 20
47.0838459811
 30
0.0
 11
204.7887357346
 21
47.0838459811
 31
0.0
  0
LINE
  5
39C
330
1F
100
AcDbEntity
  8
0
  6
Continuous
 62
     7
370
    25
100
AcDbLine
 10
204.7887357346
 20
42.8838459814
 30
0.0
 11
208.7887357346
 21
42.8838459811
 31
0.0
  0
ARC
  5
39D
330
1F
100
AcDbEntity
  8
0
  6
Continuous
 62
     7
370
    25
100
AcDbCircle
 10
204.7887357346
 20
44.9838459811
 30
0.0
 40
2.100000000000001
100
AcDbArc
 50
90.0
 51
270.0
  0
LINE
  5
39E
330
1F
100
AcDbEntity
  8
0
  6
Continuous
 62
     7
370
    25
100
AcDbLine
 10
236.7887357346
 20
47.2838459811
 30
0.0
 11
240.7887357346
 21
47.2838459811
 31
0.0
  0
LINE
  5
39F
330
1F
100
AcDbEntity
  8
0
  6
Continuous
 62
     7
370
    25
100
AcDbLine
 10
240.7887357346
 20
47.0838459809
 30
0.0
 11
236.7887357346
 21
47.0838459811
 31
0.0
  0
ARC
  5
3A0
330
1F
100
AcDbEntity
  8
0
  6
Continuous
 62
     7
370
    25
100
AcDbCircle
 10
236.7887357346
 20
44.9838459811
 30
0.0
 40
2.100000000000001
100
AcDbArc
 50
90.0
 51
270.0
  0
LINE
  5
3A1
330
1F
100
AcDbEntity
  8
0
  6
Continuous
 62
     7
370
    25
100
AcDbLine
 10
236.7887357346
 20
42.8838459811
 30
0.0
 11
240.7887357346
 21
42.8838459811
 31
0.0
  0
ARC
  5
3A2
330
1F
100
AcDbEntity
  8
0
  6
Continuous
 62
     7
370
    25
100
AcDbCircle
 10
240.7887357346
 20
44.9838459811
 30
0.0
 40
2.100000000000001
100
AcDbArc
 50
270.0
 51
90.0
  0
LINE
  5
3A3
330
1F
100
AcDbEntity
  8
0
  6
Continuous
 62
     7
370
    25
100
AcDbLine
 10
236.7887357346
 20
48.8838459811
 30
0.0
 11
240.7887357346
 21
48.8838459811
 31
0.0
  0
LINE
  5
3A4
330
1F
100
AcDbEntity
  8
0
  6
Continuous
 62
     7
370
    25
100
AcDbLine
 10
204.7887357346
 20
48.8838459816
 30
0.0
 11
208.7887357346
 21
48.8838459816
 31
0.0
  0
CIRCLE
  5
3A5
330
1F
100
AcDbEntity
  8
0
  6
Continuous
 62
     7
370
    25
100
AcDbCircle
 10
206.7887357346
 20
58.9838459811
 30
0.0
 40
3.900000000451257
  0
CIRCLE
  5
3A6
330
1F
100
AcDbEntity
  8
0
  6
Continuous
 62
     7
370
    25
100
AcDbCircle
 10
206.7887357346
 20
58.9838459811
 30
0.0
 40
2.300000000000011
  0
CIRCLE
  5
3A7
330
1F
100
AcDbEntity
  8
0
  6
Continuous
 62
     7
370
    25
100
AcDbCircle
 10
238.7887357346
 20
58.9838459811
 30
0.0
 40
3.899999999999977
  0
CIRCLE
  5
3A8
330
1F
100
AcDbEntity
  8
0
  6
Continuous
 62
     7
370
    25
100
AcDbCircle
 10
238.7887357346
 20
58.9838459811
 30
0.0
 40
2.299999999999983
  0
CIRCLE
  5
3A9
330
1F
100
AcDbEntity
  8
0
  6
Continuous
 62
     7
370
    25
100
AcDbCircle
 10
238.7887357346
 20
58.9838459811
 30
0.0
 40
2.099999999999994
  0
CIRCLE
  5
3AA
330
1F
100
AcDbEntity
  8
0
  6
Continuous
 62
     7
370
    25
100
AcDbCircle
 10
206.7887357346
 20
58.9838459811
 30
0.0
 40
2.099999999999966
  0
LINE
  5
3AB
330
1F
100
AcDbEntity
  8
0
  6
Continuous
 62
     7
370
    25
100
AcDbLine
 10
214.8887357419
 20
30.9038459811
 30
0.0
 11
217.3887357346
 21
30.9038459811
 31
0.0
  0
LINE
  5
3AC
330
1F
100
AcDbEntity
  8
0
  6
Continuous
 62
     7
370
    25
100
AcDbLine
 10
217.3887357346
 20
30.9038459811
 30
0.0
 11
217.3887357346
 21
21.9838459811
 31
0.0
  0
LINE
  5
3AD
330
1F
100
AcDbEntity
  8
0
  6
Continuous
 62
     7
370
    25
100
AcDbLine
 10
217.3887357346
 20
21.9838459811
 30
0.0
 11
214.8887357419
 21
21.9838459811
 31
0.0
  0
LINE
  5
3AE
330
1F
100
AcDbEntity
  8
0
  6
Continuous
 62
     7
370
    25
100
AcDbLine
 10
228.1887357346
 20
21.9838459811
 30
0.0
 11
228.1887357346
 21
30.9038459811
 31
0.0
  0
LINE
  5
3AF
330
1F
100
AcDbEntity
  8
0
  6
Continuous
 62
     7
370
    25
100
AcDbLine
 10
228.1887357346
 20
30.9038459811
 30
0.0
 11
230.6887357273
 21
30.9038459811
 31
0.0
  0
LINE
  5
3B0
330
1F
100
AcDbEntity
  8
0
  6
Continuous
 62
     7
370
    25
100
AcDbLine
 10
230.6887357291
 20
21.9838459811
 30
0.0
 11
228.1887357346
 21
21.9838459811
 31
0.0
  0
LINE
  5
3B1
330
1F
100
AcDbEntity
  8
0
  6
Continuous
 62
     7
370
    25
100
AcDbLine
 10
212.7887357346
 20
63.9838459811
 30
0.0
 11
214.7887357346
 21
63.9838459811
 31
0.0
  0
LINE
  5
3B2
330
1F
100
AcDbEntity
  8
0
  6
Continuous
 62
     7
370
    25
100
AcDbLine
 10
214.7887357346
 20
32.1712801899
 30
0.0
 11
214.7887357346
 21
63.9838459811
 31
0.0
  0
LINE
  5
3B3
330
1F
100
AcDbEntity
  8
0
  6
Continuous
 62
     7
370
    25
100
AcDbLine
 10
212.7887357346
 20
65.8838459821
 30
0.0
 11
212.7887357346
 21
63.9838459811
 31
0.0
  0
LINE
  5
3B4
330
1F
100
AcDbEntity
  8
0
  6
Continuous
 62
     7
370
    25
100
AcDbLine
 10
230.7887357346
 20
63.9838459811
 30
0.0
 11
232.7887357346
 21
63.9838459811
 31
0.0
  0
LINE
  5
3B5
330
1F
100
AcDbEntity
  8
0
  6
Continuous
 62
     7
370
    25
100
AcDbLine
 10
230.7887357346
 20
32.1712801899
 30
0.0
 11
230.7887357346
 21
63.9838459811
 31
0.0
  0
LINE
  5
3B6
330
1F
100
AcDbEntity
  8
0
  6
Continuous
 62
     7
370
    25
100
AcDbLine
 10
232.7887357346
 20
63.9838459811
 30
0.0
 11
232.7887357346
 21
65.8838459811
 31
0.0
  0
LINE
  5
3B7
330
1F
100
AcDbEntity
  8
0
  6
Continuous
 62
     7
370
    25
100
AcDbLine
 10
227.1887357346
 20
21.9838459811
 30
0.0
 11
227.1887357346
 21
30.9038459811
 31
0.0
  0
LINE
  5
3B8
330
1F
100
AcDbEntity
  8
0
  6
Continuous
 62
     7
370
    25
100
AcDbLine
 10
227.1887357346
 20
30.9038459811
 30
0.0
 11
228.1887357346
 21
30.9038459811
 31
0.0
  0
LINE
  5
3B9
330
1F
100
AcDbEntity
  8
0
  6
Continuous
 62
     7
370
    25
100
AcDbLine
 10
227.1887357346
 20
21.9838459811
 30
0.0
 11
228.1887357346
 21
21.9838459811
 31
0.0
  0
LINE
  5
3BA
330
1F
100
AcDbEntity
  8
0
  6
Continuous
 62
     7
370
    25
100
AcDbLine
 10
217.3887357346
 20
30.9038459811
 30
0.0
 11
218.3887357346
 21
30.9038459811
 31
0.0
  0
LINE
  5
3BB
330
1F
100
AcDbEntity
  8
0
  6
Continuous
 62
     7
370
    25
100
AcDbLine
 10
218.3887357346
 20
30.9038459811
 30
0.0
 11
218.3887357346
 21
21.9838459811
 31
0.0
  0
LINE
  5
3BC
330
1F
100
AcDbEntity
  8
0
  6
Continuous
 62
     7
370
    25
100
AcDbLine
 10
217.3887357346
 20
21.9838459811
 30
0.0
 11
218.3887357346
 21
21.9838459811
 31
0.0
  0
LINE
  5
3BD
330
1F
100
AcDbEntity
  8
0
  6
Continuous
 62
     7
370
    25
100
AcDbLine
 10
218.3887357346
 20
35.403845986
 30
0.0
 11
217.2887357346
 21
35.4038459823
 31
0.0
  0
LINE
  5
3BE
330
1F
100
AcDbEntity
  8
0
  6
Continuous
 62
     7
370
    25
100
AcDbLine
 10
218.3887357346
 20
63.9838459811
 30
0.0
 11
218.3887357346
 21
35.403845986
 31
0.0
  0
LINE
  5
3BF
330
1F
100
AcDbEntity
  8
0
  6
Continuous
 62
     7
370
    25
100
AcDbLine
 10
217.2887357346
 20
63.9838459811
 30
0.0
 11
218.3887357346
 21
63.9838459811
 31
0.0
  0
LINE
  5
3C0
330
1F
100
AcDbEntity
  8
0
  6
Continuous
 62
     7
370
    25
100
AcDbLine
 10
214.7887357346
 20
35.4038459823
 30
0.0
 11
217.2887357346
 21
35.4038459823
 31
0.0
  0
LINE
  5
3C1
330
1F
100
AcDbEntity
  8
0
  6
Continuous
 62
     7
370
    25
100
AcDbLine
 10
214.7887357346
 20
63.9838459811
 30
0.0
 11
217.2887357346
 21
63.9838459811
 31
0.0
  0
LINE
  5
3C2
330
1F
100
AcDbEntity
  8
0
  6
Continuous
 62
     7
370
    25
100
AcDbLine
 10
228.2887357346
 20
35.4038459823
 30
0.0
 11
227.1887357346
 21
35.403845986
 31
0.0
  0
LINE
  5
3C3
330
1F
100
AcDbEntity
  8
0
  6
Continuous
 62
     7
370
    25
100
AcDbLine
 10
227.1887357346
 20
35.403845986
 30
0.0
 11
227.1887357346
 21
63.9838459811
 31
0.0
  0
LINE
  5
3C4
330
1F
100
AcDbEntity
  8
0
  6
Continuous
 62
     7
370
    25
100
AcDbLine
 10
227.1887357346
 20
63.9838459811
 30
0.0
 11
228.2887357346
 21
63.9838459811
 31
0.0
  0
LINE
  5
3C5
330
1F
100
AcDbEntity
  8
0
  6
Continuous
 62
     7
370
    25
100
AcDbLine
 10
228.2887357346
 20
35.4038459823
 30
0.0
 11
230.7887357346
 21
35.4038459823
 31
0.0
  0
LINE
  5
3C6
330
1F
100
AcDbEntity
  8
0
  6
Continuous
 62
     7
370
    25
100
AcDbLine
 10
228.2887357346
 20
63.9838459811
 30
0.0
 11
230.7887357346
 21
63.9838459811
 31
0.0
  0
LINE
  5
3C7
330
1F
100
AcDbEntity
  8
0
  6
Continuous
 62
     7
370
    25
100
AcDbLine
 10
217.3887357346
 20
35.4038459861
 30
0.0
 11
217.3887357346
 21
30.9038459811
 31
0.0
  0
LINE
  5
3C8
330
1F
100
AcDbEntity
  8
0
  6
Continuous
 62
     7
370
    25
100
AcDbLine
 10
218.3887357346
 20
35.4038459878
 30
0.0
 11
218.3887357346
 21
30.9038459811
 31
0.0
  0
LINE
  5
3C9
330
1F
100
AcDbEntity
  8
0
  6
Continuous
 62
     7
370
    25
100
AcDbLine
 10
228.1887357346
 20
30.9038459811
 30
0.0
 11
228.1887357346
 21
35.4038459861
 31
0.0
  0
LINE
  5
3CA
330
1F
100
AcDbEntity
  8
0
  6
Continuous
 62
     7
370
    25
100
AcDbLine
 10
227.1887357346
 20
30.9038459811
 30
0.0
 11
227.1887357346
 21
35.4038459878
 31
0.0
  0
LINE
  5
3CB
330
1F
100
AcDbEntity
  8
0
  6
Continuous
 62
     7
370
    25
100
AcDbLine
 10
227.1887357346
 20
63.9838459811
 30
0.0
 11
218.3887357346
 21
63.9838459811
 31
0.0
  0
LINE
  5
3CC
330
1F
100
AcDbEntity
  8
0
  6
Continuous
 62
     7
370
    25
100
AcDbLine
 10
218.7887357346
 20
25.1838459811
 30
0.0
 11
218.7887357346
 21
32.745398794
 31
0.0
  0
LINE
  5
3CD
330
1F
100
AcDbEntity
  8
0
  6
Continuous
 62
     7
370
    25
100
AcDbLine
 10
226.7887357346
 20
25.1838459811
 30
0.0
 11
218.7887357346
 21
25.1838459811
 31
0.0
  0
LINE
  5
3CE
330
1F
100
AcDbEntity
  8
0
  6
Continuous
 62
     7
370
    25
100
AcDbLine
 10
226.7887357346
 20
32.745398794
 30
0.0
 11
226.7887357346
 21
25.1838459811
 31
0.0
  0
ARC
  5
3CF
330
1F
100
AcDbEntity
  8
0
  6
Continuous
 62
     7
370
    25
100
AcDbCircle
 10
222.7887357346
 20
30.6838459811
 30
0.0
 40
4.499999999999998
100
AcDbArc
 50
27.2660444507
 51
152.7339555493
  0
LINE
  5
3D0
330
1F
100
AcDbEntity
  8
0
  6
Continuous
 62
     7
370
    25
100
AcDbLine
 10
218.3887357346
 20
21.9838459811
 30
0.0
 11
227.1887357346
 21
21.9838459811
 31
0.0
  0
LINE
  5
3D1
330
1F
100
AcDbEntity
  8
0
  6
PHANTOM
 62
     7
370
    18
100
AcDbLine
 10
230.6887357346
 20
30.9838459811
 30
0.0
 11
231.3304781651
 21
30.9838459811
 31
0.0
  0
LINE
  5
3D2
330
1F
100
AcDbEntity
  8
0
  6
PHANTOM
 62
     7
370
    18
100
AcDbLine
 10
243.3887357346
 20
38.0838459811
 30
0.0
 11
243.3887357346
 21
37.4421035506
 31
0.0
  0
LINE
  5
3D3
330
1F
100
AcDbEntity
  8
0
  6
PHANTOM
 62
     7
370
    18
100
AcDbLine
 10
237.7887357346
 20
37.4421035508
 30
0.0
 11
237.7887357359
 21
38.0838459811
 31
0.0
  0
LINE
  5
3D4
330
1F
100
AcDbEntity
  8
0
  6
PHANTOM
 62
     7
370
    18
100
AcDbLine
 10
207.7887357346
 20
38.0838459811
 30
0.0
 11
207.7887357346
 21
37.4421035506
 31
0.0
  0
LINE
  5
3D5
330
1F
100
AcDbEntity
  8
0
  6
PHANTOM
 62
     7
370
    18
100
AcDbLine
 10
202.1887357346
 20
37.4421035509
 30
0.0
 11
202.1887357349
 21
38.0838459811
 31
0.0
  0
LINE
  5
3D6
330
1F
100
AcDbEntity
  8
0
  6
PHANTOM
 62
     7
370
    18
100
AcDbLine
 10
246.0387357346
 20
63.2338459811
 30
0.0
 11
246.6804781651
 21
63.2338459811
 31
0.0
  0
LINE
  5
3D7
330
1F
100
AcDbEntity
  8
0
  6
PHANTOM
 62
     7
370
    18
100
AcDbLine
 10
246.6804781648
 20
40.7338459811
 30
0.0
 11
246.0387357346
 21
40.7338459817
 31
0.0
  0
LINE
  5
3D8
330
1F
100
AcDbEntity
  8
0
  6
PHANTOM
 62
     7
370
    18
100
AcDbLine
 10
198.8969933043
 20
63.2338459811
 30
0.0
 11
199.5387357346
 21
63.2338459814
 31
0.0
  0
LINE
  5
3D9
330
1F
100
AcDbEntity
  8
0
  6
PHANTOM
 62
     7
370
    18
100
AcDbLine
 10
199.5387357346
 20
40.7338459811
 30
0.0
 11
198.8969933041
 21
40.7338459811
 31
0.0
  0
LINE
  5
3DA
330
1F
100
AcDbEntity
  8
0
  6
PHANTOM
 62
     7
370
    18
100
AcDbLine
 10
202.1887357346
 20
65.8838459811
 30
0.0
 11
202.1887357346
 21
66.5255884117
 31
0.0
  0
LINE
  5
3DB
330
1F
100
AcDbEntity
  8
0
  6
PHANTOM
 62
     7
370
    18
100
AcDbLine
 10
214.2469933043
 20
30.9838459811
 30
0.0
 11
214.8887357346
 21
30.9838459826
 31
0.0
  0
LINE
  5
3DC
330
1F
100
AcDbEntity
  8
0
  6
PHANTOM
 62
     7
370
    18
100
AcDbLine
 10
243.3887357346
 20
66.5255884114
 30
0.0
 11
243.3887357351
 21
65.8838459811
 31
0.0
  0
LINE
  5
3DD
330
1F
100
AcDbEntity
  8
0
  6
PHANTOM
 62
     7
370
    18
100
AcDbLine
 10
236.7887357346
 20
47.2838459811
 30
0.0
 11
236.7887357346
 21
48.8838459811
 31
0.0
  0
LINE
  5
3DE
330
1F
100
AcDbEntity
  8
0
  6
PHANTOM
 62
     7
370
    18
100
AcDbLine
 10
236.7887357346
 20
42.6838459811
 30
0.0
 11
236.7887357346
 21
41.0838459811
 31
0.0
  0
LINE
  5
3DF
330
1F
100
AcDbEntity
  8
0
  6
PHANTOM
 62
     7
370
    18
100
AcDbLine
 10
204.7887357346
 20
47.2838459811
 30
0.0
 11
204.7887357346
 21
48.8838459816
 31
0.0
  0
LINE
  5
3E0
330
1F
100
AcDbEntity
  8
0
  6
PHANTOM
 62
     7
370
    18
100
AcDbLine
 10
204.7887357346
 20
42.6838459811
 30
0.0
 11
204.7887357346
 21
41.0838459807
 31
0.0
  0
LINE
  5
3E1
330
1F
100
AcDbEntity
  8
0
  6
PHANTOM
 62
     7
370
    18
100
AcDbLine
 10
208.7887357346
 20
42.6838459811
 30
0.0
 11
208.7887357346
 21
41.0838459807
 31
0.0
  0
LINE
  5
3E2
330
1F
100
AcDbEntity
  8
0
  6
PHANTOM
 62
     7
370
    18
100
AcDbLine
 10
208.7887357346
 20
47.2838459811
 30
0.0
 11
208.7887357346
 21
48.8838459816
 31
0.0
  0
LINE
  5
3E3
330
1F
100
AcDbEntity
  8
0
  6
PHANTOM
 62
     7
370
    18
100
AcDbLine
 10
240.7887357346
 20
42.6838459811
 30
0.0
 11
240.7887357346
 21
41.0838459811
 31
0.0
  0
LINE
  5
3E4
330
1F
100
AcDbEntity
  8
0
  6
PHANTOM
 62
     7
370
    18
100
AcDbLine
 10
240.7887357346
 20
47.2838459811
 30
0.0
 11
240.7887357346
 21
48.8838459811
 31
0.0
  0
LINE
  5
3E5
330
1F
100
AcDbEntity
  8
0
  6
PHANTOM
 62
     7
370
    18
100
AcDbLine
 10
217.2887357346
 20
35.4038459823
 30
0.0
 11
217.2887357346
 21
63.9838459811
 31
0.0
  0
LINE
  5
3E6
330
1F
100
AcDbEntity
  8
0
  6
PHANTOM
 62
     7
370
    18
100
AcDbLine
 10
228.2887357346
 20
63.9838459811
 30
0.0
 11
228.2887357346
 21
35.4038459823
 31
0.0
  0
LINE
  5
3E7
330
1F
100
AcDbEntity
  8
0
  6
PHANTOM
 62
     7
370
    18
100
AcDbLine
 10
227.1887357346
 20
54.9545566582
 30
0.0
 11
218.3887357346
 21
54.9545566582
 31
0.0
  0
LINE
  5
3E8
330
1F
100
AcDbEntity
  8
0
  6
PHANTOM
 62
     7
370
    18
100
AcDbLine
 10
227.1887357346
 20
56.4394808987
 30
0.0
 11
218.3887357346
 21
56.4394808987
 31
0.0
  0
LINE
  5
3E9
330
1F
100
AcDbEntity
  8
0
  6
PHANTOM
 62
     7
370
    18
100
AcDbLine
 10
227.1887357346
 20
37.5282110625
 30
0.0
 11
218.3887357346
 21
37.5282110625
 31
0.0
  0
LINE
  5
3EA
330
1F
100
AcDbEntity
  8
0
  6
PHANTOM
 62
     7
370
    18
100
AcDbLine
 10
227.1887357346
 20
39.013135303
 30
0.0
 11
218.3887357346
 21
39.013135303
 31
0.0
  0
LINE
  5
3EB
330
1F
100
AcDbEntity
  8
0
  6
PHANTOM
 62
     7
370
    18
100
AcDbLine
 10
227.1887357346
 20
53.8989217407
 30
0.0
 11
218.3887357346
 21
53.8989217407
 31
0.0
  0
LINE
  5
3EC
330
1F
100
AcDbEntity
  8
0
  6
PHANTOM
 62
     7
370
    18
100
AcDbLine
 10
227.1887357346
 20
39.574628086
 30
0.0
 11
218.3887357346
 21
39.574628086
 31
0.0
  0
LINE
  5
3ED
330
1F
100
AcDbEntity
  8
0
  6
PHANTOM
 62
     7
370
    18
100
AcDbLine
 10
227.1887357346
 20
53.8282110625
 30
0.0
 11
218.3887357346
 21
53.8282110625
 31
0.0
  0
LINE
  5
3EE
330
1F
100
AcDbEntity
  8
0
  6
PHANTOM
 62
     7
370
    18
100
AcDbLine
 10
227.1887357346
 20
39.6311966285
 30
0.0
 11
218.3887357346
 21
39.6311966285
 31
0.0
  0
INSERT
  5
3FA
330
1F
100
AcDbEntity
  8
9
 62
     7
100
AcDbBlockReference
  2
SW_CENTERMARKSYMBOL_2
 10
206.7887357346
 20
58.9838459811
 30
0.0
  0
INSERT
  5
406
330
1F
100
AcDbEntity
  8
9
 62
     7
100
AcDbBlockReference
  2
SW_CENTERMARKSYMBOL_3
 10
238.7887357346
 20
58.9838459811
 30
0.0
  0
LINE
  5
407
330
1F
100
AcDbEntity
  8
9
  6
CENTERX2
 62
     7
370
    18
100
AcDbLine
 10
213.0313523753
 20
44.9838459811
 30
0.0
 11
200.4938121525
 21
44.9838459811
 31
0.0
  0
LINE
  5
408
330
1F
100
AcDbEntity
  8
9
  6
CENTERX2
 62
     7
370
    18
100
AcDbLine
 10
206.7887357346
 20
49.1661406669
 30
0.0
 11
206.7887357346
 21
40.8077805184
 31
0.0
  0
LINE
  5
409
330
1F
100
AcDbEntity
  8
9
  6
CENTERX2
 62
     7
370
    18
100
AcDbLine
 10
238.7887357346
 20
49.3618098873
 30
0.0
 11
238.7887357346
 21
40.5719895767
 31
0.0
  0
LINE
  5
40A
330
1F
100
AcDbEntity
  8
9
  6
CENTERX2
 62
     7
370
    18
100
AcDbLine
 10
232.4104392009
 20
44.9838459811
 30
0.0
 11
245.1146594897
 21
44.9838459811
 31
0.0
  0
LINE
  5
40B
330
1F
100
AcDbEntity
  8
9
  6
CENTERX2
 62
     7
370
    18
100
AcDbLine
 10
222.7887357341
 20
73.4271025105
 30
0.0
 11
222.7887357341
 21
15.5938548582
 31
0.0
  0
LINE
  5
40C
330
1F
100
AcDbEntity
  8
0
  6
Continuous
 62
     7
370
    25
100
AcDbLine
 10
126.4445591057
 20
106.4390661557
 30
0.0
 11
131.4445591077
 21
106.4390661557
 31
0.0
  0
LINE
  5
40D
330
1F
100
AcDbEntity
  8
0
  6
Continuous
 62
     7
370
    25
100
AcDbLine
 10
126.4445591067
 20
105.4390661557
 30
0.0
 11
126.4445591057
 21
106.4390661557
 31
0.0
  0
LINE
  5
40E
330
1F
100
AcDbEntity
  8
0
  6
Continuous
 62
     7
370
    25
100
AcDbLine
 10
126.4445591067
 20
105.4390661557
 30
0.0
 11
131.4445591077
 21
105.4390661557
 31
0.0
  0
LINE
  5
40F
330
1F
100
AcDbEntity
  8
0
  6
Continuous
 62
     7
370
    25
100
AcDbLine
 10
131.4445591077
 20
106.4390661557
 30
0.0
 11
153.4445591082
 21
106.4390661557
 31
0.0
  0
LINE
  5
410
330
1F
100
AcDbEntity
  8
0
  6
Continuous
 62
     7
370
    25
100
AcDbLine
 10
131.4445591077
 20
105.4390661557
 30
0.0
 11
153.4445591082
 21
105.4390661557
 31
0.0
  0
LINE
  5
411
330
1F
100
AcDbEntity
  8
0
  6
Continuous
 62
     7
370
    25
100
AcDbLine
 10
158.4445591077
 20
105.4390661557
 30
0.0
 11
158.4445591077
 21
106.4390661557
 31
0.0
  0
LINE
  5
412
330
1F
100
AcDbEntity
  8
0
  6
Continuous
 62
     7
370
    25
100
AcDbLine
 10
153.4445591082
 20
106.4390661557
 30
0.0
 11
158.4445591077
 21
106.4390661557
 31
0.0
  0
LINE
  5
413
330
1F
100
AcDbEntity
  8
0
  6
Continuous
 62
     7
370
    25
100
AcDbLine
 10
153.4445591082
 20
105.4390661557
 30
0.0
 11
158.4445591077
 21
105.4390661557
 31
0.0
  0
LINE
  5
414
330
1F
100
AcDbEntity
  8
0
  6
Continuous
 62
     7
370
    25
100
AcDbLine
 10
131.1945591085
 20
108.9390661552
 30
0.0
 11
153.6945591078
 21
108.9390661552
 31
0.0
  0
LINE
  5
415
330
1F
100
AcDbEntity
  8
0
  6
Continuous
 62
     7
370
    25
100
AcDbLine
 10
157.4445591077
 20
106.4390661557
 30
0.0
 11
157.4445591077
 21
107.9390661552
 31
0.0
  0
LINE
  5
416
330
1F
100
AcDbEntity
  8
0
  6
Continuous
 62
     7
370
    25
100
AcDbLine
 10
153.6945591078
 20
108.9390661552
 30
0.0
 11
156.4445591077
 21
108.9390661552
 31
0.0
  0
ARC
  5
417
330
1F
100
AcDbEntity
  8
0
  6
Continuous
 62
     7
370
    25
100
AcDbCircle
 10
156.4445591077
 20
107.9390661552
 30
0.0
 40
1.0
100
AcDbArc
 50
0.0
 51
90.0
  0
LINE
  5
418
330
1F
100
AcDbEntity
  8
0
  6
Continuous
 62
     7
370
    25
100
AcDbLine
 10
127.4445591077
 20
106.4390661557
 30
0.0
 11
127.4445591075
 21
107.9390661552
 31
0.0
  0
ARC
  5
419
330
1F
100
AcDbEntity
  8
0
  6
Continuous
 62
     7
370
    25
100
AcDbCircle
 10
128.4445591075
 20
107.9390661552
 30
0.0
 40
1.0
100
AcDbArc
 50
90.0
 51
180.0
  0
LINE
  5
41A
330
1F
100
AcDbEntity
  8
0
  6
Continuous
 62
     7
370
    25
100
AcDbLine
 10
128.4445591075
 20
108.9390661552
 30
0.0
 11
131.1945591085
 21
108.9390661552
 31
0.0
  0
LINE
  5
41B
330
1F
100
AcDbEntity
  8
0
  6
Continuous
 62
     7
370
    25
100
AcDbLine
 10
121.4445591077
 20
108.9390661552
 30
0.0
 11
128.4445591076
 21
108.9390661552
 31
0.0
  0
LINE
  5
41C
330
1F
100
AcDbEntity
  8
0
  6
Continuous
 62
     7
370
    25
100
AcDbLine
 10
121.4455592058
 20
106.4390661557
 30
0.0
 11
126.4445591057
 21
106.4390661557
 31
0.0
  0
LINE
  5
41D
330
1F
100
AcDbEntity
  8
0
  6
Continuous
 62
     7
370
    25
100
AcDbLine
 10
121.4455592058
 20
105.4390661557
 30
0.0
 11
126.4445591057
 21
105.4390661557
 31
0.0
  0
LINE
  5
41E
330
1F
100
AcDbEntity
  8
0
  6
Continuous
 62
     7
370
    25
100
AcDbLine
 10
112.4445591077
 20
105.4390661557
 30
0.0
 11
112.4445591077
 21
106.4390661557
 31
0.0
  0
LINE
  5
41F
330
1F
100
AcDbEntity
  8
0
  6
Continuous
 62
     7
370
    25
100
AcDbLine
 10
112.4445591077
 20
106.4390661557
 30
0.0
 11
121.4455592058
 21
106.4390661557
 31
0.0
  0
LINE
  5
420
330
1F
100
AcDbEntity
  8
0
  6
Continuous
 62
     7
370
    25
100
AcDbLine
 10
112.4445591077
 20
105.4390661557
 30
0.0
 11
121.4455592058
 21
105.4390661557
 31
0.0
  0
LINE
  5
421
330
1F
100
AcDbEntity
  8
0
  6
Continuous
 62
     7
370
    25
100
AcDbLine
 10
112.4445591077
 20
107.9390661552
 30
0.0
 11
112.4445591077
 21
106.4390661557
 31
0.0
  0
LINE
  5
422
330
1F
100
AcDbEntity
  8
0
  6
Continuous
 62
     7
370
    25
100
AcDbLine
 10
112.4445591077
 20
108.9390661552
 30
0.0
 11
121.3645591077
 21
108.9390661552
 31
0.0
  0
LINE
  5
423
330
1F
100
AcDbEntity
  8
0
  6
Continuous
 62
     7
370
    25
100
AcDbLine
 10
121.3645591077
 20
108.9390661552
 30
0.0
 11
121.4445591077
 21
108.9390661552
 31
0.0
  0
LINE
  5
424
330
1F
100
AcDbEntity
  8
0
  6
Continuous
 62
     7
370
    25
100
AcDbLine
 10
112.4445591077
 20
107.9390661552
 30
0.0
 11
112.4445591077
 21
108.9390661552
 31
0.0
  0
LINE
  5
425
330
1F
100
AcDbEntity
  8
0
  6
Continuous
 62
     7
370
    25
100
AcDbLine
 10
125.8645591089
 20
110.6890661552
 30
0.0
 11
125.8645591089
 21
109.6890661552
 31
0.0
  0
LINE
  5
426
330
1F
100
AcDbEntity
  8
0
  6
Continuous
 62
     7
370
    25
100
AcDbLine
 10
125.8645591089
 20
110.6890661552
 30
0.0
 11
148.6445591077
 21
110.6890661552
 31
0.0
  0
LINE
  5
427
330
1F
100
AcDbEntity
  8
0
  6
Continuous
 62
     7
370
    25
100
AcDbLine
 10
148.6445591077
 20
110.6890661552
 30
0.0
 11
151.6445591077
 21
110.6890661552
 31
0.0
  0
LINE
  5
428
330
1F
100
AcDbEntity
  8
0
  6
Continuous
 62
     7
370
    25
100
AcDbLine
 10
151.6445591077
 20
110.6890661552
 30
0.0
 11
154.4445591077
 21
110.6890661552
 31
0.0
  0
LINE
  5
429
330
1F
100
AcDbEntity
  8
0
  6
Continuous
 62
     7
370
    25
100
AcDbLine
 10
154.4445591077
 20
110.6890661552
 30
0.0
 11
154.4445591077
 21
109.6890661552
 31
0.0
  0
LINE
  5
42A
330
1F
100
AcDbEntity
  8
0
  6
Continuous
 62
     7
370
    25
100
AcDbLine
 10
125.8645591089
 20
109.6890661552
 30
0.0
 11
125.8645591089
 21
108.9390661552
 31
0.0
  0
LINE
  5
42B
330
1F
100
AcDbEntity
  8
0
  6
Continuous
 62
     7
370
    25
100
AcDbLine
 10
154.4445591077
 20
109.6890661552
 30
0.0
 11
154.4445591077
 21
108.9390661552
 31
0.0
  0
LINE
  5
42C
330
1F
100
AcDbEntity
  8
0
  6
Continuous
 62
     7
370
    25
100
AcDbLine
 10
148.8736878925
 20
110.8390661552
 30
0.0
 11
151.415430323
 21
110.8390661552
 31
0.0
  0
ARC
  5
42D
330
1F
100
AcDbEntity
  8
0
  6
Continuous
 62
     7
370
    25
100
AcDbCircle
 10
151.415430323
 20
110.5890661552
 30
0.0
 40
0.25
100
AcDbArc
 50
23.5781784782
 51
90.0
  0
ARC
  5
42E
330
1F
100
AcDbEntity
  8
0
  6
Continuous
 62
     7
370
    25
100
AcDbCircle
 10
148.8736878925
 20
110.5890661552
 30
0.0
 40
0.25
100
AcDbArc
 50
90.0
 51
156.4218215218
  0
LINE
  5
42F
330
1F
100
AcDbEntity
  8
0
  6
Continuous
 62
     7
370
    25
100
AcDbLine
 10
119.4445591077
 20
112.1390661546
 30
0.0
 11
116.4445591077
 21
112.1390661546
 31
0.0
  0
LINE
  5
430
330
1F
100
AcDbEntity
  8
0
  6
Continuous
 62
     7
370
    25
100
AcDbLine
 10
119.4445591077
 20
112.1390661546
 30
0.0
 11
119.1945591077
 21
111.8890661546
 31
0.0
  0
LINE
  5
431
330
1F
100
AcDbEntity
  8
0
  6
Continuous
 62
     7
370
    25
100
AcDbLine
 10
116.4445591077
 20
112.1390661546
 30
0.0
 11
116.6945591077
 21
111.8890661546
 31
0.0
  0
LINE
  5
432
330
1F
100
AcDbEntity
  8
0
  6
Continuous
 62
     7
370
    25
100
AcDbLine
 10
116.4445591077
 20
112.1390661546
 30
0.0
 11
116.4445591077
 21
108.9390661552
 31
0.0
  0
LINE
  5
433
330
1F
100
AcDbEntity
  8
0
  6
Continuous
 62
     7
370
    25
100
AcDbLine
 10
119.4445591077
 20
112.1390661546
 30
0.0
 11
119.4445591077
 21
108.9390661552
 31
0.0
  0
LINE
  5
434
330
1F
100
AcDbEntity
  8
0
  6
Continuous
 62
     7
370
    25
100
AcDbLine
 10
141.4445591077
 20
113.3390661546
 30
0.0
 11
141.4445591077
 21
110.6890661552
 31
0.0
  0
LINE
  5
435
330
1F
100
AcDbEntity
  8
0
  6
Continuous
 62
     7
370
    25
100
AcDbLine
 10
141.6945591077
 20
113.0890661546
 30
0.0
 11
141.4445591077
 21
113.3390661546
 31
0.0
  0
LINE
  5
436
330
1F
100
AcDbEntity
  8
0
  6
Continuous
 62
     7
370
    25
100
AcDbLine
 10
144.1945591077
 20
113.0890661546
 30
0.0
 11
144.4445591077
 21
113.3390661546
 31
0.0
  0
LINE
  5
437
330
1F
100
AcDbEntity
  8
0
  6
Continuous
 62
     7
370
    25
100
AcDbLine
 10
144.2889241891
 20
113.3390661546
 30
0.0
 11
141.4445591077
 21
113.3390661546
 31
0.0
  0
LINE
  5
438
330
1F
100
AcDbEntity
  8
0
  6
Continuous
 62
     7
370
    25
100
AcDbLine
 10
144.4445591077
 20
113.3390661546
 30
0.0
 11
144.2889241891
 21
113.3390661546
 31
0.0
  0
LINE
  5
439
330
1F
100
AcDbEntity
  8
0
  6
Continuous
 62
     7
370
    25
100
AcDbLine
 10
144.4445591077
 20
113.3390661546
 30
0.0
 11
144.4445591077
 21
113.2248525922
 31
0.0
  0
LINE
  5
43A
330
1F
100
AcDbEntity
  8
0
  6
Continuous
 62
     7
370
    25
100
AcDbLine
 10
144.4445591077
 20
113.2248525922
 30
0.0
 11
144.4445591077
 21
110.6890661552
 31
0.0
  0
LINE
  5
43B
330
1F
100
AcDbEntity
  8
0
  6
Continuous
 62
     7
370
    25
100
AcDbLine
 10
125.8645591127
 20
111.3390661564
 30
0.0
 11
121.3645591077
 21
111.339066156
 31
0.0
  0
LINE
  5
43C
330
1F
100
AcDbEntity
  8
0
  6
Continuous
 62
     7
370
    25
100
AcDbLine
 10
121.3645591077
 20
111.3390661557
 30
0.0
 11
121.3645591077
 21
108.9390661552
 31
0.0
  0
LINE
  5
43D
330
1F
100
AcDbEntity
  8
0
  6
Continuous
 62
     7
370
    25
100
AcDbLine
 10
125.8645591077
 20
111.3390661557
 30
0.0
 11
125.8645591077
 21
110.6890661552
 31
0.0
  0
LINE
  5
43E
330
1F
100
AcDbEntity
  8
0
  6
Continuous
 62
     7
370
    25
100
AcDbLine
 10
154.4445591077
 20
111.6390661557
 30
0.0
 11
154.4445591077
 21
110.6890661552
 31
0.0
  0
LINE
  5
43F
330
1F
100
AcDbEntity
  8
0
  6
Continuous
 62
     7
370
    25
100
AcDbLine
 10
113.0445591077
 20
113.1390661546
 30
0.0
 11
112.4445591077
 21
112.5390661546
 31
0.0
  0
LINE
  5
440
330
1F
100
AcDbEntity
  8
0
  6
Continuous
 62
     7
370
    25
100
AcDbLine
 10
113.0445591077
 20
113.1390661546
 30
0.0
 11
127.9889241891
 21
113.1390661546
 31
0.0
  0
LINE
  5
441
330
1F
100
AcDbEntity
  8
0
  6
Continuous
 62
     7
370
    25
100
AcDbLine
 10
112.4445591077
 20
112.1390661546
 30
0.0
 11
112.4445591077
 21
112.5390661546
 31
0.0
  0
LINE
  5
442
330
1F
100
AcDbEntity
  8
0
  6
Continuous
 62
     7
370
    25
100
AcDbLine
 10
112.4445591077
 20
108.9390661552
 30
0.0
 11
112.4445591077
 21
112.1390661546
 31
0.0
  0
ARC
  5
443
330
1F
100
AcDbEntity
  8
0
  6
Continuous
 62
     7
370
    25
100
AcDbCircle
 10
127.9889241891
 20
114.2390661546
 30
0.0
 40
1.100000000000003
100
AcDbArc
 50
270.0
 51
315.0
  0
LINE
  5
444
330
1F
100
AcDbEntity
  8
0
  6
Continuous
 62
     7
370
    25
100
AcDbLine
 10
128.7667416484
 20
113.4612486953
 30
0.0
 11
129.3282344314
 21
114.0227414783
 31
0.0
  0
ARC
  5
445
330
1F
100
AcDbEntity
  8
0
  6
Continuous
 62
     7
370
    25
100
AcDbCircle
 10
130.0919097551
 20
113.2590661546
 30
0.0
 40
1.079999999999998
100
AcDbArc
 50
90.0
 51
135.0
  0
LINE
  5
446
330
1F
100
AcDbEntity
  8
0
  6
Continuous
 62
     7
370
    25
100
AcDbLine
 10
130.0919097551
 20
114.3390661546
 30
0.0
 11
144.2889241891
 21
114.3390661546
 31
0.0
  0
LINE
  5
447
330
1F
100
AcDbEntity
  8
0
  6
Continuous
 62
     7
370
    25
100
AcDbLine
 10
145.0667416484
 20
114.0168836139
 30
0.0
 11
146.1223765659
 21
112.9612486964
 31
0.0
  0
ARC
  5
448
330
1F
100
AcDbEntity
  8
0
  6
Continuous
 62
     7
370
    25
100
AcDbCircle
 10
144.2889241891
 20
113.2390661546
 30
0.0
 40
1.100000000000009
100
AcDbArc
 50
45.0
 51
90.0
  0
ARC
  5
449
330
1F
100
AcDbEntity
  8
0
  6
Continuous
 62
     7
370
    25
100
AcDbCircle
 10
146.9001940252
 20
113.7390661557
 30
0.0
 40
1.099999999999994
100
AcDbArc
 50
225.0
 51
270.0
  0
LINE
  5
44A
330
1F
100
AcDbEntity
  8
0
  6
Continuous
 62
     7
370
    25
100
AcDbLine
 10
146.9001940252
 20
112.6390661557
 30
0.0
 11
154.4445591077
 21
112.6390661557
 31
0.0
  0
LINE
  5
44B
330
1F
100
AcDbEntity
  8
0
  6
Continuous
 62
     7
370
    25
100
AcDbLine
 10
154.4445591077
 20
112.6390661557
 30
0.0
 11
154.4445591077
 21
111.6390661557
 31
0.0
  0
LINE
  5
44C
330
1F
100
AcDbEntity
  8
0
  6
PHANTOM
 62
     7
370
    18
100
AcDbLine
 10
131.4445591077
 20
106.4390661557
 30
0.0
 11
131.4445591077
 21
105.4390661557
 31
0.0
  0
LINE
  5
44D
330
1F
100
AcDbEntity
  8
0
  6
PHANTOM
 62
     7
370
    18
100
AcDbLine
 10
153.4445591082
 20
105.4390661557
 30
0.0
 11
153.4445591082
 21
106.4390661557
 31
0.0
  0
LINE
  5
44E
330
1F
100
AcDbEntity
  8
0
  6
PHANTOM
 62
     7
370
    18
100
AcDbLine
 10
153.6945591077
 20
107.9390661552
 30
0.0
 11
131.1945591085
 21
107.9390661552
 31
0.0
  0
LINE
  5
44F
330
1F
100
AcDbEntity
  8
0
  6
PHANTOM
 62
     7
370
    18
100
AcDbLine
 10
131.1945591085
 20
107.9390661552
 30
0.0
 11
131.1945591085
 21
108.9390661552
 31
0.0
  0
LINE
  5
450
330
1F
100
AcDbEntity
  8
0
  6
PHANTOM
 62
     7
370
    18
100
AcDbLine
 10
153.6945591077
 20
107.9390661552
 30
0.0
 11
153.6945591078
 21
108.9390661552
 31
0.0
  0
LINE
  5
451
330
1F
100
AcDbEntity
  8
0
  6
PHANTOM
 62
     7
370
    18
100
AcDbLine
 10
153.694559108
 20
106.4390661557
 30
0.0
 11
153.6945591077
 21
107.9390661552
 31
0.0
  0
LINE
  5
452
330
1F
100
AcDbEntity
  8
0
  6
PHANTOM
 62
     7
370
    18
100
AcDbLine
 10
131.1945591085
 20
107.9390661552
 30
0.0
 11
131.1945591077
 21
106.4390661557
 31
0.0
  0
LINE
  5
453
330
1F
100
AcDbEntity
  8
0
  6
PHANTOM
 62
     7
370
    18
100
AcDbLine
 10
157.4445591077
 20
107.9390661552
 30
0.0
 11
153.6945591077
 21
107.9390661552
 31
0.0
  0
LINE
  5
454
330
1F
100
AcDbEntity
  8
0
  6
PHANTOM
 62
     7
370
    18
100
AcDbLine
 10
131.1945591085
 20
107.9390661552
 30
0.0
 11
127.4445591075
 21
107.9390661552
 31
0.0
  0
LINE
  5
455
330
1F
100
AcDbEntity
  8
0
  6
PHANTOM
 62
     7
370
    18
100
AcDbLine
 10
127.4445591076
 20
107.9390661552
 30
0.0
 11
121.4445591077
 21
107.9390661552
 31
0.0
  0
LINE
  5
456
330
1F
100
AcDbEntity
  8
0
  6
PHANTOM
 62
     7
370
    18
100
AcDbLine
 10
121.4445591077
 20
107.9390661552
 30
0.0
 11
121.4445591077
 21
108.9390661552
 31
0.0
  0
LINE
  5
457
330
1F
100
AcDbEntity
  8
0
  6
PHANTOM
 62
     7
370
    18
100
AcDbLine
 10
121.4455592058
 20
105.4390661557
 30
0.0
 11
121.4455592058
 21
106.4390661557
 31
0.0
  0
LINE
  5
458
330
1F
100
AcDbEntity
  8
0
  6
PHANTOM
 62
     7
370
    18
100
AcDbLine
 10
121.4445591077
 20
107.9390661552
 30
0.0
 11
121.4445591089
 21
106.4390661557
 31
0.0
  0
LINE
  5
459
330
1F
100
AcDbEntity
  8
0
  6
PHANTOM
 62
     7
370
    18
100
AcDbLine
 10
121.4445591077
 20
107.9390661552
 30
0.0
 11
112.4445591077
 21
107.9390661552
 31
0.0
  0
LINE
  5
45A
330
1F
100
AcDbEntity
  8
0
  6
PHANTOM
 62
     7
370
    18
100
AcDbLine
 10
125.8645591089
 20
109.6890661552
 30
0.0
 11
154.4445591077
 21
109.6890661552
 31
0.0
  0
LINE
  5
45B
330
1F
100
AcDbEntity
  8
0
  6
PHANTOM
 62
     7
370
    18
100
AcDbLine
 10
119.1945591077
 20
111.8890661546
 30
0.0
 11
116.6945591077
 21
111.8890661546
 31
0.0
  0
LINE
  5
45C
330
1F
100
AcDbEntity
  8
0
  6
PHANTOM
 62
     7
370
    18
100
AcDbLine
 10
116.6945591077
 20
111.8890661546
 30
0.0
 11
116.6945591077
 21
108.9390661552
 31
0.0
  0
LINE
  5
45D
330
1F
100
AcDbEntity
  8
0
  6
PHANTOM
 62
     7
370
    18
100
AcDbLine
 10
119.1945591077
 20
108.9390661552
 30
0.0
 11
119.1945591077
 21
111.8890661546
 31
0.0
  0
LINE
  5
45E
330
1F
100
AcDbEntity
  8
0
  6
PHANTOM
 62
     7
370
    18
100
AcDbLine
 10
141.6945591077
 20
113.0890661546
 30
0.0
 11
141.6945591077
 21
110.6890661552
 31
0.0
  0
LINE
  5
45F
330
1F
100
AcDbEntity
  8
0
  6
PHANTOM
 62
     7
370
    18
100
AcDbLine
 10
144.1945591077
 20
113.0890661546
 30
0.0
 11
141.6945591077
 21
113.0890661546
 31
0.0
  0
LINE
  5
460
330
1F
100
AcDbEntity
  8
0
  6
PHANTOM
 62
     7
370
    18
100
AcDbLine
 10
144.1945591077
 20
110.6890661552
 30
0.0
 11
144.1945591077
 21
113.0890661546
 31
0.0
  0
ARC
  5
461
330
1F
100
AcDbEntity
  8
0
  6
PHANTOM
 62
     7
370
    18
100
AcDbCircle
 10
127.9889241891
 20
114.2390661546
 30
0.0
 40
2.100000000000001
100
AcDbArc
 50
270.0
 51
315.0
  0
LINE
  5
462
330
1F
100
AcDbEntity
  8
0
  6
PHANTOM
 62
     7
370
    18
100
AcDbLine
 10
130.0353412126
 20
113.3156346971
 30
0.0
 11
129.4738484296
 21
112.7541419141
 31
0.0
  0
ARC
  5
463
330
1F
100
AcDbEntity
  8
0
  6
PHANTOM
 62
     7
370
    18
100
AcDbCircle
 10
130.0919097551
 20
113.2590661546
 30
0.0
 40
0.0799999999999983
100
AcDbArc
 50
90.0
 51
135.0
  0
LINE
  5
464
330
1F
100
AcDbEntity
  8
0
  6
PHANTOM
 62
     7
370
    18
100
AcDbLine
 10
141.4445591077
 20
113.3390661546
 30
0.0
 11
130.0919097551
 21
113.3390661546
 31
0.0
  0
LINE
  5
465
330
1F
100
AcDbEntity
  8
0
  6
PHANTOM
 62
     7
370
    18
100
AcDbLine
 10
127.9889241891
 20
112.1390661546
 30
0.0
 11
119.4445591077
 21
112.1390661546
 31
0.0
  0
ARC
  5
466
330
1F
100
AcDbEntity
  8
0
  6
PHANTOM
 62
     7
370
    18
100
AcDbCircle
 10
146.9001940252
 20
113.7390661557
 30
0.0
 40
2.100000000000009
100
AcDbArc
 50
225.0
 51
270.0
  0
LINE
  5
467
330
1F
100
AcDbEntity
  8
0
  6
PHANTOM
 62
     7
370
    18
100
AcDbLine
 10
154.4445591077
 20
111.6390661557
 30
0.0
 11
146.9001940252
 21
111.6390661557
 31
0.0
  0
LINE
  5
468
330
1F
100
AcDbEntity
  8
0
  6
PHANTOM
 62
     7
370
    18
100
AcDbLine
 10
145.4152697847
 20
112.2541419152
 30
0.0
 11
144.4445591077
 21
113.2248525922
 31
0.0
  0
LINE
  5
469
330
1F
100
AcDbEntity
  8
0
  6
PHANTOM
 62
     7
370
    18
100
AcDbLine
 10
127.9889241891
 20
113.1390661546
 30
0.0
 11
127.9889241891
 21
112.1390661546
 31
0.0
  0
LINE
  5
46A
330
1F
100
AcDbEntity
  8
0
  6
PHANTOM
 62
     7
370
    18
100
AcDbLine
 10
116.4445591077
 20
112.1390661546
 30
0.0
 11
112.4445591077
 21
112.1390661546
 31
0.0
  0
LINE
  5
46B
330
1F
100
AcDbEntity
  8
0
  6
PHANTOM
 62
     7
370
    18
100
AcDbLine
 10
128.7667416484
 20
113.4612486953
 30
0.0
 11
129.4738484296
 21
112.7541419141
 31
0.0
  0
LINE
  5
46C
330
1F
100
AcDbEntity
  8
0
  6
PHANTOM
 62
     7
370
    18
100
AcDbLine
 10
129.3282344314
 20
114.0227414783
 30
0.0
 11
130.0353412126
 21
113.3156346971
 31
0.0
  0
LINE
  5
46D
330
1F
100
AcDbEntity
  8
0
  6
PHANTOM
 62
     7
370
    18
100
AcDbLine
 10
130.0919097551
 20
114.3390661546
 30
0.0
 11
130.0919097551
 21
113.3390661546
 31
0.0
  0
LINE
  5
46E
330
1F
100
AcDbEntity
  8
0
  6
PHANTOM
 62
     7
370
    18
100
AcDbLine
 10
144.2889241891
 20
114.3390661546
 30
0.0
 11
144.2889241891
 21
113.3390661546
 31
0.0
  0
LINE
  5
46F
330
1F
100
AcDbEntity
  8
0
  6
PHANTOM
 62
     7
370
    18
100
AcDbLine
 10
146.1223765659
 20
112.9612486964
 30
0.0
 11
145.4152697847
 21
112.2541419152
 31
0.0
  0
LINE
  5
470
330
1F
100
AcDbEntity
  8
0
  6
PHANTOM
 62
     7
370
    18
100
AcDbLine
 10
145.0667416484
 20
114.0168836139
 30
0.0
 11
144.3889241891
 21
113.3390661546
 31
0.0
  0
LINE
  5
471
330
1F
100
AcDbEntity
  8
0
  6
PHANTOM
 62
     7
370
    18
100
AcDbLine
 10
146.9001940252
 20
112.6390661557
 30
0.0
 11
146.9001940252
 21
111.6390661557
 31
0.0
  0
LINE
  5
472
330
1F
100
AcDbEntity
  8
9
  6
CENTERX2
 62
     7
370
    18
100
AcDbLine
 10
135.4445591077
 20
103.2125609048
 30
0.0
 11
135.4445591077
 21
110.0587128309
 31
0.0
  0
LINE
  5
473
330
1F
100
AcDbEntity
  8
9
  6
CENTERX2
 62
     7
370
    18
100
AcDbLine
 10
149.4445591077
 20
103.1440993856
 30
0.0
 11
149.4445591077
 21
110.1271743501
 31
0.0
  0
LINE
  5
474
330
1F
100
AcDbEntity
  8
0
  6
Continuous
 62
     7
370
    25
100
AcDbLine
 10
43.4077363768
 20
112.1390661546
 30
0.0
 11
43.4077363768
 21
108.8390661553
 31
0.0
  0
ARC
  5
475
330
1F
100
AcDbEntity
  8
0
  6
Continuous
 62
     7
370
    25
100
AcDbCircle
 10
42.3077458037
 20
108.8345121308
 30
0.0
 40
1.099999999999997
100
AcDbArc
 50
275.2154155093
 51
0.2372064817
  0
LINE
  5
476
330
1F
100
AcDbEntity
  8
0
  6
Continuous
 62
     7
370
    25
100
AcDbLine
 10
39.9077363822
 20
107.7390661552
 30
0.0
 11
42.4077363768
 21
107.7390661552
 31
0.0
  0
LINE
  5
477
330
1F
100
AcDbEntity
  8
0
  6
Continuous
 62
     7
370
    25
100
AcDbLine
 10
39.9077363768
 20
107.7390661557
 30
0.0
 11
39.9077363768
 21
106.4390661557
 31
0.0
  0
ARC
  5
478
330
1F
100
AcDbEntity
  8
0
  6
Continuous
 62
     7
370
    25
100
AcDbCircle
 10
38.8077363768
 20
106.4390661557
 30
0.0
 40
1.100000000000001
100
AcDbArc
 50
294.6199773287
 51
0.0
  0
LINE
  5
479
330
1F
100
AcDbEntity
  8
0
  6
Continuous
 62
     7
370
    25
100
AcDbLine
 10
37.7077363752
 20
105.4390661557
 30
0.0
 11
39.2659939462
 21
105.4390661557
 31
0.0
  0
LINE
  5
47A
330
1F
100
AcDbEntity
  8
0
  6
Continuous
 62
     7
370
    25
100
AcDbLine
 10
37.7077363752
 20
105.4390661557
 30
0.0
 11
37.7077363752
 21
106.4390661557
 31
0.0
  0
LINE
  5
47B
330
1F
100
AcDbEntity
  8
0
  6
Continuous
 62
     7
370
    25
100
AcDbLine
 10
37.7077363752
 20
106.4390661557
 30
0.0
 11
38.8077363768
 21
106.4390661557
 31
0.0
  0
LINE
  5
47C
330
1F
100
AcDbEntity
  8
0
  6
Continuous
 62
     7
370
    25
100
AcDbLine
 10
38.8077363768
 20
107.9390661552
 30
0.0
 11
38.8077363768
 21
106.4390661557
 31
0.0
  0
ARC
  5
47D
330
1F
100
AcDbEntity
  8
0
  6
Continuous
 62
     7
370
    25
100
AcDbCircle
 10
39.8077363768
 20
107.9390661552
 30
0.0
 40
1.0
100
AcDbArc
 50
90.0
 51
180.0
  0
LINE
  5
47E
330
1F
100
AcDbEntity
  8
0
  6
Continuous
 62
     7
370
    25
100
AcDbLine
 10
39.8077363768
 20
108.9390661552
 30
0.0
 11
42.4077363768
 21
108.9390661552
 31
0.0
  0
LINE
  5
47F
330
1F
100
AcDbEntity
  8
0
  6
Continuous
 62
     7
370
    25
100
AcDbLine
 10
42.4077363768
 20
112.1390661546
 30
0.0
 11
42.4077363768
 21
108.9390661552
 31
0.0
  0
ARC
  5
480
330
1F
100
AcDbEntity
  8
0
  6
Continuous
 62
     7
370
    25
100
AcDbCircle
 10
43.4077363768
 20
112.1390661546
 30
0.0
 40
1.000000000000007
100
AcDbArc
 50
156.4218215218
 51
180.0
  0
LINE
  5
481
330
1F
100
AcDbEntity
  8
0
  6
Continuous
 62
     7
370
    25
100
AcDbLine
 10
53.1242515157
 20
112.5390661546
 30
0.0
 11
42.4912212378
 21
112.5390661546
 31
0.0
  0
ARC
  5
482
330
1F
100
AcDbEntity
  8
0
  6
Continuous
 62
     7
370
    25
100
AcDbCircle
 10
52.2077363768
 20
112.1390661546
 30
0.0
 40
1.000000000000007
100
AcDbArc
 50
0.0
 51
23.5781784782
  0
LINE
  5
483
330
1F
100
AcDbEntity
  8
0
  6
Continuous
 62
     7
370
    25
100
AcDbLine
 10
53.2077363768
 20
108.9390661552
 30
0.0
 11
53.2077363768
 21
112.1390661546
 31
0.0
  0
LINE
  5
484
330
1F
100
AcDbEntity
  8
0
  6
Continuous
 62
     7
370
    25
100
AcDbLine
 10
53.2077363768
 20
108.9390661552
 30
0.0
 11
55.8077363768
 21
108.9390661552
 31
0.0
  0
ARC
  5
485
330
1F
100
AcDbEntity
  8
0
  6
Continuous
 62
     7
370
    25
100
AcDbCircle
 10
55.8077363768
 20
107.9390661552
 30
0.0
 40
1.0
100
AcDbArc
 50
0.0
 51
90.0
  0
LINE
  5
486
330
1F
100
AcDbEntity
  8
0
  6
Continuous
 62
     7
370
    25
100
AcDbLine
 10
56.8077363768
 20
107.9390661552
 30
0.0
 11
56.8077363768
 21
106.4390661557
 31
0.0
  0
LINE
  5
487
330
1F
100
AcDbEntity
  8
0
  6
Continuous
 62
     7
370
    25
100
AcDbLine
 10
56.8077363768
 20
106.4390661557
 30
0.0
 11
57.9077363784
 21
106.4390661557
 31
0.0
  0
LINE
  5
488
330
1F
100
AcDbEntity
  8
0
  6
Continuous
 62
     7
370
    25
100
AcDbLine
 10
57.9077363784
 20
105.4390661557
 30
0.0
 11
57.9077363784
 21
106.4390661557
 31
0.0
  0
LINE
  5
489
330
1F
100
AcDbEntity
  8
0
  6
Continuous
 62
     7
370
    25
100
AcDbLine
 10
56.3494788073
 20
105.4390661557
 30
0.0
 11
57.9077363784
 21
105.4390661557
 31
0.0
  0
ARC
  5
48A
330
1F
100
AcDbEntity
  8
0
  6
Continuous
 62
     7
370
    25
100
AcDbCircle
 10
56.8077363768
 20
106.4390661557
 30
0.0
 40
1.099999999999998
100
AcDbArc
 50
180.0
 51
245.3800226713
  0
LINE
  5
48B
330
1F
100
AcDbEntity
  8
0
  6
Continuous
 62
     7
370
    25
100
AcDbLine
 10
55.7077363768
 20
107.7390661557
 30
0.0
 11
55.7077363768
 21
106.4390661557
 31
0.0
  0
LINE
  5
48C
330
1F
100
AcDbEntity
  8
0
  6
Continuous
 62
     7
370
    25
100
AcDbLine
 10
53.2077363768
 20
107.7390661552
 30
0.0
 11
55.7077363695
 21
107.7390661552
 31
0.0
  0
ARC
  5
48D
330
1F
100
AcDbEntity
  8
0
  6
Continuous
 62
     7
370
    25
100
AcDbCircle
 10
53.3077269498
 20
108.8345121308
 30
0.0
 40
1.100000000001866
100
AcDbArc
 50
179.7627934969
 51
264.7845844907
  0
LINE
  5
48E
330
1F
100
AcDbEntity
  8
0
  6
Continuous
 62
     7
370
    25
100
AcDbLine
 10
52.2077363768
 20
108.8390661557
 30
0.0
 11
52.2077363768
 21
112.1390661546
 31
0.0
  0
LINE
  5
48F
330
1F
100
AcDbEntity
  8
0
  6
Continuous
 62
     7
370
    25
100
AcDbLine
 10
52.2077363768
 20
112.1390661546
 30
0.0
 11
43.4077363768
 21
112.1390661546
 31
0.0
  0
ARC
  5
490
330
1F
100
AcDbEntity
  8
0
  6
Continuous
 62
     7
370
    25
100
AcDbCircle
 10
43.4077363768
 20
112.1390661546
 30
0.0
 40
1.000000000000007
100
AcDbArc
 50
90.0
 51
156.4218215218
  0
LINE
  5
491
330
1F
100
AcDbEntity
  8
0
  6
Continuous
 62
     7
370
    25
100
AcDbLine
 10
43.4077363768
 20
113.1390661546
 30
0.0
 11
52.2077363768
 21
113.1390661546
 31
0.0
  0
ARC
  5
492
330
1F
100
AcDbEntity
  8
0
  6
Continuous
 62
     7
370
    25
100
AcDbCircle
 10
52.2077363768
 20
112.1390661546
 30
0.0
 40
1.0
100
AcDbArc
 50
23.5781784782
 51
90.0
  0
LINE
  5
493
330
1F
100
AcDbEntity
  8
0
  6
Continuous
 62
     7
370
    25
100
AcDbLine
 10
42.1577363768
 20
108.9390661552
 30
0.0
 11
42.1577363768
 21
111.8890661546
 31
0.0
  0
ARC
  5
494
330
1F
100
AcDbEntity
  8
0
  6
Continuous
 62
     7
370
    25
100
AcDbCircle
 10
42.4077363768
 20
111.8890661546
 30
0.0
 40
0.25
100
AcDbArc
 50
90.0
 51
180.0
  0
ARC
  5
495
330
1F
100
AcDbEntity
  8
0
  6
Continuous
 62
     7
370
    25
100
AcDbCircle
 10
53.2077363768
 20
111.8890661546
 30
0.0
 40
0.25
100
AcDbArc
 50
0.0
 51
90.0
  0
LINE
  5
496
330
1F
100
AcDbEntity
  8
0
  6
Continuous
 62
     7
370
    25
100
AcDbLine
 10
53.4577363768
 20
111.8890661546
 30
0.0
 11
53.4577363768
 21
108.9390661552
 31
0.0
  0
LINE
  5
497
330
1F
100
AcDbEntity
  8
0
  6
Continuous
 62
     7
370
    25
100
AcDbLine
 10
32.8077363758
 20
106.4390661557
 30
0.0
 11
32.8077363758
 21
105.4390661557
 31
0.0
  0
LINE
  5
498
330
1F
100
AcDbEntity
  8
0
  6
Continuous
 62
     7
370
    25
100
AcDbLine
 10
32.8077363758
 20
105.4390661557
 30
0.0
 11
37.7077363752
 21
105.4390661557
 31
0.0
  0
LINE
  5
499
330
1F
100
AcDbEntity
  8
0
  6
Continuous
 62
     7
370
    25
100
AcDbLine
 10
32.8077363758
 20
106.4390661557
 30
0.0
 11
37.7077363752
 21
106.4390661557
 31
0.0
  0
LINE
  5
49A
330
1F
100
AcDbEntity
  8
0
  6
Continuous
 62
     7
370
    25
100
AcDbLine
 10
55.8077363768
 20
108.9390661552
 30
0.0
 11
62.8077363768
 21
108.9390661552
 31
0.0
  0
LINE
  5
49B
330
1F
100
AcDbEntity
  8
0
  6
Continuous
 62
     7
370
    25
100
AcDbLine
 10
32.8077363741
 20
108.9390661552
 30
0.0
 11
39.8077363768
 21
108.9390661552
 31
0.0
  0
LINE
  5
49C
330
1F
100
AcDbEntity
  8
0
  6
Continuous
 62
     7
370
    25
100
AcDbLine
 10
62.8077363768
 20
106.4390661557
 30
0.0
 11
62.8077363768
 21
105.4390661557
 31
0.0
  0
LINE
  5
49D
330
1F
100
AcDbEntity
  8
0
  6
Continuous
 62
     7
370
    25
100
AcDbLine
 10
57.9077363784
 20
105.4390661557
 30
0.0
 11
62.8077363768
 21
105.4390661557
 31
0.0
  0
LINE
  5
49E
330
1F
100
AcDbEntity
  8
0
  6
Continuous
 62
     7
370
    25
100
AcDbLine
 10
57.9077363784
 20
106.4390661557
 30
0.0
 11
62.8077363768
 21
106.4390661557
 31
0.0
  0
LINE
  5
49F
330
1F
100
AcDbEntity
  8
0
  6
Continuous
 62
     7
370
    25
100
AcDbLine
 10
53.4577363768
 20
110.6890661552
 30
0.0
 11
55.8077363768
 21
110.6890661552
 31
0.0
  0
ARC
  5
4A0
330
1F
100
AcDbEntity
  8
0
  6
Continuous
 62
     7
370
    25
100
AcDbCircle
 10
55.8077363768
 20
109.6890661552
 30
0.0
 40
1.0
100
AcDbArc
 50
0.0
 51
90.0
  0
LINE
  5
4A1
330
1F
100
AcDbEntity
  8
0
  6
Continuous
 62
     7
370
    25
100
AcDbLine
 10
56.8077363768
 20
109.6890661552
 30
0.0
 11
56.8077363768
 21
108.9390661552
 31
0.0
  0
LINE
  5
4A2
330
1F
100
AcDbEntity
  8
0
  6
Continuous
 62
     7
370
    25
100
AcDbLine
 10
55.8077363768
 20
109.6890661552
 30
0.0
 11
53.4577363768
 21
109.6890661552
 31
0.0
  0
LINE
  5
4A3
330
1F
100
AcDbEntity
  8
0
  6
Continuous
 62
     7
370
    25
100
AcDbLine
 10
55.8077363768
 20
108.9390661552
 30
0.0
 11
55.8077363768
 21
109.6890661552
 31
0.0
  0
LINE
  5
4A4
330
1F
100
AcDbEntity
  8
0
  6
Continuous
 62
     7
370
    25
100
AcDbLine
 10
38.8077363768
 20
108.9390661552
 30
0.0
 11
38.8077363768
 21
109.6890661552
 31
0.0
  0
ARC
  5
4A5
330
1F
100
AcDbEntity
  8
0
  6
Continuous
 62
     7
370
    25
100
AcDbCircle
 10
39.8077363768
 20
109.6890661552
 30
0.0
 40
1.0
100
AcDbArc
 50
90.0
 51
180.0
  0
LINE
  5
4A6
330
1F
100
AcDbEntity
  8
0
  6
Continuous
 62
     7
370
    25
100
AcDbLine
 10
39.8077363768
 20
110.6890661552
 30
0.0
 11
42.1577363768
 21
110.6890661552
 31
0.0
  0
LINE
  5
4A7
330
1F
100
AcDbEntity
  8
0
  6
Continuous
 62
     7
370
    25
100
AcDbLine
 10
42.1577363768
 20
109.6890661552
 30
0.0
 11
39.8077363768
 21
109.6890661552
 31
0.0
  0
LINE
  5
4A8
330
1F
100
AcDbEntity
  8
0
  6
Continuous
 62
     7
370
    25
100
AcDbLine
 10
39.8077363768
 20
109.6890661552
 30
0.0
 11
39.8077363768
 21
108.9390661552
 31
0.0
  0
LINE
  5
4A9
330
1F
100
AcDbEntity
  8
0
  6
Continuous
 62
     7
370
    25
100
AcDbLine
 10
22.2077363768
 20
105.4390661557
 30
0.0
 11
22.2077363768
 21
106.4390661557
 31
0.0
  0
LINE
  5
4AA
330
1F
100
AcDbEntity
  8
0
  6
Continuous
 62
     7
370
    25
100
AcDbLine
 10
22.2077363768
 20
105.4390661557
 30
0.0
 11
27.2077363768
 21
105.4390661557
 31
0.0
  0
LINE
  5
4AB
330
1F
100
AcDbEntity
  8
0
  6
Continuous
 62
     7
370
    25
100
AcDbLine
 10
22.2077363768
 20
106.4390661557
 30
0.0
 11
27.2077363768
 21
106.4390661557
 31
0.0
  0
LINE
  5
4AC
330
1F
100
AcDbEntity
  8
0
  6
Continuous
 62
     7
370
    25
100
AcDbLine
 10
27.2077363768
 20
105.4390661557
 30
0.0
 11
32.8077363758
 21
105.4390661557
 31
0.0
  0
LINE
  5
4AD
330
1F
100
AcDbEntity
  8
0
  6
Continuous
 62
     7
370
    25
100
AcDbLine
 10
27.2077363768
 20
106.4390661557
 30
0.0
 11
32.8077363758
 21
106.4390661557
 31
0.0
  0
LINE
  5
4AE
330
1F
100
AcDbEntity
  8
0
  6
Continuous
 62
     7
370
    25
100
AcDbLine
 10
62.8077363768
 20
105.4390661557
 30
0.0
 11
68.4077363762
 21
105.4390661557
 31
0.0
  0
LINE
  5
4AF
330
1F
100
AcDbEntity
  8
0
  6
Continuous
 62
     7
370
    25
100
AcDbLine
 10
62.8077363768
 20
106.4390661557
 30
0.0
 11
68.4077363762
 21
106.4390661557
 31
0.0
  0
LINE
  5
4B0
330
1F
100
AcDbEntity
  8
0
  6
Continuous
 62
     7
370
    25
100
AcDbLine
 10
73.4077363768
 20
106.4390661557
 30
0.0
 11
73.4077363768
 21
105.4390661557
 31
0.0
  0
LINE
  5
4B1
330
1F
100
AcDbEntity
  8
0
  6
Continuous
 62
     7
370
    25
100
AcDbLine
 10
68.4077363762
 20
105.4390661557
 30
0.0
 11
73.4077363768
 21
105.4390661557
 31
0.0
  0
LINE
  5
4B2
330
1F
100
AcDbEntity
  8
0
  6
Continuous
 62
     7
370
    25
100
AcDbLine
 10
68.4077363762
 20
106.4390661557
 30
0.0
 11
73.4077363768
 21
106.4390661557
 31
0.0
  0
LINE
  5
4B3
330
1F
100
AcDbEntity
  8
0
  6
Continuous
 62
     7
370
    25
100
AcDbLine
 10
62.8077363768
 20
108.9390661552
 30
0.0
 11
68.4077363768
 21
108.9390661552
 31
0.0
  0
LINE
  5
4B4
330
1F
100
AcDbEntity
  8
0
  6
Continuous
 62
     7
370
    25
100
AcDbLine
 10
72.1577363768
 20
107.9390661552
 30
0.0
 11
72.1577363768
 21
106.4390661557
 31
0.0
  0
ARC
  5
4B5
330
1F
100
AcDbEntity
  8
0
  6
Continuous
 62
     7
370
    25
100
AcDbCircle
 10
71.1577363768
 20
107.9390661552
 30
0.0
 40
1.0
100
AcDbArc
 50
0.0
 51
90.0
  0
LINE
  5
4B6
330
1F
100
AcDbEntity
  8
0
  6
Continuous
 62
     7
370
    25
100
AcDbLine
 10
68.4077363768
 20
108.9390661552
 30
0.0
 11
71.1577363768
 21
108.9390661552
 31
0.0
  0
LINE
  5
4B7
330
1F
100
AcDbEntity
  8
0
  6
Continuous
 62
     7
370
    25
100
AcDbLine
 10
23.4577363768
 20
106.4390661557
 30
0.0
 11
23.4577363768
 21
107.9390661552
 31
0.0
  0
ARC
  5
4B8
330
1F
100
AcDbEntity
  8
0
  6
Continuous
 62
     7
370
    25
100
AcDbCircle
 10
24.4577363768
 20
107.9390661552
 30
0.0
 40
1.0
100
AcDbArc
 50
90.0
 51
180.0
  0
LINE
  5
4B9
330
1F
100
AcDbEntity
  8
0
  6
Continuous
 62
     7
370
    25
100
AcDbLine
 10
24.4577363768
 20
108.9390661552
 30
0.0
 11
27.2077363768
 21
108.9390661552
 31
0.0
  0
LINE
  5
4BA
330
1F
100
AcDbEntity
  8
0
  6
Continuous
 62
     7
370
    25
100
AcDbLine
 10
27.2077363768
 20
108.9390661552
 30
0.0
 11
32.8077363741
 21
108.9390661552
 31
0.0
  0
LINE
  5
4BB
330
1F
100
AcDbEntity
  8
0
  6
Continuous
 62
     7
370
    25
100
AcDbLine
 10
42.4077363768
 20
112.1390661546
 30
0.0
 11
42.4077363768
 21
112.7541419141
 31
0.0
  0
LINE
  5
4BC
330
1F
100
AcDbEntity
  8
0
  6
Continuous
 62
     7
370
    25
100
AcDbLine
 10
53.2077363768
 20
112.7541419141
 30
0.0
 11
53.2077363768
 21
112.1390661546
 31
0.0
  0
LINE
  5
4BD
330
1F
100
AcDbEntity
  8
0
  6
Continuous
 62
     7
370
    25
100
AcDbLine
 10
42.4077363768
 20
112.7541419141
 30
0.0
 11
42.4077363768
 21
113.3156346971
 31
0.0
  0
LINE
  5
4BE
330
1F
100
AcDbEntity
  8
0
  6
Continuous
 62
     7
370
    25
100
AcDbLine
 10
53.2077363768
 20
113.3156346971
 30
0.0
 11
53.2077363768
 21
112.7541419141
 31
0.0
  0
ARC
  5
4BF
330
1F
100
AcDbEntity
  8
0
  6
Continuous
 62
     7
370
    25
100
AcDbCircle
 10
43.4077363768
 20
113.3390661546
 30
0.0
 40
1.0
100
AcDbArc
 50
90.0
 51
180.0
  0
LINE
  5
4C0
330
1F
100
AcDbEntity
  8
0
  6
Continuous
 62
     7
370
    25
100
AcDbLine
 10
42.4077363768
 20
113.3156346971
 30
0.0
 11
42.4077363768
 21
113.3390661546
 31
0.0
  0
LINE
  5
4C1
330
1F
100
AcDbEntity
  8
0
  6
Continuous
 62
     7
370
    25
100
AcDbLine
 10
52.2077363768
 20
114.3390661546
 30
0.0
 11
43.4077363768
 21
114.3390661546
 31
0.0
  0
ARC
  5
4C2
330
1F
100
AcDbEntity
  8
0
  6
Continuous
 62
     7
370
    25
100
AcDbCircle
 10
52.2077363768
 20
113.3390661546
 30
0.0
 40
1.000000000000014
100
AcDbArc
 50
0.0
 51
90.0
  0
LINE
  5
4C3
330
1F
100
AcDbEntity
  8
0
  6
Continuous
 62
     7
370
    25
100
AcDbLine
 10
53.2077363768
 20
113.3390661546
 30
0.0
 11
53.2077363768
 21
113.3156346971
 31
0.0
  0
LINE
  5
4C4
330
1F
100
AcDbEntity
  8
0
  6
Continuous
 62
     7
370
    25
100
AcDbLine
 10
42.1577363768
 20
111.8890661546
 30
0.0
 11
42.1577363768
 21
113.0890661546
 31
0.0
  0
ARC
  5
4C5
330
1F
100
AcDbEntity
  8
0
  6
Continuous
 62
     7
370
    25
100
AcDbCircle
 10
42.4077363768
 20
113.0890661546
 30
0.0
 40
0.25
100
AcDbArc
 50
90.0
 51
180.0
  0
LINE
  5
4C6
330
1F
100
AcDbEntity
  8
0
  6
Continuous
 62
     7
370
    25
100
AcDbLine
 10
53.4577363768
 20
113.0890661546
 30
0.0
 11
53.4577363768
 21
111.8890661546
 31
0.0
  0
ARC
  5
4C7
330
1F
100
AcDbEntity
  8
0
  6
Continuous
 62
     7
370
    25
100
AcDbCircle
 10
53.2077363768
 20
113.0890661546
 30
0.0
 40
0.25
100
AcDbArc
 50
0.0
 51
90.0
  0
LINE
  5
4C8
330
1F
100
AcDbEntity
  8
0
  6
Continuous
 62
     7
370
    25
100
AcDbLine
 10
43.4077363768
 20
111.6390661557
 30
0.0
 11
52.2077363768
 21
111.6390661557
 31
0.0
  0
LINE
  5
4C9
330
1F
100
AcDbEntity
  8
0
  6
Continuous
 62
     7
370
    25
100
AcDbLine
 10
40.0368651615
 20
110.8390661552
 30
0.0
 11
42.1577363768
 21
110.8390661552
 31
0.0
  0
ARC
  5
4CA
330
1F
100
AcDbEntity
  8
0
  6
Continuous
 62
     7
370
    25
100
AcDbCircle
 10
40.0368651615
 20
110.5890661552
 30
0.0
 40
0.25
100
AcDbArc
 50
90.0
 51
156.4218215218
  0
LINE
  5
4CB
330
1F
100
AcDbEntity
  8
0
  6
Continuous
 62
     7
370
    25
100
AcDbLine
 10
53.4577363768
 20
110.8390661552
 30
0.0
 11
55.578607592
 21
110.8390661552
 31
0.0
  0
ARC
  5
4CC
330
1F
100
AcDbEntity
  8
0
  6
Continuous
 62
     7
370
    25
100
AcDbCircle
 10
55.578607592
 20
110.5890661552
 30
0.0
 40
0.25
100
AcDbArc
 50
23.5781784782
 51
90.0
  0
LINE
  5
4CD
330
1F
100
AcDbEntity
  8
0
  6
PHANTOM
 62
     7
370
    18
100
AcDbLine
 10
62.8077363768
 20
107.9390661552
 30
0.0
 11
56.8077363768
 21
107.9390661552
 31
0.0
  0
LINE
  5
4CE
330
1F
100
AcDbEntity
  8
0
  6
PHANTOM
 62
     7
370
    18
100
AcDbLine
 10
62.8077363768
 20
107.9390661552
 30
0.0
 11
62.8077363768
 21
108.9390661552
 31
0.0
  0
LINE
  5
4CF
330
1F
100
AcDbEntity
  8
0
  6
PHANTOM
 62
     7
370
    18
100
AcDbLine
 10
32.8077363744
 20
107.9390661552
 30
0.0
 11
32.8077363756
 21
106.4390661557
 31
0.0
  0
LINE
  5
4D0
330
1F
100
AcDbEntity
  8
0
  6
PHANTOM
 62
     7
370
    18
100
AcDbLine
 10
38.8077363768
 20
107.9390661552
 30
0.0
 11
32.8077363744
 21
107.9390661552
 31
0.0
  0
LINE
  5
4D1
330
1F
100
AcDbEntity
  8
0
  6
PHANTOM
 62
     7
370
    18
100
AcDbLine
 10
32.8077363744
 20
107.9390661552
 30
0.0
 11
32.8077363741
 21
108.9390661552
 31
0.0
  0
LINE
  5
4D2
330
1F
100
AcDbEntity
  8
0
  6
PHANTOM
 62
     7
370
    18
100
AcDbLine
 10
62.8077363768
 20
107.9390661552
 30
0.0
 11
62.8077363768
 21
106.4390661557
 31
0.0
  0
LINE
  5
4D3
330
1F
100
AcDbEntity
  8
0
  6
PHANTOM
 62
     7
370
    18
100
AcDbLine
 10
27.2077363768
 20
105.4390661557
 30
0.0
 11
27.2077363768
 21
106.4390661557
 31
0.0
  0
LINE
  5
4D4
330
1F
100
AcDbEntity
  8
0
  6
PHANTOM
 62
     7
370
    18
100
AcDbLine
 10
68.4077363762
 20
105.4390661557
 30
0.0
 11
68.4077363762
 21
106.4390661557
 31
0.0
  0
LINE
  5
4D5
330
1F
100
AcDbEntity
  8
0
  6
PHANTOM
 62
     7
370
    18
100
AcDbLine
 10
68.4077363768
 20
107.9390661552
 30
0.0
 11
62.8077363768
 21
107.9390661552
 31
0.0
  0
LINE
  5
4D6
330
1F
100
AcDbEntity
  8
0
  6
PHANTOM
 62
     7
370
    18
100
AcDbLine
 10
68.4077363764
 20
106.4390661557
 30
0.0
 11
68.4077363768
 21
107.9390661552
 31
0.0
  0
LINE
  5
4D7
330
1F
100
AcDbEntity
  8
0
  6
PHANTOM
 62
     7
370
    18
100
AcDbLine
 10
68.4077363768
 20
107.9390661552
 30
0.0
 11
68.4077363768
 21
108.9390661552
 31
0.0
  0
LINE
  5
4D8
330
1F
100
AcDbEntity
  8
0
  6
PHANTOM
 62
     7
370
    18
100
AcDbLine
 10
72.1577363768
 20
107.9390661552
 30
0.0
 11
68.4077363768
 21
107.9390661552
 31
0.0
  0
LINE
  5
4D9
330
1F
100
AcDbEntity
  8
0
  6
PHANTOM
 62
     7
370
    18
100
AcDbLine
 10
27.2077363768
 20
107.9390661552
 30
0.0
 11
23.4577363768
 21
107.9390661552
 31
0.0
  0
LINE
  5
4DA
330
1F
100
AcDbEntity
  8
0
  6
PHANTOM
 62
     7
370
    18
100
AcDbLine
 10
27.2077363768
 20
106.4390661557
 30
0.0
 11
27.2077363768
 21
107.9390661552
 31
0.0
  0
LINE
  5
4DB
330
1F
100
AcDbEntity
  8
0
  6
PHANTOM
 62
     7
370
    18
100
AcDbLine
 10
27.2077363768
 20
107.9390661552
 30
0.0
 11
27.2077363768
 21
108.9390661552
 31
0.0
  0
LINE
  5
4DC
330
1F
100
AcDbEntity
  8
0
  6
PHANTOM
 62
     7
370
    18
100
AcDbLine
 10
32.8077363744
 20
107.9390661552
 30
0.0
 11
27.2077363768
 21
107.9390661552
 31
0.0
  0
ARC
  5
4DD
330
1F
100
AcDbEntity
  8
0
  6
PHANTOM
 62
     7
370
    18
100
AcDbCircle
 10
43.2827363768
 20
112.5773652188
 30
0.0
 40
0.8926785535678537
100
AcDbArc
 50
81.9505330245
 51
168.578246341
  0
LINE
  5
4DE
330
1F
100
AcDbEntity
  8
0
  6
PHANTOM
 62
     7
370
    18
100
AcDbLine
 10
43.4077363768
 20
113.4612486953
 30
0.0
 11
43.4077363768
 21
113.1390661546
 31
0.0
  0
LINE
  5
4DF
330
1F
100
AcDbEntity
  8
0
  6
PHANTOM
 62
     7
370
    18
100
AcDbLine
 10
52.2077363768
 20
113.1390661546
 30
0.0
 11
52.2077363768
 21
113.4612486953
 31
0.0
  0
LINE
  5
4E0
330
1F
100
AcDbEntity
  8
0
  6
PHANTOM
 62
     7
370
    18
100
AcDbLine
 10
52.2077363768
 20
113.4612486953
 30
0.0
 11
43.4077363768
 21
113.4612486953
 31
0.0
  0
ARC
  5
4E1
330
1F
100
AcDbEntity
  8
0
  6
PHANTOM
 62
     7
370
    18
100
AcDbCircle
 10
52.3327363768
 20
112.5773652188
 30
0.0
 40
0.8926785535678468
100
AcDbArc
 50
11.421753659
 51
98.0494669755
  0
ARC
  5
4E2
330
1F
100
AcDbEntity
  8
0
  6
PHANTOM
 62
     7
370
    18
100
AcDbCircle
 10
43.2827363768
 20
113.1388580018
 30
0.0
 40
0.8926785535678928
100
AcDbArc
 50
81.9505330245
 51
168.578246341
  0
LINE
  5
4E3
330
1F
100
AcDbEntity
  8
0
  6
PHANTOM
 62
     7
370
    18
100
AcDbLine
 10
43.4077363768
 20
114.0227414783
 30
0.0
 11
43.4077363768
 21
113.4612486953
 31
0.0
  0
LINE
  5
4E4
330
1F
100
AcDbEntity
  8
0
  6
PHANTOM
 62
     7
370
    18
100
AcDbLine
 10
52.2077363768
 20
113.4612486953
 30
0.0
 11
52.2077363768
 21
114.0227414783
 31
0.0
  0
LINE
  5
4E5
330
1F
100
AcDbEntity
  8
0
  6
PHANTOM
 62
     7
370
    18
100
AcDbLine
 10
52.2077363768
 20
114.0227414783
 30
0.0
 11
43.4077363768
 21
114.0227414783
 31
0.0
  0
ARC
  5
4E6
330
1F
100
AcDbEntity
  8
0
  6
PHANTOM
 62
     7
370
    18
100
AcDbCircle
 10
52.3327363768
 20
113.1388580018
 30
0.0
 40
0.8926785535678754
100
AcDbArc
 50
11.421753659
 51
98.0494669755
  0
LINE
  5
4E7
330
1F
100
AcDbEntity
  8
0
  6
PHANTOM
 62
     7
370
    18
100
AcDbLine
 10
43.4077363768
 20
114.3390661546
 30
0.0
 11
43.4077363768
 21
114.0227414783
 31
0.0
  0
LINE
  5
4E8
330
1F
100
AcDbEntity
  8
0
  6
PHANTOM
 62
     7
370
    18
100
AcDbLine
 10
52.2077363768
 20
114.0227414783
 30
0.0
 11
52.2077363768
 21
114.3390661546
 31
0.0
  0
LINE
  5
4E9
330
1F
100
AcDbEntity
  8
9
  6
CENTERX2
 62
     7
370
    18
100
AcDbLine
 10
31.8077363768
 20
103.0594009207
 30
0.0
 11
31.8077363768
 21
109.7824555951
 31
0.0
  0
LINE
  5
4EA
330
1F
100
AcDbEntity
  8
9
  6
CENTERX2
 62
     7
370
    18
100
AcDbLine
 10
63.8077363768
 20
103.2363234121
 30
0.0
 11
63.8077363768
 21
109.9593780866
 31
0.0
  0
LINE
  5
4EB
330
1F
100
AcDbEntity
  8
9
  6
CENTERX2
 62
     7
370
    18
100
AcDbLine
 10
47.8077363773
 20
101.6733824427
 30
0.0
 11
47.8077363773
 21
117.8897144077
 31
0.0
  0
ENDSEC
  0
SECTION
  2
OBJECTS
  0
DICTIONARY
  5
C
330
0
100
AcDbDictionary
281
     1
  3
ACAD_GROUP
350
D
  3
ACAD_LAYOUT
350
1A
  3
ACAD_MLINESTYLE
350
17
  3
ACAD_PLOTSETTINGS
350
19
  3
ACAD_PLOTSTYLENAME
350
E
  3
ACAD_SCALELIST
350
47
  3
DWGPROPS
350
4EC
  0
DICTIONARY
  5
D
102
{ACAD_REACTORS
330
C
102
}
330
C
100
AcDbDictionary
281
     1
  0
DICTIONARY
  5
1A
102
{ACAD_REACTORS
330
C
102
}
330
C
100
AcDbDictionary
281
     1
  3
Layout1
350
1E
  3
Layout2
350
26
  3
Model
350
22
  0
DICTIONARY
  5
17
102
{ACAD_REACTORS
330
C
102
}
330
C
100
AcDbDictionary
281
     1
  3
Standard
350
18
  0
DICTIONARY
  5
19
102
{ACAD_REACTORS
330
C
102
}
330
C
100
AcDbDictionary
281
     1
  0
ACDBDICTIONARYWDFLT
  5
E
102
{ACAD_REACTORS
330
C
102
}
330
C
100
AcDbDictionary
281
     1
  3
Normal
350
F
100
AcDbDictionaryWithDefault
340
F
  0
DICTIONARY
  5
47
102
{ACAD_REACTORS
330
C
102
}
330
C
100
AcDbDictionary
281
     1
  3
A0
350
48
  3
A1
350
49
  3
A2
350
4A
  3
A3
350
4B
  3
A4
350
4C
  3
A5
350
4D
  3
A6
350
4E
  3
A7
350
4F
  3
A8
350
50
  3
A9
350
51
  3
B0
350
52
  3
B1
350
53
  3
B2
350
54
  3
B3
350
55
  3
B4
350
56
  3
B5
350
57
  3
B6
350
58
  0
XRECORD
  5
4EC
102
{ACAD_REACTORS
330
C
102
}
330
C
100
AcDbXrecord
280
     1
  1
DWGPROPS COOKIE
  2

  3

  4

  6

  7

  8
t_okubo
  9

300
=
301
=
302
=
303
=
304
=
305
=
306
=
307
=
308
=
309
=
 40
0.0
 41
2460655.336298854
 42
2460655.336299387
  1

 90
        0
  0
LAYOUT
  5
1E
102
{ACAD_REACTORS
330
1A
102
}
330
1A
100
AcDbPlotSettings
  1

  2
none_device
  4

  6

 40
0.0
 41
0.0
 42
0.0
 43
0.0
 44
0.0
 45
0.0
 46
0.0
 47
0.0
 48
0.0
 49
0.0
140
0.0
141
0.0
142
1.0
143
1.0
 70
   688
 72
     1
 73
     0
 74
     5
  7

 75
    16
147
1.0
148
0.0
149
0.0
100
AcDbLayout
  1
Layout1
 70
     1
 71
     1
 10
0.0
 20
0.0
 11
420.0
 21
297.0
 12
0.0
 22
0.0
 32
0.0
 14
1.0000000000E+20
 24
1.0000000000E+20
 34
1.0000000000E+20
 15
-1.0000000000E+20
 25
-1.0000000000E+20
 35
-1.0000000000E+20
146
0.0
 13
0.0
 23
0.0
 33
0.0
 16
1.0
 26
0.0
 36
0.0
 17
0.0
 27
1.0
 37
0.0
 76
     0
330
1B
  0
LAYOUT
  5
26
102
{ACAD_REACTORS
330
1A
102
}
330
1A
100
AcDbPlotSettings
  1

  2
none_device
  4

  6

 40
0.0
 41
0.0
 42
0.0
 43
0.0
 44
0.0
 45
0.0
 46
0.0
 47
0.0
 48
0.0
 49
0.0
140
0.0
141
0.0
142
1.0
143
1.0
 70
   688
 72
     1
 73
     0
 74
     5
  7

 75
    16
147
1.0
148
0.0
149
0.0
100
AcDbLayout
  1
Layout2
 70
     1
 71
     2
 10
0.0
 20
0.0
 11
0.0
 21
0.0
 12
0.0
 22
0.0
 32
0.0
 14
0.0
 24
0.0
 34
0.0
 15
0.0
 25
0.0
 35
0.0
146
0.0
 13
0.0
 23
0.0
 33
0.0
 16
1.0
 26
0.0
 36
0.0
 17
0.0
 27
1.0
 37
0.0
 76
     0
330
23
  0
LAYOUT
  5
22
102
{ACAD_REACTORS
330
1A
102
}
330
1A
100
AcDbPlotSettings
  1

  2
none_device
  4
Letter_(8.50_x_11.00_Inches)
  6

 40
6.35
 41
6.35
 42
6.35000508
 43
6.35000508
 44
215.9
 45
279.4
 46
0.0
 47
0.0
 48
0.0
 49
0.0
140
0.0
141
0.0
142
1.0
143
1.0
 70
  1712
 72
     1
 73
     0
 74
     0
  7

 75
     0
147
1.0
148
0.0
149
0.0
100
AcDbLayout
  1
Model
 70
     1
 71
     0
 10
0.0
 20
0.0
 11
1189.0
 21
841.0
 12
0.0
 22
0.0
 32
0.0
 14
0.0
 24
0.0
 34
0.0
 15
1189.0
 25
841.0
 35
0.0
146
0.0
 13
0.0
 23
0.0
 33
0.0
 16
1.0
 26
0.0
 36
0.0
 17
0.0
 27
1.0
 37
0.0
 76
     0
330
1F
331
29
  0
MLINESTYLE
  5
18
102
{ACAD_REACTORS
330
17
102
}
330
17
100
AcDbMlineStyle
  2
Standard
 70
     0
  3

 62
   256
 51
90.0
 52
90.0
 71
     2
 49
0.5
 62
   256
  6
BYLAYER
 49
-0.5
 62
   256
  6
BYLAYER
  0
ACDBPLACEHOLDER
  5
F
102
{ACAD_REACTORS
330
E
102
}
330
E
  0
SCALE
  5
48
102
{ACAD_REACTORS
330
47
102
}
330
47
100
AcDbScale
 70
     0
300
1:1
140
1.0
141
1.0
290
     1
  0
SCALE
  5
49
102
{ACAD_REACTORS
330
47
102
}
330
47
100
AcDbScale
 70
     0
300
1:2
140
1.0
141
2.0
290
     0
  0
SCALE
  5
4A
102
{ACAD_REACTORS
330
47
102
}
330
47
100
AcDbScale
 70
     0
300
1:4
140
1.0
141
4.0
290
     0
  0
SCALE
  5
4B
102
{ACAD_REACTORS
330
47
102
}
330
47
100
AcDbScale
 70
     0
300
1:5
140
1.0
141
5.0
290
     0
  0
SCALE
  5
4C
102
{ACAD_REACTORS
330
47
102
}
330
47
100
AcDbScale
 70
     0
300
1:8
140
1.0
141
8.0
290
     0
  0
SCALE
  5
4D
102
{ACAD_REACTORS
330
47
102
}
330
47
100
AcDbScale
 70
     0
300
1:10
140
1.0
141
10.0
290
     0
  0
SCALE
  5
4E
102
{ACAD_REACTORS
330
47
102
}
330
47
100
AcDbScale
 70
     0
300
1:16
140
1.0
141
16.0
290
     0
  0
SCALE
  5
4F
102
{ACAD_REACTORS
330
47
102
}
330
47
100
AcDbScale
 70
     0
300
1:20
140
1.0
141
20.0
290
     0
  0
SCALE
  5
50
102
{ACAD_REACTORS
330
47
102
}
330
47
100
AcDbScale
 70
     0
300
1:30
140
1.0
141
30.0
290
     0
  0
SCALE
  5
51
102
{ACAD_REACTORS
330
47
102
}
330
47
100
AcDbScale
 70
     0
300
1:40
140
1.0
141
40.0
290
     0
  0
SCALE
  5
52
102
{ACAD_REACTORS
330
47
102
}
330
47
100
AcDbScale
 70
     0
300
1:50
140
1.0
141
50.0
290
     0
  0
SCALE
  5
53
102
{ACAD_REACTORS
330
47
102
}
330
47
100
AcDbScale
 70
     0
300
1:100
140
1.0
141
100.0
290
     0
  0
SCALE
  5
54
102
{ACAD_REACTORS
330
47
102
}
330
47
100
AcDbScale
 70
     0
300
2:1
140
2.0
141
1.0
290
     0
  0
SCALE
  5
55
102
{ACAD_REACTORS
330
47
102
}
330
47
100
AcDbScale
 70
     0
300
4:1
140
4.0
141
1.0
290
     0
  0
SCALE
  5
56
102
{ACAD_REACTORS
330
47
102
}
330
47
100
AcDbScale
 70
     0
300
8:1
140
8.0
141
1.0
290
     0
  0
SCALE
  5
57
102
{ACAD_REACTORS
330
47
102
}
330
47
100
AcDbScale
 70
     0
300
10:1
140
10.0
141
1.0
290
     0
  0
SCALE
  5
58
102
{ACAD_REACTORS
330
47
102
}
330
47
100
AcDbScale
 70
     0
300
100:1
140
100.0
141
1.0
290
     0
  0
ENDSEC
  0
EOF
