  0
SECTION
  2
HEADER
  9
$ACADVER
  1
AC1015
  9
$ACADMAINTVER
 70
     6
  9
$DWGCODEPAGE
  3
DOS932
  9
$INSBASE
 10
0.0
 20
0.0
 30
0.0
  9
$EXTMIN
 10
0.0
 20
0.0
 30
0.0
  9
$EXTMAX
 10
1189.0
 20
841.0
 30
0.0
  9
$LIMMIN
 10
0.0
 20
0.0
  9
$LIMMAX
 10
1189.0
 20
841.0
  9
$ORTHOMODE
 70
     0
  9
$REGENMODE
 70
     1
  9
$FILLMODE
 70
     1
  9
$QTEXTMODE
 70
     0
  9
$MIRRTEXT
 70
     1
  9
$LTSCALE
 40
1.0
  9
$ATTMODE
 70
     1
  9
$TEXTSIZE
 40
4.0
  9
$TRACEWID
 40
1.0
  9
$TEXTSTYLE
  7
Standard
  9
$CLAYER
  8
0
  9
$CELTYPE
  6
ByLayer
  9
$CECOLOR
 62
   256
  9
$CELTSCALE
 40
1.0
  9
$DISPSILH
 70
     0
  9
$DIMSCALE
 40
1.0
  9
$DIMASZ
 40
3.0
  9
$DIMEXO
 40
0.0
  9
$DIMDLI
 40
3.75
  9
$DIMRND
 40
0.0
  9
$DIMDLE
 40
0.0
  9
$DIMEXE
 40
1.0
  9
$DIMTP
 40
0.0
  9
$DIMTM
 40
0.0
  9
$DIMTXT
 40
4.0
  9
$DIMCEN
 40
2.5
  9
$DIMTSZ
 40
0.0
  9
$DIMTOL
 70
     0
  9
$DIMLIM
 70
     0
  9
$DIMTIH
 70
     1
  9
$DIMTOH
 70
     1
  9
$DIMSE1
 70
     0
  9
$DIMSE2
 70
     0
  9
$DIMTAD
 70
     1
  9
$DIMZIN
 70
     0
  9
$DIMBLK
  1

  9
$DIMASO
 70
     1
  9
$DIMSHO
 70
     1
  9
$DIMPOST
  1

  9
$DIMAPOST
  1

  9
$DIMALT
 70
     0
  9
$DIMALTD
 70
     3
  9
$DIMALTF
 40
0.0393700787
  9
$DIMLFAC
 40
1.0
  9
$DIMTOFL
 70
     1
  9
$DIMTVP
 40
0.0
  9
$DIMTIX
 70
     0
  9
$DIMSOXD
 70
     0
  9
$DIMSAH
 70
     0
  9
$DIMBLK1
  1

  9
$DIMBLK2
  1

  9
$DIMSTYLE
  2
ISO-25
  9
$DIMCLRD
 70
     0
  9
$DIMCLRE
 70
     0
  9
$DIMCLRT
 70
     0
  9
$DIMTFAC
 40
1.0
  9
$DIMGAP
 40
1.0
  9
$DIMJUST
 70
     0
  9
$DIMSD1
 70
     0
  9
$DIMSD2
 70
     0
  9
$DIMTOLJ
 70
     0
  9
$DIMTZIN
 70
     0
  9
$DIMALTZ
 70
     0
  9
$DIMALTTZ
 70
     0
  9
$DIMUPT
 70
     0
  9
$DIMDEC
 70
     2
  9
$DIMTDEC
 70
     2
  9
$DIMALTU
 70
     2
  9
$DIMALTTD
 70
     3
  9
$DIMTXSTY
  7
Standard
  9
$DIMAUNIT
 70
     0
  9
$DIMADEC
 70
     2
  9
$DIMALTRND
 40
0.0
  9
$DIMAZIN
 70
     0
  9
$DIMDSEP
 70
    44
  9
$DIMATFIT
 70
     3
  9
$DIMFRAC
 70
     0
  9
$DIMLDRBLK
  1

  9
$DIMLUNIT
 70
     2
  9
$DIMLWD
 70
    -2
  9
$DIMLWE
 70
    -2
  9
$DIMTMOVE
 70
     0
  9
$LUNITS
 70
     2
  9
$LUPREC
 70
     2
  9
$SKETCHINC
 40
1.0
  9
$FILLETRAD
 40
10.0
  9
$AUNITS
 70
     0
  9
$AUPREC
 70
     2
  9
$MENU
  1
.
  9
$ELEVATION
 40
0.0
  9
$PELEVATION
 40
0.0
  9
$THICKNESS
 40
0.0
  9
$LIMCHECK
 70
     0
  9
$CHAMFERA
 40
0.0
  9
$CHAMFERB
 40
0.0
  9
$CHAMFERC
 40
0.0
  9
$CHAMFERD
 40
0.0
  9
$SKPOLY
 70
     0
  9
$TDCREATE
 40
2459220.544658391
  9
$TDUCREATE
 40
2459220.169658391
  9
$TDUPDATE
 40
2459220.54465919
  9
$TDUUPDATE
 40
2459220.16965919
  9
$TDINDWG
 40
0.0000000116
  9
$TDUSRTIMER
 40
0.0000000116
  9
$USRTIMER
 70
     1
  9
$ANGBASE
 50
0.0
  9
$ANGDIR
 70
     0
  9
$PDMODE
 70
     0
  9
$PDSIZE
 40
-1.0
  9
$PLINEWID
 40
0.0
  9
$SPLFRAME
 70
     0
  9
$SPLINETYPE
 70
     6
  9
$SPLINESEGS
 70
     8
  9
$HANDSEED
  5
3CE
  9
$SURFTAB1
 70
     6
  9
$SURFTAB2
 70
     6
  9
$SURFTYPE
 70
     6
  9
$SURFU
 70
     6
  9
$SURFV
 70
     6
  9
$UCSBASE
  2

  9
$UCSNAME
  2

  9
$UCSORG
 10
0.0
 20
0.0
 30
0.0
  9
$UCSXDIR
 10
1.0
 20
0.0
 30
0.0
  9
$UCSYDIR
 10
0.0
 20
1.0
 30
0.0
  9
$UCSORTHOREF
  2

  9
$UCSORTHOVIEW
 70
     0
  9
$UCSORGTOP
 10
0.0
 20
0.0
 30
0.0
  9
$UCSORGBOTTOM
 10
0.0
 20
0.0
 30
0.0
  9
$UCSORGLEFT
 10
0.0
 20
0.0
 30
0.0
  9
$UCSORGRIGHT
 10
0.0
 20
0.0
 30
0.0
  9
$UCSORGFRONT
 10
0.0
 20
0.0
 30
0.0
  9
$UCSORGBACK
 10
0.0
 20
0.0
 30
0.0
  9
$PUCSBASE
  2

  9
$PUCSNAME
  2

  9
$PUCSORG
 10
0.0
 20
0.0
 30
0.0
  9
$PUCSXDIR
 10
1.0
 20
0.0
 30
0.0
  9
$PUCSYDIR
 10
0.0
 20
1.0
 30
0.0
  9
$PUCSORTHOREF
  2

  9
$PUCSORTHOVIEW
 70
     0
  9
$PUCSORGTOP
 10
0.0
 20
0.0
 30
0.0
  9
$PUCSORGBOTTOM
 10
0.0
 20
0.0
 30
0.0
  9
$PUCSORGLEFT
 10
0.0
 20
0.0
 30
0.0
  9
$PUCSORGRIGHT
 10
0.0
 20
0.0
 30
0.0
  9
$PUCSORGFRONT
 10
0.0
 20
0.0
 30
0.0
  9
$PUCSORGBACK
 10
0.0
 20
0.0
 30
0.0
  9
$USERI1
 70
     0
  9
$USERI2
 70
     0
  9
$USERI3
 70
     0
  9
$USERI4
 70
     0
  9
$USERI5
 70
     0
  9
$USERR1
 40
0.0
  9
$USERR2
 40
0.0
  9
$USERR3
 40
0.0
  9
$USERR4
 40
0.0
  9
$USERR5
 40
0.0
  9
$WORLDVIEW
 70
     1
  9
$SHADEDGE
 70
     3
  9
$SHADEDIF
 70
    70
  9
$TILEMODE
 70
     1
  9
$MAXACTVP
 70
    64
  9
$PINSBASE
 10
0.0
 20
0.0
 30
0.0
  9
$PLIMCHECK
 70
     0
  9
$PEXTMIN
 10
1.0000000000E+20
 20
1.0000000000E+20
 30
1.0000000000E+20
  9
$PEXTMAX
 10
-1.0000000000E+20
 20
-1.0000000000E+20
 30
-1.0000000000E+20
  9
$PLIMMIN
 10
0.0
 20
0.0
  9
$PLIMMAX
 10
420.0
 20
297.0
  9
$UNITMODE
 70
     0
  9
$VISRETAIN
 70
     1
  9
$PLINEGEN
 70
     0
  9
$PSLTSCALE
 70
     1
  9
$TREEDEPTH
 70
  3020
  9
$CMLSTYLE
  2
Standard
  9
$CMLJUST
 70
     0
  9
$CMLSCALE
 40
20.0
  9
$PROXYGRAPHICS
 70
     1
  9
$MEASUREMENT
 70
     1
  9
$CELWEIGHT
370
    -1
  9
$ENDCAPS
280
     0
  9
$JOINSTYLE
280
     0
  9
$LWDISPLAY
290
     1
  9
$INSUNITS
 70
     4
  9
$HYPERLINKBASE
  1

  9
$STYLESHEET
  1

  9
$XEDIT
290
     1
  9
$CEPSNTYPE
380
     0
  9
$PSTYLEMODE
290
     1
  9
$FINGERPRINTGUID
  2
{1FE6C0B7-FA89-4835-9465-C9A4A3022961}
  9
$VERSIONGUID
  2
{FAEB1C32-E019-11D5-929B-00C0DF256EC4}
  9
$EXTNAMES
290
     1
  9
$PSVPSCALE
 40
0.0
  9
$OLESTARTUP
290
     0
  0
ENDSEC
  0
SECTION
  2
CLASSES
  0
CLASS
  1
ACDBDICTIONARYWDFLT
  2
AcDbDictionaryWithDefault
  3
ObjectDBX Classes
 90
        0
280
     0
281
     0
  0
CLASS
  1
VISUALSTYLE
  2
AcDbVisualStyle
  3
ObjectDBX Classes
 90
     4095
280
     0
281
     0
  0
CLASS
  1
MATERIAL
  2
AcDbMaterial
  3
ObjectDBX Classes
 90
     1153
280
     0
281
     0
  0
CLASS
  1
SCALE
  2
AcDbScale
  3
ObjectDBX Classes
 90
     1153
280
     0
281
     0
  0
CLASS
  1
TABLESTYLE
  2
AcDbTableStyle
  3
ObjectDBX Classes
 90
     4095
280
     0
281
     0
  0
CLASS
  1
MLEADERSTYLE
  2
AcDbMLeaderStyle
  3
ACDB_MLEADERSTYLE_CLASS
 90
     4095
280
     0
281
     0
  0
CLASS
  1
SUN
  2
AcDbSun
  3
SCENEOE
 90
     1153
280
     0
281
     0
  0
CLASS
  1
ACDBPLACEHOLDER
  2
AcDbPlaceHolder
  3
ObjectDBX Classes
 90
        0
280
     0
281
     0
  0
CLASS
  1
LAYOUT
  2
AcDbLayout
  3
ObjectDBX Classes
 90
        0
280
     0
281
     0
  0
ENDSEC
  0
SECTION
  2
TABLES
  0
TABLE
  2
VPORT
  5
8
330
0
100
AcDbSymbolTable
 70
     1
  0
VPORT
  5
29
330
8
100
AcDbSymbolTableRecord
100
AcDbViewportTableRecord
  2
*Active
 70
     0
 10
0.0
 20
0.0
 11
1.0
 21
1.0
 12
594.5
 22
420.5
 13
0.0
 23
0.0
 14
10.0
 24
10.0
 15
10.0
 25
10.0
 16
0.0
 26
0.0
 36
1.0
 17
0.0
 27
0.0
 37
0.0
 40
841.0
 41
1.4137931034
 42
50.0
 43
0.0
 44
0.0
 50
0.0
 51
0.0
 71
     0
 72
  2000
 73
     1
 74
     3
 75
     0
 76
     0
 77
     0
 78
     0
281
     0
 65
     1
110
0.0
120
0.0
130
0.0
111
1.0
121
0.0
131
0.0
112
0.0
122
1.0
132
0.0
 79
     0
146
0.0
  0
ENDTAB
  0
TABLE
  2
LTYPE
  5
5
330
0
100
AcDbSymbolTable
 70
     6
  0
LTYPE
  5
14
330
5
100
AcDbSymbolTableRecord
100
AcDbLinetypeTableRecord
  2
ByBlock
 70
     0
  3

 72
    65
 73
     0
 40
0.0
  0
LTYPE
  5
15
330
5
100
AcDbSymbolTableRecord
100
AcDbLinetypeTableRecord
  2
ByLayer
 70
     0
  3

 72
    65
 73
     0
 40
0.0
  0
LTYPE
  5
16
330
5
100
AcDbSymbolTableRecord
100
AcDbLinetypeTableRecord
  2
Continuous
 70
     0
  3
Solid line
 72
    65
 73
     0
 40
0.0
  0
LTYPE
  5
6E
330
5
100
AcDbSymbolTableRecord
100
AcDbLinetypeTableRecord
  2
HIDDEN
 70
     0
  3
Hidden __ __ __ __ __ __ __ __ __ __ __ __ __ __
 72
    65
 73
     2
 40
1.905
 49
1.27
 74
     0
 49
-0.635
 74
     0
  0
LTYPE
  5
6F
330
5
100
AcDbSymbolTableRecord
100
AcDbLinetypeTableRecord
  2
PHANTOM
 70
     0
  3
Phantom ______  __  __  ______  __  __  ______
 72
    65
 73
     6
 40
12.7
 49
6.35
 74
     0
 49
-1.27
 74
     0
 49
1.27
 74
     0
 49
-1.27
 74
     0
 49
1.27
 74
     0
 49
-1.27
 74
     0
  0
LTYPE
  5
70
330
5
100
AcDbSymbolTableRecord
100
AcDbLinetypeTableRecord
  2
CENTER
 70
     0
  3
Center ____ _ ____ _ ____ _ ____ _ ____ _ ____
 72
    65
 73
     4
 40
10.16
 49
6.35
 74
     0
 49
-1.27
 74
     0
 49
1.27
 74
     0
 49
-1.27
 74
     0
  0
LTYPE
  5
71
330
5
100
AcDbSymbolTableRecord
100
AcDbLinetypeTableRecord
  2
CENTERX2
 70
     0
  3
Center (2x) ________  __  ________  __  _____
 72
    65
 73
     4
 40
20.32
 49
12.7
 74
     0
 49
-2.54
 74
     0
 49
2.54
 74
     0
 49
-2.54
 74
     0
  0
LTYPE
  5
72
330
5
100
AcDbSymbolTableRecord
100
AcDbLinetypeTableRecord
  2
DOT2
 70
     0
  3
Dot (.5x) ........................................
 72
    65
 73
     2
 40
0.635
 49
0.0
 74
     0
 49
-0.635
 74
     0
  0
ENDTAB
  0
TABLE
  2
LAYER
  5
2
330
0
100
AcDbSymbolTable
 70
     6
  0
LAYER
  5
10
330
2
100
AcDbSymbolTableRecord
100
AcDbLayerTableRecord
  2
0
 70
     0
 62
     7
  6
Continuous
370
    -3
390
F
  0
LAYER
  5
73
330
2
100
AcDbSymbolTableRecord
100
AcDbLayerTableRecord
  2
SLD-0
 70
     0
 62
     7
  6
Continuous
370
    -3
390
F
  0
LAYER
  5
74
330
2
100
AcDbSymbolTableRecord
100
AcDbLayerTableRecord
  2
8
 70
     0
 62
     7
  6
Continuous
370
    25
390
F
  0
LAYER
  5
75
330
2
100
AcDbSymbolTableRecord
100
AcDbLayerTableRecord
  2
9
 70
     0
 62
     7
  6
Continuous
370
    -3
390
F
  0
LAYER
  5
76
330
2
100
AcDbSymbolTableRecord
100
AcDbLayerTableRecord
  2
10
 70
     0
 62
     1
  6
Continuous
370
    -3
390
F
  0
LAYER
  5
77
330
2
100
AcDbSymbolTableRecord
100
AcDbLayerTableRecord
  2
11
 70
     0
 62
     7
  6
Continuous
370
    -3
390
F
  0
ENDTAB
  0
TABLE
  2
STYLE
  5
3
330
0
100
AcDbSymbolTable
 70
     2
  0
STYLE
  5
11
330
3
100
AcDbSymbolTableRecord
100
AcDbTextStyleTableRecord
  2
Standard
 70
     0
 40
0.0
 41
1.0
 50
0.0
 71
     0
 42
4.0
  3
txt
  4
bigfont
  0
STYLE
  5
82
330
3
100
AcDbSymbolTableRecord
100
AcDbTextStyleTableRecord
  2
SLDTEXTSTYLE0
 70
     0
 40
0.0
 41
0.7
 50
0.0
 71
     0
 42
4.0
  3
TXT
  4
bigfont
  0
ENDTAB
  0
TABLE
  2
VIEW
  5
6
330
0
100
AcDbSymbolTable
 70
     0
  0
ENDTAB
  0
TABLE
  2
UCS
  5
7
330
0
100
AcDbSymbolTable
 70
     0
  0
ENDTAB
  0
TABLE
  2
APPID
  5
9
330
0
100
AcDbSymbolTable
 70
     1
  0
APPID
  5
12
330
9
100
AcDbSymbolTableRecord
100
AcDbRegAppTableRecord
  2
ACAD
 70
     0
  0
ENDTAB
  0
TABLE
  2
DIMSTYLE
  5
A
330
0
100
AcDbSymbolTable
 70
     1
100
AcDbDimStyleTable
  0
DIMSTYLE
105
27
330
A
100
AcDbSymbolTableRecord
100
AcDbDimStyleTableRecord
  2
ISO-25
 70
     0
 41
2.5
 42
0.625
 43
3.75
 44
1.25
 73
     0
 74
     0
 77
     1
 78
     8
140
2.5
141
2.5
143
0.0393700787
147
0.625
171
     3
172
     1
178
     0
271
     2
272
     2
274
     3
278
    44
283
     0
284
     8
340
11
  0
ENDTAB
  0
TABLE
  2
BLOCK_RECORD
  5
1
330
0
100
AcDbSymbolTable
 70
     4
  0
BLOCK_RECORD
  5
1F
330
1
100
AcDbSymbolTableRecord
100
AcDbBlockTableRecord
  2
*Model_Space
340
22
  0
BLOCK_RECORD
  5
1B
330
1
100
AcDbSymbolTableRecord
100
AcDbBlockTableRecord
  2
*Paper_Space
340
1E
  0
BLOCK_RECORD
  5
23
330
1
100
AcDbSymbolTableRecord
100
AcDbBlockTableRecord
  2
*Paper_Space0
340
26
  0
BLOCK_RECORD
  5
78
330
1
100
AcDbSymbolTableRecord
100
AcDbBlockTableRecord
  2
ﾌﾞﾛｯｸ2
340
0
102
{BLKREFS
331
176
102
}
  0
BLOCK_RECORD
  5
8A
330
1
100
AcDbSymbolTableRecord
100
AcDbBlockTableRecord
  2
新SUGATSUNEロゴ
340
0
102
{BLKREFS
331
174
102
}
  0
BLOCK_RECORD
  5
168
330
1
100
AcDbSymbolTableRecord
100
AcDbBlockTableRecord
  2
ﾌﾞﾛｯｸ1
340
0
102
{BLKREFS
331
175
102
}
  0
ENDTAB
  0
ENDSEC
  0
SECTION
  2
BLOCKS
  0
BLOCK
  5
20
330
1F
100
AcDbEntity
  8
0
100
AcDbBlockBegin
  2
*Model_Space
 70
     0
 10
0.0
 20
0.0
 30
0.0
  3
*Model_Space
  1

  0
ENDBLK
  5
21
330
1F
100
AcDbEntity
  8
0
100
AcDbBlockEnd
  0
BLOCK
  5
1C
330
1B
100
AcDbEntity
 67
     1
  8
0
100
AcDbBlockBegin
  2
*Paper_Space
 70
     0
 10
0.0
 20
0.0
 30
0.0
  3
*Paper_Space
  1

  0
ENDBLK
  5
1D
330
1B
100
AcDbEntity
 67
     1
  8
0
100
AcDbBlockEnd
  0
BLOCK
  5
24
330
23
100
AcDbEntity
  8
0
100
AcDbBlockBegin
  2
*Paper_Space0
 70
     0
 10
0.0
 20
0.0
 30
0.0
  3
*Paper_Space0
  1

  0
ENDBLK
  5
25
330
23
100
AcDbEntity
  8
0
100
AcDbBlockEnd
  0
BLOCK
  5
79
330
78
100
AcDbEntity
  8
0
100
AcDbBlockBegin
  2
ﾌﾞﾛｯｸ2
 70
     2
 10
0.0
 20
0.0
 30
0.0
  3
ﾌﾞﾛｯｸ2
  1

  0
LINE
  5
7B
330
78
100
AcDbEntity
  8
8
100
AcDbLine
 10
0.0
 20
21.0
 30
0.0
 11
135.0
 21
21.0
 31
0.0
  0
LINE
  5
7C
330
78
100
AcDbEntity
  8
8
100
AcDbLine
 10
0.0
 20
0.0
 30
0.0
 11
135.0
 21
0.0
 31
0.0
  0
LINE
  5
7D
330
78
100
AcDbEntity
  8
8
100
AcDbLine
 10
135.0
 20
21.0
 30
0.0
 11
135.0
 21
0.0
 31
0.0
  0
LINE
  5
7E
330
78
100
AcDbEntity
  8
9
100
AcDbLine
 10
36.0
 20
7.0
 30
0.0
 11
135.0
 21
7.0
 31
0.0
  0
LINE
  5
7F
330
78
100
AcDbEntity
  8
9
100
AcDbLine
 10
36.0
 20
0.0
 30
0.0
 11
36.0
 21
21.0
 31
0.0
  0
LINE
  5
80
330
78
100
AcDbEntity
  8
9
100
AcDbLine
 10
65.0
 20
21.0
 30
0.0
 11
65.0
 21
0.0
 31
0.0
  0
LINE
  5
81
330
78
100
AcDbEntity
  8
8
  6
Continuous
 62
     7
100
AcDbLine
 10
0.0
 20
21.0
 30
0.0
 11
0.0
 21
0.0
 31
0.0
  0
ATTDEF
  5
83
330
78
100
AcDbEntity
  8
SLD-0
 62
     7
100
AcDbText
 10
78.3050930978
 20
15.9259892778
 30
0.0
 40
4.0
  1
230-(C)26/19T
 41
0.7
  7
SLDTEXTSTYLE0
 11
78.3050930978
 21
14.5129490301
 31
0.0
100
AcDbAttributeDefinition
  3

  2
AUTOATTR0
 70
     0
 74
     1
  0
ATTDEF
  5
84
330
78
100
AcDbEntity
  8
SLD-0
 62
     7
100
AcDbText
 10
78.3050930978
 20
9.8784312972
 30
0.0
 40
4.0
  1
230-P4W-32T
 41
0.7
  7
SLDTEXTSTYLE0
 11
78.3050930978
 21
8.4653910495
 31
0.0
100
AcDbAttributeDefinition
  3

  2
AUTOATTR0
 70
     0
 74
     1
  0
ATTDEF
  5
85
330
78
100
AcDbEntity
  8
SLD-0
 62
     7
100
AcDbText
 10
66.9646413579
 20
16.8429035566
 30
0.0
 40
2.38125
  1
Title
 41
0.7
  7
SLDTEXTSTYLE0
 11
66.9646413579
 21
16.0017030342
 31
0.0
100
AcDbAttributeDefinition
  3

  2
AUTOATTR0
 70
     0
 74
     1
  0
ATTDEF
  5
86
330
78
100
AcDbEntity
  8
SLD-0
 62
     7
100
AcDbText
 10
66.9646413579
 20
2.4516379051
 30
0.0
 40
2.38125
  1
Date
 41
0.7
  7
SLDTEXTSTYLE0
 11
66.9646413579
 21
1.6104373826
 31
0.0
100
AcDbAttributeDefinition
  3

  2
AUTOATTR0
 70
     0
 74
     1
  0
ATTDEF
  5
87
330
78
100
AcDbEntity
  8
SLD-0
 62
     7
100
AcDbText
 10
51.857512217
 20
2.0282473934
 30
0.0
 40
4.0
  1
1:1
 41
0.7
  7
SLDTEXTSTYLE0
 11
51.857512217
 21
0.6152071457
 31
0.0
100
AcDbAttributeDefinition
  3

  2
AUTOATTR0
 70
     0
 74
     1
  0
ATTDEF
  5
88
330
78
100
AcDbEntity
  8
SLD-0
 62
     7
100
AcDbText
 10
38.4275608796
 20
2.4516379051
 30
0.0
 40
2.38125
  1
Scale
 41
0.7
  7
SLDTEXTSTYLE0
 11
38.4275608796
 21
1.6104373826
 31
0.0
100
AcDbAttributeDefinition
  3

  2
AUTOATTR0
 70
     0
 74
     1
  0
ATTDEF
  5
89
330
78
100
AcDbEntity
  8
SLD-0
 62
     7
100
AcDbText
 10
0.0
 20
0.0
 30
0.0
 40
1.0
  1

100
AcDbAttributeDefinition
  3

  2
AUTOATTR0
 70
     0
  0
INSERT
  5
174
330
78
100
AcDbEntity
  8
0
  6
Continuous
 62
     7
100
AcDbBlockReference
  2
新SUGATSUNEロゴ
 10
0.0273220162
 20
-1.67308293
 30
0.0
  0
INSERT
  5
175
330
78
100
AcDbEntity
  8
0
  6
Continuous
 62
     7
100
AcDbBlockReference
  2
ﾌﾞﾛｯｸ1
 10
39.5300077037
 20
10.3519919558
 30
0.0
  0
ENDBLK
  5
7A
330
78
100
AcDbEntity
  8
0
100
AcDbBlockEnd
  0
BLOCK
  5
8B
330
8A
100
AcDbEntity
  8
0
100
AcDbBlockBegin
  2
新SUGATSUNEロゴ
 70
     0
 10
0.0
 20
0.0
 30
0.0
  3
新SUGATSUNEロゴ
  1

  0
LINE
  5
8D
330
8A
100
AcDbEntity
  8
0
100
AcDbLine
 10
32.7336985468
 20
9.4483046908
 30
0.0
 11
31.5209513067
 21
9.4483046908
 31
0.0
  0
LINE
  5
8E
330
8A
100
AcDbEntity
  8
0
100
AcDbLine
 10
31.5209513067
 20
9.4483046908
 30
0.0
 11
31.5209513067
 21
11.8677744187
 31
0.0
  0
LINE
  5
8F
330
8A
100
AcDbEntity
  8
0
100
AcDbLine
 10
31.5209513067
 20
11.8677744187
 30
0.0
 11
32.484911708
 21
11.8677744187
 31
0.0
  0
LINE
  5
90
330
8A
100
AcDbEntity
  8
0
100
AcDbLine
 10
32.484911708
 20
11.8677744187
 30
0.0
 11
32.484911708
 21
12.7076957977
 31
0.0
  0
LINE
  5
91
330
8A
100
AcDbEntity
  8
0
100
AcDbLine
 10
32.484911708
 20
12.7076957977
 30
0.0
 11
31.5209513067
 21
12.7076957977
 31
0.0
  0
LINE
  5
92
330
8A
100
AcDbEntity
  8
0
100
AcDbLine
 10
31.5209513067
 20
12.7076957977
 30
0.0
 11
31.5209513067
 21
14.492440129
 31
0.0
  0
LINE
  5
93
330
8A
100
AcDbEntity
  8
0
100
AcDbLine
 10
31.5209513067
 20
14.492440129
 30
0.0
 11
32.5596186391
 21
14.492440129
 31
0.0
  0
LINE
  5
94
330
8A
100
AcDbEntity
  8
0
100
AcDbLine
 10
32.5596186391
 20
14.492440129
 30
0.0
 11
32.5596186391
 21
15.3325032669
 31
0.0
  0
LINE
  5
95
330
8A
100
AcDbEntity
  8
0
100
AcDbLine
 10
32.5596186391
 20
15.3325032669
 30
0.0
 11
30.6808881687
 21
15.3325032669
 31
0.0
  0
LINE
  5
96
330
8A
100
AcDbEntity
  8
0
100
AcDbLine
 10
30.6808881687
 20
15.3325032669
 30
0.0
 11
30.6808881687
 21
8.5904508131
 31
0.0
  0
LINE
  5
97
330
8A
100
AcDbEntity
  8
0
100
AcDbLine
 10
30.6808881687
 20
8.5904508131
 30
0.0
 11
32.7336985468
 21
8.5896002598
 31
0.0
  0
LINE
  5
98
330
8A
100
AcDbEntity
  8
0
100
AcDbLine
 10
32.7336985468
 20
8.5896002598
 30
0.0
 11
32.7336985468
 21
9.4483046908
 31
0.0
  0
LINE
  5
99
330
8A
100
AcDbEntity
  8
0
100
AcDbLine
 10
21.049364412
 20
15.3325032669
 30
0.0
 11
18.7355759311
 21
15.3325032669
 31
0.0
  0
LINE
  5
9A
330
8A
100
AcDbEntity
  8
0
100
AcDbLine
 10
18.7355759311
 20
15.3325032669
 30
0.0
 11
18.7355759311
 21
14.492440129
 31
0.0
  0
LINE
  5
9B
330
8A
100
AcDbEntity
  8
0
100
AcDbLine
 10
18.7355759311
 20
14.492440129
 30
0.0
 11
19.4922848461
 21
14.492440129
 31
0.0
  0
LINE
  5
9C
330
8A
100
AcDbEntity
  8
0
100
AcDbLine
 10
19.4922848461
 20
14.492440129
 30
0.0
 11
19.4922848461
 21
8.5904508131
 31
0.0
  0
LINE
  5
9D
330
8A
100
AcDbEntity
  8
0
100
AcDbLine
 10
19.4922848461
 20
8.5904508131
 30
0.0
 11
20.3323479841
 21
8.5904508131
 31
0.0
  0
LINE
  5
9E
330
8A
100
AcDbEntity
  8
0
100
AcDbLine
 10
20.3323479841
 20
8.5904508131
 30
0.0
 11
20.3323479841
 21
14.492440129
 31
0.0
  0
LINE
  5
9F
330
8A
100
AcDbEntity
  8
0
100
AcDbLine
 10
20.3323479841
 20
14.492440129
 30
0.0
 11
21.049364412
 21
14.492440129
 31
0.0
  0
LINE
  5
A0
330
8A
100
AcDbEntity
  8
0
100
AcDbLine
 10
21.049364412
 20
14.492440129
 30
0.0
 11
21.049364412
 21
15.3325032669
 31
0.0
  0
LINE
  5
A1
330
8A
100
AcDbEntity
  8
0
100
AcDbLine
 10
29.175550595
 20
15.3418593532
 30
0.0
 11
29.175550595
 21
10.4115562977
 31
0.0
  0
LINE
  5
A2
330
8A
100
AcDbEntity
  8
0
100
AcDbLine
 10
29.175550595
 20
10.4115562977
 30
0.0
 11
28.3179093556
 21
15.3418593532
 31
0.0
  0
LINE
  5
A3
330
8A
100
AcDbEntity
  8
0
100
AcDbLine
 10
28.3179093556
 20
15.3418593532
 30
0.0
 11
26.9115194818
 21
15.3418593532
 31
0.0
  0
LINE
  5
A4
330
8A
100
AcDbEntity
  8
0
100
AcDbLine
 10
26.9115194818
 20
15.3418593532
 30
0.0
 11
26.9115194818
 21
8.5904508131
 31
0.0
  0
LINE
  5
A5
330
8A
100
AcDbEntity
  8
0
100
AcDbLine
 10
26.9115194818
 20
8.5904508131
 30
0.0
 11
27.7517243787
 21
8.5904508131
 31
0.0
  0
LINE
  5
A6
330
8A
100
AcDbEntity
  8
0
100
AcDbLine
 10
27.7517243787
 20
8.5904508131
 30
0.0
 11
27.7517243787
 21
13.7348097812
 31
0.0
  0
LINE
  5
A7
330
8A
100
AcDbEntity
  8
0
100
AcDbLine
 10
27.7517243787
 20
13.7348097812
 30
0.0
 11
28.6387097068
 21
8.5883244299
 31
0.0
  0
LINE
  5
A8
330
8A
100
AcDbEntity
  8
0
100
AcDbLine
 10
28.6387097068
 20
8.5883244299
 30
0.0
 11
30.0157554918
 21
8.5904508131
 31
0.0
  0
LINE
  5
A9
330
8A
100
AcDbEntity
  8
0
100
AcDbLine
 10
30.0157554918
 20
8.5904508131
 30
0.0
 11
30.0157554918
 21
15.3418593532
 31
0.0
  0
LINE
  5
AA
330
8A
100
AcDbEntity
  8
0
100
AcDbLine
 10
30.0157554918
 20
15.3418593532
 30
0.0
 11
29.175550595
 21
15.3418593532
 31
0.0
  0
LINE
  5
AB
330
8A
100
AcDbEntity
  8
0
100
AcDbLine
 10
3.3854988525
 20
9.4534080106
 30
0.0
 11
3.292575905
 21
9.4549673583
 31
0.0
  0
LINE
  5
AC
330
8A
100
AcDbEntity
  8
0
100
AcDbLine
 10
3.292575905
 20
9.4549673583
 30
0.0
 11
3.292575905
 21
8.5959794095
 31
0.0
  0
LINE
  5
AD
330
8A
100
AcDbEntity
  8
0
100
AcDbLine
 10
3.292575905
 20
8.5959794095
 30
0.0
 11
3.4568035704
 21
8.5959794095
 31
0.0
  0
LINE
  5
AE
330
8A
100
AcDbEntity
  8
0
100
AcDbLine
 10
4.9498790008
 20
9.2970479632
 30
0.0
 11
4.9498790008
 21
9.2973314809
 31
0.0
  0
LINE
  5
AF
330
8A
100
AcDbEntity
  8
0
100
AcDbLine
 10
4.9498790008
 20
14.5159721035
 30
0.0
 11
4.9498790008
 21
15.3285340182
 31
0.0
  0
LINE
  5
B0
330
8A
100
AcDbEntity
  8
0
100
AcDbLine
 10
4.9498790008
 20
15.3285340182
 30
0.0
 11
4.6043417246
 21
15.3285340182
 31
0.0
  0
LINE
  5
B1
330
8A
100
AcDbEntity
  8
0
100
AcDbLine
 10
21.230390505
 20
9.4534080106
 30
0.0
 11
21.1375384369
 21
9.4549673583
 31
0.0
  0
LINE
  5
B2
330
8A
100
AcDbEntity
  8
0
100
AcDbLine
 10
21.1375384369
 20
9.4549673583
 30
0.0
 11
21.1375384369
 21
8.5959794095
 31
0.0
  0
LINE
  5
B3
330
8A
100
AcDbEntity
  8
0
100
AcDbLine
 10
21.1375384369
 20
8.5959794095
 30
0.0
 11
21.301553464
 21
8.5959794095
 31
0.0
  0
LINE
  5
B4
330
8A
100
AcDbEntity
  8
0
100
AcDbLine
 10
22.7946997739
 20
9.2970479632
 30
0.0
 11
22.7946997739
 21
9.2973314809
 31
0.0
  0
LINE
  5
B5
330
8A
100
AcDbEntity
  8
0
100
AcDbLine
 10
22.7946997739
 20
14.5159721035
 30
0.0
 11
22.7946997739
 21
15.3285340182
 31
0.0
  0
LINE
  5
B6
330
8A
100
AcDbEntity
  8
0
100
AcDbLine
 10
22.7946997739
 20
15.3285340182
 30
0.0
 11
22.4490916182
 21
15.3285340182
 31
0.0
  0
LINE
  5
B7
330
8A
100
AcDbEntity
  8
0
 62
     1
100
AcDbLine
 10
12.1710764777
 20
17.9278248886
 30
0.0
 11
9.7662787942
 21
17.9278248886
 31
0.0
  0
LINE
  5
B8
330
8A
100
AcDbEntity
  8
0
 62
     1
100
AcDbLine
 10
9.7662787942
 20
17.9278248886
 30
0.0
 11
9.7662787942
 21
20.3329060898
 31
0.0
  0
LINE
  5
B9
330
8A
100
AcDbEntity
  8
0
 62
     1
100
AcDbLine
 10
9.7662787942
 20
20.3329060898
 30
0.0
 11
12.1710764777
 21
20.3329060898
 31
0.0
  0
LINE
  5
BA
330
8A
100
AcDbEntity
  8
0
 62
     1
100
AcDbLine
 10
12.1710764777
 20
20.3329060898
 30
0.0
 11
12.1710764777
 21
17.9278248886
 31
0.0
  0
LINE
  5
BB
330
8A
100
AcDbEntity
  8
0
 62
     1
100
AcDbLine
 10
12.1710764777
 20
3.67
 30
0.0
 11
9.7662787942
 21
3.67
 31
0.0
  0
LINE
  5
BC
330
8A
100
AcDbEntity
  8
0
 62
     1
100
AcDbLine
 10
9.7662787942
 20
3.67
 30
0.0
 11
9.7662787942
 21
6.0749394424
 31
0.0
  0
LINE
  5
BD
330
8A
100
AcDbEntity
  8
0
 62
     1
100
AcDbLine
 10
9.7662787942
 20
6.0749394424
 30
0.0
 11
12.1710764777
 21
6.0749394424
 31
0.0
  0
LINE
  5
BE
330
8A
100
AcDbEntity
  8
0
 62
     1
100
AcDbLine
 10
12.1710764777
 20
6.0749394424
 30
0.0
 11
12.1710764777
 21
3.67
 31
0.0
  0
LINE
  5
BF
330
8A
100
AcDbEntity
  8
0
 62
     1
100
AcDbLine
 10
25.8269222715
 20
17.9278248886
 30
0.0
 11
23.422124588
 21
17.9278248886
 31
0.0
  0
LINE
  5
C0
330
8A
100
AcDbEntity
  8
0
 62
     1
100
AcDbLine
 10
23.422124588
 20
17.9278248886
 30
0.0
 11
23.422124588
 21
20.3329060898
 31
0.0
  0
LINE
  5
C1
330
8A
100
AcDbEntity
  8
0
 62
     1
100
AcDbLine
 10
23.422124588
 20
20.3329060898
 30
0.0
 11
25.8269222715
 21
20.3329060898
 31
0.0
  0
LINE
  5
C2
330
8A
100
AcDbEntity
  8
0
 62
     1
100
AcDbLine
 10
25.8269222715
 20
20.3329060898
 30
0.0
 11
25.8269222715
 21
17.9278248886
 31
0.0
  0
LINE
  5
C3
330
8A
100
AcDbEntity
  8
0
 62
     1
100
AcDbLine
 10
25.8269222715
 20
3.67
 30
0.0
 11
23.422124588
 21
3.67
 31
0.0
  0
LINE
  5
C4
330
8A
100
AcDbEntity
  8
0
 62
     1
100
AcDbLine
 10
23.422124588
 20
3.67
 30
0.0
 11
23.422124588
 21
6.0749394424
 31
0.0
  0
LINE
  5
C5
330
8A
100
AcDbEntity
  8
0
 62
     1
100
AcDbLine
 10
23.422124588
 20
6.0749394424
 30
0.0
 11
25.8269222715
 21
6.0749394424
 31
0.0
  0
LINE
  5
C6
330
8A
100
AcDbEntity
  8
0
 62
     1
100
AcDbLine
 10
25.8269222715
 20
6.0749394424
 30
0.0
 11
25.8269222715
 21
3.67
 31
0.0
  0
LINE
  5
C7
330
8A
100
AcDbEntity
  8
0
100
AcDbLine
 10
8.2465526938
 20
15.3418593532
 30
0.0
 11
7.4064186764
 21
15.3418593532
 31
0.0
  0
LINE
  5
C8
330
8A
100
AcDbEntity
  8
0
100
AcDbLine
 10
7.4064186764
 20
15.3418593532
 30
0.0
 11
7.4025203072
 21
9.7790281638
 31
0.0
  0
LINE
  5
C9
330
8A
100
AcDbEntity
  8
0
100
AcDbLine
 10
6.5577791261
 20
9.7866831435
 30
0.0
 11
6.554873069
 21
15.3418593532
 31
0.0
  0
LINE
  5
CA
330
8A
100
AcDbEntity
  8
0
100
AcDbLine
 10
6.554873069
 20
15.3418593532
 30
0.0
 11
5.7147390516
 21
15.3418593532
 31
0.0
  0
LINE
  5
CB
330
8A
100
AcDbEntity
  8
0
100
AcDbLine
 10
26.1769249525
 20
15.3418593532
 30
0.0
 11
25.3368618145
 21
15.3418593532
 31
0.0
  0
LINE
  5
CC
330
8A
100
AcDbEntity
  8
0
100
AcDbLine
 10
25.3368618145
 20
15.3418593532
 30
0.0
 11
25.3327508069
 21
9.7790281638
 31
0.0
  0
LINE
  5
CD
330
8A
100
AcDbEntity
  8
0
100
AcDbLine
 10
24.4880096259
 20
9.7866831435
 30
0.0
 11
24.4851744482
 21
15.3418593532
 31
0.0
  0
LINE
  5
CE
330
8A
100
AcDbEntity
  8
0
100
AcDbLine
 10
24.4851744482
 20
15.3418593532
 30
0.0
 11
23.6451113103
 21
15.3418593532
 31
0.0
  0
LINE
  5
CF
330
8A
100
AcDbEntity
  8
0
100
AcDbLine
 10
12.9538690271
 20
12.6636087853
 30
0.0
 11
11.909956616
 21
11.8235456473
 31
0.0
  0
LINE
  5
D0
330
8A
100
AcDbEntity
  8
0
100
AcDbLine
 10
11.909956616
 20
11.8235456473
 30
0.0
 11
14.4506301884
 21
11.8235456473
 31
0.0
  0
LINE
  5
D1
330
8A
100
AcDbEntity
  8
0
100
AcDbLine
 10
14.4506301884
 20
11.8235456473
 30
0.0
 11
14.4506301884
 21
10.4153837876
 31
0.0
  0
LINE
  5
D2
330
8A
100
AcDbEntity
  8
0
100
AcDbLine
 10
14.5099562808
 20
13.5421594598
 30
0.0
 11
15.2200265234
 21
14.0836783912
 31
0.0
  0
LINE
  5
D3
330
8A
100
AcDbEntity
  8
0
100
AcDbLine
 10
15.2916856385
 20
10.0266809316
 30
0.0
 11
15.2905515675
 21
12.6636087853
 31
0.0
  0
LINE
  5
D4
330
8A
100
AcDbEntity
  8
0
100
AcDbLine
 10
15.2905515675
 20
12.6636087853
 30
0.0
 11
12.9538690271
 21
12.6636087853
 31
0.0
  0
LINE
  5
D5
330
8A
100
AcDbEntity
  8
0
100
AcDbLine
 10
17.7875634041
 20
15.3342043735
 30
0.0
 11
16.3643042233
 21
15.3342043735
 31
0.0
  0
LINE
  5
D6
330
8A
100
AcDbEntity
  8
0
100
AcDbLine
 10
16.3643042233
 20
15.3342043735
 30
0.0
 11
15.5117663037
 21
8.5904508131
 31
0.0
  0
LINE
  5
D7
330
8A
100
AcDbEntity
  8
0
100
AcDbLine
 10
15.5117663037
 20
8.5904508131
 30
0.0
 11
16.3519003211
 21
8.5904508131
 31
0.0
  0
LINE
  5
D8
330
8A
100
AcDbEntity
  8
0
100
AcDbLine
 10
16.3519003211
 20
8.5904508131
 30
0.0
 11
16.5956547196
 21
10.5190095307
 31
0.0
  0
LINE
  5
D9
330
8A
100
AcDbEntity
  8
0
100
AcDbLine
 10
16.5956547196
 20
10.5190095307
 30
0.0
 11
17.5561420283
 21
10.5190095307
 31
0.0
  0
LINE
  5
DA
330
8A
100
AcDbEntity
  8
0
100
AcDbLine
 10
17.5561420283
 20
10.5190095307
 30
0.0
 11
17.8000381857
 21
8.5904508131
 31
0.0
  0
LINE
  5
DB
330
8A
100
AcDbEntity
  8
0
100
AcDbLine
 10
17.8000381857
 20
8.5904508131
 30
0.0
 11
18.6401722031
 21
8.5904508131
 31
0.0
  0
LINE
  5
DC
330
8A
100
AcDbEntity
  8
0
100
AcDbLine
 10
18.6401722031
 20
8.5904508131
 30
0.0
 11
17.7875634041
 21
15.3342043735
 31
0.0
  0
LINE
  5
DD
330
8A
100
AcDbEntity
  8
0
100
AcDbLine
 10
16.7253640972
 20
11.5449894431
 30
0.0
 11
17.0745162249
 21
14.306594234
 31
0.0
  0
LINE
  5
DE
330
8A
100
AcDbEntity
  8
0
100
AcDbLine
 10
17.0745162249
 20
14.306594234
 30
0.0
 11
17.4265035302
 21
11.5449894431
 31
0.0
  0
LINE
  5
DF
330
8A
100
AcDbEntity
  8
0
100
AcDbLine
 10
17.4265035302
 20
11.5449894431
 30
0.0
 11
16.7253640972
 21
11.5449894431
 31
0.0
  0
LINE
  5
E0
330
8A
100
AcDbEntity
  8
0
370
    18
100
AcDbLine
 10
32.7336985468
 20
9.4483046908
 30
0.0
 11
31.5209513067
 21
9.4483046908
 31
0.0
  0
LINE
  5
E1
330
8A
100
AcDbEntity
  8
0
370
    18
100
AcDbLine
 10
31.5209513067
 20
9.4483046908
 30
0.0
 11
31.5209513067
 21
11.8677744187
 31
0.0
  0
LINE
  5
E2
330
8A
100
AcDbEntity
  8
0
370
    18
100
AcDbLine
 10
31.5209513067
 20
11.8677744187
 30
0.0
 11
32.484911708
 21
11.8677744187
 31
0.0
  0
LINE
  5
E3
330
8A
100
AcDbEntity
  8
0
370
    18
100
AcDbLine
 10
32.484911708
 20
11.8677744187
 30
0.0
 11
32.484911708
 21
12.7076957977
 31
0.0
  0
LINE
  5
E4
330
8A
100
AcDbEntity
  8
0
370
    18
100
AcDbLine
 10
32.484911708
 20
12.7076957977
 30
0.0
 11
31.5209513067
 21
12.7076957977
 31
0.0
  0
LINE
  5
E5
330
8A
100
AcDbEntity
  8
0
370
    18
100
AcDbLine
 10
31.5209513067
 20
12.7076957977
 30
0.0
 11
31.5209513067
 21
14.492440129
 31
0.0
  0
LINE
  5
E6
330
8A
100
AcDbEntity
  8
0
370
    18
100
AcDbLine
 10
31.5209513067
 20
14.492440129
 30
0.0
 11
32.5596186391
 21
14.492440129
 31
0.0
  0
LINE
  5
E7
330
8A
100
AcDbEntity
  8
0
370
    18
100
AcDbLine
 10
32.5596186391
 20
14.492440129
 30
0.0
 11
32.5596186391
 21
15.3325032669
 31
0.0
  0
LINE
  5
E8
330
8A
100
AcDbEntity
  8
0
370
    18
100
AcDbLine
 10
32.5596186391
 20
15.3325032669
 30
0.0
 11
30.6808881687
 21
15.3325032669
 31
0.0
  0
LINE
  5
E9
330
8A
100
AcDbEntity
  8
0
370
    18
100
AcDbLine
 10
30.6808881687
 20
15.3325032669
 30
0.0
 11
30.6808881687
 21
8.5904508131
 31
0.0
  0
LINE
  5
EA
330
8A
100
AcDbEntity
  8
0
370
    18
100
AcDbLine
 10
30.6808881687
 20
8.5904508131
 30
0.0
 11
32.7336985468
 21
8.5896002598
 31
0.0
  0
LINE
  5
EB
330
8A
100
AcDbEntity
  8
0
370
    18
100
AcDbLine
 10
32.7336985468
 20
8.5896002598
 30
0.0
 11
32.7336985468
 21
9.4483046908
 31
0.0
  0
LINE
  5
EC
330
8A
100
AcDbEntity
  8
0
370
    18
100
AcDbLine
 10
21.049364412
 20
15.3325032669
 30
0.0
 11
18.7355759311
 21
15.3325032669
 31
0.0
  0
LINE
  5
ED
330
8A
100
AcDbEntity
  8
0
370
    18
100
AcDbLine
 10
18.7355759311
 20
15.3325032669
 30
0.0
 11
18.7355759311
 21
14.492440129
 31
0.0
  0
LINE
  5
EE
330
8A
100
AcDbEntity
  8
0
370
    18
100
AcDbLine
 10
18.7355759311
 20
14.492440129
 30
0.0
 11
19.4922848461
 21
14.492440129
 31
0.0
  0
LINE
  5
EF
330
8A
100
AcDbEntity
  8
0
370
    18
100
AcDbLine
 10
19.4922848461
 20
14.492440129
 30
0.0
 11
19.4922848461
 21
8.5904508131
 31
0.0
  0
LINE
  5
F0
330
8A
100
AcDbEntity
  8
0
370
    18
100
AcDbLine
 10
19.4922848461
 20
8.5904508131
 30
0.0
 11
20.3323479841
 21
8.5904508131
 31
0.0
  0
LINE
  5
F1
330
8A
100
AcDbEntity
  8
0
370
    18
100
AcDbLine
 10
20.3323479841
 20
8.5904508131
 30
0.0
 11
20.3323479841
 21
14.492440129
 31
0.0
  0
LINE
  5
F2
330
8A
100
AcDbEntity
  8
0
370
    18
100
AcDbLine
 10
20.3323479841
 20
14.492440129
 30
0.0
 11
21.049364412
 21
14.492440129
 31
0.0
  0
LINE
  5
F3
330
8A
100
AcDbEntity
  8
0
370
    18
100
AcDbLine
 10
21.049364412
 20
14.492440129
 30
0.0
 11
21.049364412
 21
15.3325032669
 31
0.0
  0
LINE
  5
F4
330
8A
100
AcDbEntity
  8
0
370
    18
100
AcDbLine
 10
29.175550595
 20
15.3418593532
 30
0.0
 11
29.175550595
 21
10.4115562977
 31
0.0
  0
LINE
  5
F5
330
8A
100
AcDbEntity
  8
0
370
    18
100
AcDbLine
 10
29.175550595
 20
10.4115562977
 30
0.0
 11
28.3179093556
 21
15.3418593532
 31
0.0
  0
LINE
  5
F6
330
8A
100
AcDbEntity
  8
0
370
    18
100
AcDbLine
 10
28.3179093556
 20
15.3418593532
 30
0.0
 11
26.9115194818
 21
15.3418593532
 31
0.0
  0
LINE
  5
F7
330
8A
100
AcDbEntity
  8
0
370
    18
100
AcDbLine
 10
26.9115194818
 20
15.3418593532
 30
0.0
 11
26.9115194818
 21
8.5904508131
 31
0.0
  0
LINE
  5
F8
330
8A
100
AcDbEntity
  8
0
370
    18
100
AcDbLine
 10
26.9115194818
 20
8.5904508131
 30
0.0
 11
27.7517243787
 21
8.5904508131
 31
0.0
  0
LINE
  5
F9
330
8A
100
AcDbEntity
  8
0
370
    18
100
AcDbLine
 10
27.7517243787
 20
8.5904508131
 30
0.0
 11
27.7517243787
 21
13.7348097812
 31
0.0
  0
LINE
  5
FA
330
8A
100
AcDbEntity
  8
0
370
    18
100
AcDbLine
 10
27.7517243787
 20
13.7348097812
 30
0.0
 11
28.6387097068
 21
8.5883244299
 31
0.0
  0
LINE
  5
FB
330
8A
100
AcDbEntity
  8
0
370
    18
100
AcDbLine
 10
28.6387097068
 20
8.5883244299
 30
0.0
 11
30.0157554918
 21
8.5904508131
 31
0.0
  0
LINE
  5
FC
330
8A
100
AcDbEntity
  8
0
370
    18
100
AcDbLine
 10
30.0157554918
 20
8.5904508131
 30
0.0
 11
30.0157554918
 21
15.3418593532
 31
0.0
  0
LINE
  5
FD
330
8A
100
AcDbEntity
  8
0
370
    18
100
AcDbLine
 10
30.0157554918
 20
15.3418593532
 30
0.0
 11
29.175550595
 21
15.3418593532
 31
0.0
  0
LINE
  5
FE
330
8A
100
AcDbEntity
  8
0
370
    18
100
AcDbLine
 10
3.3854988525
 20
9.4534080106
 30
0.0
 11
3.292575905
 21
9.4549673583
 31
0.0
  0
LINE
  5
FF
330
8A
100
AcDbEntity
  8
0
370
    18
100
AcDbLine
 10
3.292575905
 20
9.4549673583
 30
0.0
 11
3.292575905
 21
8.5959794095
 31
0.0
  0
LINE
  5
100
330
8A
100
AcDbEntity
  8
0
370
    18
100
AcDbLine
 10
3.292575905
 20
8.5959794095
 30
0.0
 11
3.4568035704
 21
8.5959794095
 31
0.0
  0
LINE
  5
101
330
8A
100
AcDbEntity
  8
0
370
    18
100
AcDbLine
 10
4.9498790008
 20
9.2970479632
 30
0.0
 11
4.9498790008
 21
9.2973314809
 31
0.0
  0
LINE
  5
102
330
8A
100
AcDbEntity
  8
0
370
    18
100
AcDbLine
 10
4.9498790008
 20
14.5159721035
 30
0.0
 11
4.9498790008
 21
15.3285340182
 31
0.0
  0
LINE
  5
103
330
8A
100
AcDbEntity
  8
0
370
    18
100
AcDbLine
 10
4.9498790008
 20
15.3285340182
 30
0.0
 11
4.6043417246
 21
15.3285340182
 31
0.0
  0
LINE
  5
104
330
8A
100
AcDbEntity
  8
0
370
    18
100
AcDbLine
 10
21.230390505
 20
9.4534080106
 30
0.0
 11
21.1375384369
 21
9.4549673583
 31
0.0
  0
LINE
  5
105
330
8A
100
AcDbEntity
  8
0
370
    18
100
AcDbLine
 10
21.1375384369
 20
9.4549673583
 30
0.0
 11
21.1375384369
 21
8.5959794095
 31
0.0
  0
LINE
  5
106
330
8A
100
AcDbEntity
  8
0
370
    18
100
AcDbLine
 10
21.1375384369
 20
8.5959794095
 30
0.0
 11
21.301553464
 21
8.5959794095
 31
0.0
  0
LINE
  5
107
330
8A
100
AcDbEntity
  8
0
370
    18
100
AcDbLine
 10
22.7946997739
 20
9.2970479632
 30
0.0
 11
22.7946997739
 21
9.2973314809
 31
0.0
  0
LINE
  5
108
330
8A
100
AcDbEntity
  8
0
370
    18
100
AcDbLine
 10
22.7946997739
 20
14.5159721035
 30
0.0
 11
22.7946997739
 21
15.3285340182
 31
0.0
  0
LINE
  5
109
330
8A
100
AcDbEntity
  8
0
370
    18
100
AcDbLine
 10
22.7946997739
 20
15.3285340182
 30
0.0
 11
22.4490916182
 21
15.3285340182
 31
0.0
  0
LINE
  5
10A
330
8A
100
AcDbEntity
  8
0
 62
     1
370
    18
100
AcDbLine
 10
12.1710764777
 20
17.9278248886
 30
0.0
 11
9.7662787942
 21
17.9278248886
 31
0.0
  0
LINE
  5
10B
330
8A
100
AcDbEntity
  8
0
 62
     1
370
    18
100
AcDbLine
 10
9.7662787942
 20
17.9278248886
 30
0.0
 11
9.7662787942
 21
20.3329060898
 31
0.0
  0
LINE
  5
10C
330
8A
100
AcDbEntity
  8
0
 62
     1
370
    18
100
AcDbLine
 10
9.7662787942
 20
20.3329060898
 30
0.0
 11
12.1710764777
 21
20.3329060898
 31
0.0
  0
LINE
  5
10D
330
8A
100
AcDbEntity
  8
0
 62
     1
370
    18
100
AcDbLine
 10
12.1710764777
 20
20.3329060898
 30
0.0
 11
12.1710764777
 21
17.9278248886
 31
0.0
  0
LINE
  5
10E
330
8A
100
AcDbEntity
  8
0
 62
     1
370
    18
100
AcDbLine
 10
12.1710764777
 20
3.67
 30
0.0
 11
9.7662787942
 21
3.67
 31
0.0
  0
LINE
  5
10F
330
8A
100
AcDbEntity
  8
0
 62
     1
370
    18
100
AcDbLine
 10
9.7662787942
 20
3.67
 30
0.0
 11
9.7662787942
 21
6.0749394424
 31
0.0
  0
LINE
  5
110
330
8A
100
AcDbEntity
  8
0
 62
     1
370
    18
100
AcDbLine
 10
9.7662787942
 20
6.0749394424
 30
0.0
 11
12.1710764777
 21
6.0749394424
 31
0.0
  0
LINE
  5
111
330
8A
100
AcDbEntity
  8
0
 62
     1
370
    18
100
AcDbLine
 10
12.1710764777
 20
6.0749394424
 30
0.0
 11
12.1710764777
 21
3.67
 31
0.0
  0
LINE
  5
112
330
8A
100
AcDbEntity
  8
0
 62
     1
370
    18
100
AcDbLine
 10
25.8269222715
 20
17.9278248886
 30
0.0
 11
23.422124588
 21
17.9278248886
 31
0.0
  0
LINE
  5
113
330
8A
100
AcDbEntity
  8
0
 62
     1
370
    18
100
AcDbLine
 10
23.422124588
 20
17.9278248886
 30
0.0
 11
23.422124588
 21
20.3329060898
 31
0.0
  0
LINE
  5
114
330
8A
100
AcDbEntity
  8
0
 62
     1
370
    18
100
AcDbLine
 10
23.422124588
 20
20.3329060898
 30
0.0
 11
25.8269222715
 21
20.3329060898
 31
0.0
  0
LINE
  5
115
330
8A
100
AcDbEntity
  8
0
 62
     1
370
    18
100
AcDbLine
 10
25.8269222715
 20
20.3329060898
 30
0.0
 11
25.8269222715
 21
17.9278248886
 31
0.0
  0
LINE
  5
116
330
8A
100
AcDbEntity
  8
0
 62
     1
370
    18
100
AcDbLine
 10
25.8269222715
 20
3.67
 30
0.0
 11
23.422124588
 21
3.67
 31
0.0
  0
LINE
  5
117
330
8A
100
AcDbEntity
  8
0
 62
     1
370
    18
100
AcDbLine
 10
23.422124588
 20
3.67
 30
0.0
 11
23.422124588
 21
6.0749394424
 31
0.0
  0
LINE
  5
118
330
8A
100
AcDbEntity
  8
0
 62
     1
370
    18
100
AcDbLine
 10
23.422124588
 20
6.0749394424
 30
0.0
 11
25.8269222715
 21
6.0749394424
 31
0.0
  0
LINE
  5
119
330
8A
100
AcDbEntity
  8
0
 62
     1
370
    18
100
AcDbLine
 10
25.8269222715
 20
6.0749394424
 30
0.0
 11
25.8269222715
 21
3.67
 31
0.0
  0
LINE
  5
11A
330
8A
100
AcDbEntity
  8
0
370
    18
100
AcDbLine
 10
8.2465526938
 20
15.3418593532
 30
0.0
 11
7.4064186764
 21
15.3418593532
 31
0.0
  0
LINE
  5
11B
330
8A
100
AcDbEntity
  8
0
370
    18
100
AcDbLine
 10
7.4064186764
 20
15.3418593532
 30
0.0
 11
7.4025203072
 21
9.7790281638
 31
0.0
  0
LINE
  5
11C
330
8A
100
AcDbEntity
  8
0
370
    18
100
AcDbLine
 10
6.5577791261
 20
9.7866831435
 30
0.0
 11
6.554873069
 21
15.3418593532
 31
0.0
  0
LINE
  5
11D
330
8A
100
AcDbEntity
  8
0
370
    18
100
AcDbLine
 10
6.554873069
 20
15.3418593532
 30
0.0
 11
5.7147390516
 21
15.3418593532
 31
0.0
  0
LINE
  5
11E
330
8A
100
AcDbEntity
  8
0
370
    18
100
AcDbLine
 10
26.1769249525
 20
15.3418593532
 30
0.0
 11
25.3368618145
 21
15.3418593532
 31
0.0
  0
LINE
  5
11F
330
8A
100
AcDbEntity
  8
0
370
    18
100
AcDbLine
 10
25.3368618145
 20
15.3418593532
 30
0.0
 11
25.3327508069
 21
9.7790281638
 31
0.0
  0
LINE
  5
120
330
8A
100
AcDbEntity
  8
0
370
    18
100
AcDbLine
 10
24.4880096259
 20
9.7866831435
 30
0.0
 11
24.4851744482
 21
15.3418593532
 31
0.0
  0
LINE
  5
121
330
8A
100
AcDbEntity
  8
0
370
    18
100
AcDbLine
 10
24.4851744482
 20
15.3418593532
 30
0.0
 11
23.6451113103
 21
15.3418593532
 31
0.0
  0
LINE
  5
122
330
8A
100
AcDbEntity
  8
0
370
    18
100
AcDbLine
 10
12.9538690271
 20
12.6636087853
 30
0.0
 11
11.909956616
 21
11.8235456473
 31
0.0
  0
LINE
  5
123
330
8A
100
AcDbEntity
  8
0
370
    18
100
AcDbLine
 10
11.909956616
 20
11.8235456473
 30
0.0
 11
14.4506301884
 21
11.8235456473
 31
0.0
  0
LINE
  5
124
330
8A
100
AcDbEntity
  8
0
370
    18
100
AcDbLine
 10
14.4506301884
 20
11.8235456473
 30
0.0
 11
14.4506301884
 21
10.4153837876
 31
0.0
  0
LINE
  5
125
330
8A
100
AcDbEntity
  8
0
370
    18
100
AcDbLine
 10
14.5099562808
 20
13.5421594598
 30
0.0
 11
15.2200265234
 21
14.0836783912
 31
0.0
  0
LINE
  5
126
330
8A
100
AcDbEntity
  8
0
370
    18
100
AcDbLine
 10
15.2916856385
 20
10.0266809316
 30
0.0
 11
15.2905515675
 21
12.6636087853
 31
0.0
  0
LINE
  5
127
330
8A
100
AcDbEntity
  8
0
370
    18
100
AcDbLine
 10
15.2905515675
 20
12.6636087853
 30
0.0
 11
12.9538690271
 21
12.6636087853
 31
0.0
  0
LINE
  5
128
330
8A
100
AcDbEntity
  8
0
370
    18
100
AcDbLine
 10
17.7875634041
 20
15.3342043735
 30
0.0
 11
16.3643042233
 21
15.3342043735
 31
0.0
  0
LINE
  5
129
330
8A
100
AcDbEntity
  8
0
370
    18
100
AcDbLine
 10
16.3643042233
 20
15.3342043735
 30
0.0
 11
15.5117663037
 21
8.5904508131
 31
0.0
  0
LINE
  5
12A
330
8A
100
AcDbEntity
  8
0
370
    18
100
AcDbLine
 10
15.5117663037
 20
8.5904508131
 30
0.0
 11
16.3519003211
 21
8.5904508131
 31
0.0
  0
LINE
  5
12B
330
8A
100
AcDbEntity
  8
0
370
    18
100
AcDbLine
 10
16.3519003211
 20
8.5904508131
 30
0.0
 11
16.5956547196
 21
10.5190095307
 31
0.0
  0
LINE
  5
12C
330
8A
100
AcDbEntity
  8
0
370
    18
100
AcDbLine
 10
16.5956547196
 20
10.5190095307
 30
0.0
 11
17.5561420283
 21
10.5190095307
 31
0.0
  0
LINE
  5
12D
330
8A
100
AcDbEntity
  8
0
370
    18
100
AcDbLine
 10
17.5561420283
 20
10.5190095307
 30
0.0
 11
17.8000381857
 21
8.5904508131
 31
0.0
  0
LINE
  5
12E
330
8A
100
AcDbEntity
  8
0
370
    18
100
AcDbLine
 10
17.8000381857
 20
8.5904508131
 30
0.0
 11
18.6401722031
 21
8.5904508131
 31
0.0
  0
LINE
  5
12F
330
8A
100
AcDbEntity
  8
0
370
    18
100
AcDbLine
 10
18.6401722031
 20
8.5904508131
 30
0.0
 11
17.7875634041
 21
15.3342043735
 31
0.0
  0
LINE
  5
130
330
8A
100
AcDbEntity
  8
0
370
    18
100
AcDbLine
 10
16.7253640972
 20
11.5449894431
 30
0.0
 11
17.0745162249
 21
14.306594234
 31
0.0
  0
LINE
  5
131
330
8A
100
AcDbEntity
  8
0
370
    18
100
AcDbLine
 10
17.0745162249
 20
14.306594234
 30
0.0
 11
17.4265035302
 21
11.5449894431
 31
0.0
  0
LINE
  5
132
330
8A
100
AcDbEntity
  8
0
370
    18
100
AcDbLine
 10
17.4265035302
 20
11.5449894431
 30
0.0
 11
16.7253640972
 21
11.5449894431
 31
0.0
  0
SPLINE
  5
133
330
8A
100
AcDbEntity
  8
0
370
    18
100
AcDbSpline
210
0.0
220
0.0
230
1.0
 70
     8
 71
     3
 72
     8
 73
     4
 74
     0
 42
0.000000001
 43
0.00000001
 40
0.0
 40
0.0
 40
0.0
 40
0.0
 40
1.0
 40
1.0
 40
1.0
 40
1.0
 10
3.610044922460022
 20
12.39688944776983
 30
0.0
 10
4.129095070897104
 20
11.47510231402356
 30
0.0
 10
4.338118543209125
 20
11.01807167669972
 30
0.0
 10
4.392341315782439
 20
10.69273504125985
 30
0.0
  0
SPLINE
  5
134
330
8A
100
AcDbEntity
  8
0
100
AcDbSpline
210
0.0
220
0.0
230
1.0
 70
     8
 71
     3
 72
     8
 73
     4
 74
     0
 42
0.000000001
 43
0.00000001
 40
0.0
 40
0.0
 40
0.0
 40
0.0
 40
1.0
 40
1.0
 40
1.0
 40
1.0
 10
3.456803570429299
 20
8.59597940954257
 30
0.0
 10
4.008670900175461
 20
8.625890533759485
 30
0.0
 10
4.525665544815639
 20
8.733627284493354
 30
0.0
 10
4.949879000830379
 20
9.297047963166914
 30
0.0
  0
SPLINE
  5
135
330
8A
100
AcDbEntity
  8
0
370
    18
100
AcDbSpline
210
0.0
220
0.0
230
1.0
 70
     8
 71
     3
 72
     8
 73
     4
 74
     0
 42
0.000000001
 43
0.00000001
 40
1.0
 40
1.0
 40
1.0
 40
1.0
 40
2.0
 40
2.0
 40
2.0
 40
2.0
 10
4.392341315782439
 20
10.69273504125985
 30
0.0
 10
4.44656408835575
 20
10.36732752637871
 30
0.0
 10
4.45662896901642
 20
9.982593919152642
 30
0.0
 10
4.129095070897104
 20
9.654989141592026
 30
0.0
  0
SPLINE
  5
136
330
8A
100
AcDbEntity
  8
0
100
AcDbSpline
210
0.0
220
0.0
230
1.0
 70
     8
 71
     3
 72
     8
 73
     4
 74
     0
 42
0.000000001
 43
0.00000001
 40
0.0
 40
0.0
 40
0.0
 40
0.0
 40
1.0
 40
1.0
 40
1.0
 40
1.0
 10
21.30155346402704
 20
8.59597940954257
 30
0.0
 10
21.85327903489065
 20
8.625890533759485
 30
0.0
 10
22.37041543841338
 20
8.733627284493354
 30
0.0
 10
22.79469977386939
 20
9.297047963166914
 30
0.0
  0
SPLINE
  5
137
330
8A
100
AcDbEntity
  8
0
370
    18
100
AcDbSpline
210
0.0
220
0.0
230
1.0
 70
     8
 71
     2
 72
     6
 73
     3
 74
     0
 42
0.000000001
 43
0.00000001
 40
2.0
 40
2.0
 40
2.0
 40
3.0
 40
3.0
 40
3.0
 10
4.129095070897104
 20
9.654989141592026
 30
0.0
 10
3.919858960261265
 20
9.445611272073664
 30
0.0
 10
3.385498852509362
 20
9.453408010613625
 30
0.0
  0
SPLINE
  5
138
330
8A
100
AcDbEntity
  8
0
370
    18
100
AcDbSpline
210
0.0
220
0.0
230
1.0
 70
     8
 71
     3
 72
     8
 73
     4
 74
     0
 42
0.000000001
 43
0.00000001
 40
6.0
 40
6.0
 40
6.0
 40
6.0
 40
7.0
 40
7.0
 40
7.0
 40
7.0
 10
3.456803570429299
 20
8.59597940954257
 30
0.0
 10
4.008670900175461
 20
8.625890533759485
 30
0.0
 10
4.525665544815639
 20
8.733627284493354
 30
0.0
 10
4.949879000830379
 20
9.297047963166914
 30
0.0
  0
SPLINE
  5
139
330
8A
100
AcDbEntity
  8
0
100
AcDbSpline
210
0.0
220
0.0
230
1.0
 70
     8
 71
     2
 72
     6
 73
     3
 74
     0
 42
0.000000001
 43
0.00000001
 40
0.0
 40
0.0
 40
0.0
 40
1.0
 40
1.0
 40
1.0
 10
14.45063018841125
 20
10.41538378756133
 30
0.0
 10
14.35969186525889
 20
10.27064796848328
 30
0.0
 10
14.18199710598922
 20
10.09600102518832
 30
0.0
  0
SPLINE
  5
13A
330
8A
100
AcDbEntity
  8
0
370
    18
100
AcDbSpline
210
0.0
220
0.0
230
1.0
 70
     8
 71
     3
 72
     8
 73
     4
 74
     0
 42
0.000000001
 43
0.00000001
 40
8.0
 40
8.0
 40
8.0
 40
8.0
 40
9.0
 40
9.0
 40
9.0
 40
9.0
 10
4.949879000830379
 20
9.297331480932005
 30
0.0
 10
5.118713829941009
 20
9.538605099022927
 30
0.0
 10
5.231270382681425
 20
9.822689899642315
 30
0.0
 10
5.267560656612845
 20
10.088629563296
 30
0.0
  0
SPLINE
  5
13B
330
8A
100
AcDbEntity
  8
0
370
    18
100
AcDbSpline
210
0.0
220
0.0
230
1.0
 70
     8
 71
     3
 72
     8
 73
     4
 74
     0
 42
0.000000001
 43
0.00000001
 40
9.0
 40
9.0
 40
9.0
 40
9.0
 40
10.0
 40
10.0
 40
10.0
 40
10.0
 10
5.267560656612845
 20
10.088629563296
 30
0.0
 10
5.314057570087478
 20
10.42941791693324
 30
0.0
 10
5.252038058974208
 20
10.71612525687973
 30
0.0
 10
5.182363568203539
 20
11.01041669704231
 30
0.0
  0
SPLINE
  5
13C
330
8A
100
AcDbEntity
  8
0
370
    18
100
AcDbSpline
210
0.0
220
0.0
230
1.0
 70
     8
 71
     3
 72
     8
 73
     4
 74
     0
 42
0.000000001
 43
0.00000001
 40
10.0
 40
10.0
 40
10.0
 40
10.0
 40
11.0
 40
11.0
 40
11.0
 40
11.0
 10
5.182363568203539
 20
11.01041669704231
 30
0.0
 10
5.137851279084528
 20
11.19796369864881
 30
0.0
 10
4.872478650961024
 20
11.82099398743238
 30
0.0
 10
4.833849355467621
 20
11.90122951495261
 30
0.0
  0
SPLINE
  5
13D
330
8A
100
AcDbEntity
  8
0
370
    18
100
AcDbSpline
210
0.0
220
0.0
230
1.0
 70
     8
 71
     3
 72
     8
 73
     4
 74
     0
 42
0.000000001
 43
0.00000001
 40
11.0
 40
11.0
 40
11.0
 40
11.0
 40
12.0
 40
12.0
 40
12.0
 40
12.0
 10
4.833849355467621
 20
11.90122951495261
 30
0.0
 10
4.648145219334186
 20
12.28582136329613
 30
0.0
 10
4.291692509175768
 20
12.88482352148837
 30
0.0
 10
4.175521104930461
 20
13.22568275456688
 30
0.0
  0
SPLINE
  5
13E
330
8A
100
AcDbEntity
  8
0
370
    18
100
AcDbSpline
210
0.0
220
0.0
230
1.0
 70
     8
 71
     3
 72
     8
 73
     4
 74
     0
 42
0.000000001
 43
0.00000001
 40
12.0
 40
12.0
 40
12.0
 40
12.0
 40
13.0
 40
13.0
 40
13.0
 40
13.0
 10
4.175521104930461
 20
13.22568275456688
 30
0.0
 10
4.059349700685156
 20
13.56640022876286
 30
0.0
 10
4.098049875619833
 20
13.97693395261202
 30
0.0
 10
4.160069386733099
 20
14.14711549110683
 30
0.0
  0
SPLINE
  5
13F
330
8A
100
AcDbEntity
  8
0
370
    18
100
AcDbSpline
210
0.0
220
0.0
230
1.0
 70
     8
 71
     3
 72
     8
 73
     4
 74
     0
 42
0.000000001
 43
0.00000001
 40
13.0
 40
13.0
 40
13.0
 40
13.0
 40
14.0
 40
14.0
 40
14.0
 40
14.0
 10
4.160069386733099
 20
14.14711549110683
 30
0.0
 10
4.222018018405095
 20
14.31750966792545
 30
0.0
 10
4.40006717488112
 20
14.46493890577188
 30
0.0
 10
4.578258090239689
 20
14.50349732182399
 30
0.0
  0
SPLINE
  5
140
330
8A
100
AcDbEntity
  8
0
370
    18
100
AcDbSpline
210
0.0
220
0.0
230
1.0
 70
     8
 71
     3
 72
     8
 73
     4
 74
     0
 42
0.000000001
 43
0.00000001
 40
14.0
 40
14.0
 40
14.0
 40
14.0
 40
15.0
 40
15.0
 40
15.0
 40
15.0
 10
4.578258090239689
 20
14.50349732182399
 30
0.0
 10
4.678694258522547
 20
14.52539906917713
 30
0.0
 10
4.815845977384454
 20
14.52242213264369
 30
0.0
 10
4.949879000830379
 20
14.51597210348793
 30
0.0
  0
SPLINE
  5
141
330
8A
100
AcDbEntity
  8
0
370
    18
100
AcDbSpline
210
0.0
220
0.0
230
1.0
 70
     8
 71
     3
 72
     8
 73
     4
 74
     0
 42
0.000000001
 43
0.00000001
 40
17.0
 40
17.0
 40
17.0
 40
17.0
 40
18.0
 40
18.0
 40
18.0
 40
18.0
 10
4.604341724627901
 20
15.3285340182336
 30
0.0
 10
4.293818892413936
 20
15.3285340182336
 30
0.0
 10
3.922056222940704
 20
15.17954543267921
 30
0.0
 10
3.648886856277244
 20
14.89078258893584
 30
0.0
  0
SPLINE
  5
142
330
8A
100
AcDbEntity
  8
0
370
    18
100
AcDbSpline
210
0.0
220
0.0
230
1.0
 70
     8
 71
     3
 72
     8
 73
     4
 74
     0
 42
0.000000001
 43
0.00000001
 40
18.0
 40
18.0
 40
18.0
 40
18.0
 40
19.0
 40
19.0
 40
19.0
 40
19.0
 10
3.648886856277244
 20
14.89078258893584
 30
0.0
 10
3.355091572203543
 20
14.5804723950457
 30
0.0
 10
3.176404500756066
 20
14.23252521783996
 30
0.0
 10
3.230627273329383
 20
13.57412608786154
 30
0.0
  0
SPLINE
  5
143
330
8A
100
AcDbEntity
  8
0
370
    18
100
AcDbSpline
210
0.0
220
0.0
230
1.0
 70
     8
 71
     3
 72
     8
 73
     4
 74
     0
 42
0.000000001
 43
0.00000001
 40
19.0
 40
19.0
 40
19.0
 40
19.0
 40
20.0
 40
20.0
 40
20.0
 40
20.0
 10
3.230627273329383
 20
13.57412608786154
 30
0.0
 10
3.261530709724104
 20
13.17124734366976
 30
0.0
 10
3.356792678794077
 20
12.84683214096644
 30
0.0
 10
3.610044922460022
 20
12.39688944776983
 30
0.0
  0
SPLINE
  5
144
330
8A
100
AcDbEntity
  8
0
370
    18
100
AcDbSpline
210
0.0
220
0.0
230
1.0
 70
     8
 71
     3
 72
     8
 73
     4
 74
     0
 42
0.000000001
 43
0.00000001
 40
0.0
 40
0.0
 40
0.0
 40
0.0
 40
1.0
 40
1.0
 40
1.0
 40
1.0
 10
21.45465305717521
 20
12.39688944776983
 30
0.0
 10
21.97377408505358
 20
11.47510231402356
 30
0.0
 10
22.18301019568941
 20
11.01807167669972
 30
0.0
 10
22.23716208882146
 20
10.69273504125985
 30
0.0
  0
SPLINE
  5
145
330
8A
100
AcDbEntity
  8
0
370
    18
100
AcDbSpline
210
0.0
220
0.0
230
1.0
 70
     8
 71
     3
 72
     8
 73
     4
 74
     0
 42
0.000000001
 43
0.00000001
 40
1.0
 40
1.0
 40
1.0
 40
1.0
 40
2.0
 40
2.0
 40
2.0
 40
2.0
 10
22.23716208882146
 20
10.69273504125985
 30
0.0
 10
22.29117222307095
 20
10.36732752637871
 30
0.0
 10
22.30137886261416
 20
9.982593919152642
 30
0.0
 10
21.97377408505358
 20
9.654989141592026
 30
0.0
  0
SPLINE
  5
146
330
8A
100
AcDbEntity
  8
0
370
    18
100
AcDbSpline
210
0.0
220
0.0
230
1.0
 70
     8
 71
     2
 72
     6
 73
     3
 74
     0
 42
0.000000001
 43
0.00000001
 40
2.0
 40
2.0
 40
2.0
 40
3.0
 40
3.0
 40
3.0
 10
21.97377408505358
 20
9.654989141592026
 30
0.0
 10
21.76453797441773
 20
9.445611272073664
 30
0.0
 10
21.23039050498965
 20
9.453408010613625
 30
0.0
  0
SPLINE
  5
147
330
8A
100
AcDbEntity
  8
0
370
    18
100
AcDbSpline
210
0.0
220
0.0
230
1.0
 70
     8
 71
     3
 72
     8
 73
     4
 74
     0
 42
0.000000001
 43
0.00000001
 40
6.0
 40
6.0
 40
6.0
 40
6.0
 40
7.0
 40
7.0
 40
7.0
 40
7.0
 10
21.30155346402704
 20
8.59597940954257
 30
0.0
 10
21.85327903489065
 20
8.625890533759485
 30
0.0
 10
22.37041543841338
 20
8.733627284493354
 30
0.0
 10
22.79469977386939
 20
9.297047963166914
 30
0.0
  0
SPLINE
  5
148
330
8A
100
AcDbEntity
  8
0
370
    18
100
AcDbSpline
210
0.0
220
0.0
230
1.0
 70
     8
 71
     3
 72
     8
 73
     4
 74
     0
 42
0.000000001
 43
0.00000001
 40
8.0
 40
8.0
 40
8.0
 40
8.0
 40
9.0
 40
9.0
 40
9.0
 40
9.0
 10
22.79469977386939
 20
9.297331480932005
 30
0.0
 10
22.96353460298002
 20
9.538605099022927
 30
0.0
 10
23.07609115572044
 20
9.822689899642315
 30
0.0
 10
23.11238142965186
 20
10.088629563296
 30
0.0
  0
SPLINE
  5
149
330
8A
100
AcDbEntity
  8
0
370
    18
100
AcDbSpline
210
0.0
220
0.0
230
1.0
 70
     8
 71
     3
 72
     8
 73
     4
 74
     0
 42
0.000000001
 43
0.00000001
 40
9.0
 40
9.0
 40
9.0
 40
9.0
 40
10.0
 40
10.0
 40
10.0
 40
10.0
 10
23.11238142965186
 20
10.088629563296
 30
0.0
 10
23.15887834312649
 20
10.42941791693324
 30
0.0
 10
23.09678795257196
 20
10.71612525687973
 30
0.0
 10
23.02704258236
 20
11.01041669704231
 30
0.0
  0
SPLINE
  5
14A
330
8A
100
AcDbEntity
  8
0
370
    18
100
AcDbSpline
210
0.0
220
0.0
230
1.0
 70
     8
 71
     3
 72
     8
 73
     4
 74
     0
 42
0.000000001
 43
0.00000001
 40
10.0
 40
10.0
 40
10.0
 40
10.0
 40
11.0
 40
11.0
 40
11.0
 40
11.0
 10
23.02704258236
 20
11.01041669704231
 30
0.0
 10
22.982530293241
 20
11.19796369864881
 30
0.0
 10
22.7171576651175
 20
11.82099398743238
 30
0.0
 10
22.67859924906536
 20
11.90122951495261
 30
0.0
  0
SPLINE
  5
14B
330
8A
100
AcDbEntity
  8
0
370
    18
100
AcDbSpline
210
0.0
220
0.0
230
1.0
 70
     8
 71
     3
 72
     8
 73
     4
 74
     0
 42
0.000000001
 43
0.00000001
 40
11.0
 40
11.0
 40
11.0
 40
11.0
 40
12.0
 40
12.0
 40
12.0
 40
12.0
 10
22.67859924906536
 20
11.90122951495261
 30
0.0
 10
22.49289511293193
 20
12.28582136329613
 30
0.0
 10
22.13651328221478
 20
12.88482352148837
 30
0.0
 10
22.02041275741075
 20
13.22568275456688
 30
0.0
  0
SPLINE
  5
14C
330
8A
100
AcDbEntity
  8
0
370
    18
100
AcDbSpline
210
0.0
220
0.0
230
1.0
 70
     8
 71
     3
 72
     8
 73
     4
 74
     0
 42
0.000000001
 43
0.00000001
 40
12.0
 40
12.0
 40
12.0
 40
12.0
 40
13.0
 40
13.0
 40
13.0
 40
13.0
 10
22.02041275741075
 20
13.22568275456688
 30
0.0
 10
21.90417047372417
 20
13.56640022876286
 30
0.0
 10
21.9427288897763
 20
13.97693395261202
 30
0.0
 10
22.00467752144829
 20
14.14711549110683
 30
0.0
  0
SPLINE
  5
14D
330
8A
100
AcDbEntity
  8
0
370
    18
100
AcDbSpline
210
0.0
220
0.0
230
1.0
 70
     8
 71
     3
 72
     8
 73
     4
 74
     0
 42
0.000000001
 43
0.00000001
 40
13.0
 40
13.0
 40
13.0
 40
13.0
 40
14.0
 40
14.0
 40
14.0
 40
14.0
 10
22.00467752144829
 20
14.14711549110683
 30
0.0
 10
22.06676791200283
 20
14.31750966792545
 30
0.0
 10
22.24481706847886
 20
14.46493890577188
 30
0.0
 10
22.42286622495489
 20
14.50349732182399
 30
0.0
  0
SPLINE
  5
14E
330
8A
100
AcDbEntity
  8
0
370
    18
100
AcDbSpline
210
0.0
220
0.0
230
1.0
 70
     8
 71
     3
 72
     8
 73
     4
 74
     0
 42
0.000000001
 43
0.00000001
 40
14.0
 40
14.0
 40
14.0
 40
14.0
 40
15.0
 40
15.0
 40
15.0
 40
15.0
 10
22.42286622495489
 20
14.50349732182399
 30
0.0
 10
22.52351503156157
 20
14.52539906917713
 30
0.0
 10
22.6605958709822
 20
14.52242213264369
 30
0.0
 10
22.79469977386939
 20
14.51597210348793
 30
0.0
  0
SPLINE
  5
14F
330
8A
100
AcDbEntity
  8
0
370
    18
100
AcDbSpline
210
0.0
220
0.0
230
1.0
 70
     8
 71
     3
 72
     8
 73
     4
 74
     0
 42
0.000000001
 43
0.00000001
 40
17.0
 40
17.0
 40
17.0
 40
17.0
 40
18.0
 40
18.0
 40
18.0
 40
18.0
 10
22.44909161822564
 20
15.3285340182336
 30
0.0
 10
22.13849790657041
 20
15.3285340182336
 30
0.0
 10
21.76680611653844
 20
15.17954543267921
 30
0.0
 10
21.49363674987499
 20
14.89078258893584
 30
0.0
  0
SPLINE
  5
150
330
8A
100
AcDbEntity
  8
0
370
    18
100
AcDbSpline
210
0.0
220
0.0
230
1.0
 70
     8
 71
     3
 72
     8
 73
     4
 74
     0
 42
0.000000001
 43
0.00000001
 40
18.0
 40
18.0
 40
18.0
 40
18.0
 40
19.0
 40
19.0
 40
19.0
 40
19.0
 10
21.49363674987499
 20
14.89078258893584
 30
0.0
 10
21.19977058636001
 20
14.5804723950457
 30
0.0
 10
21.02115439435381
 20
14.23252521783996
 30
0.0
 10
21.07530628748584
 20
13.57412608786154
 30
0.0
  0
SPLINE
  5
151
330
8A
100
AcDbEntity
  8
0
370
    18
100
AcDbSpline
210
0.0
220
0.0
230
1.0
 70
     8
 71
     3
 72
     8
 73
     4
 74
     0
 42
0.000000001
 43
0.00000001
 40
19.0
 40
19.0
 40
19.0
 40
19.0
 40
20.0
 40
20.0
 40
20.0
 40
20.0
 10
21.07530628748584
 20
13.57412608786154
 30
0.0
 10
21.10620972388057
 20
13.17124734366976
 30
0.0
 10
21.20147169295055
 20
12.84683214096644
 30
0.0
 10
21.45465305717521
 20
12.39688944776983
 30
0.0
  0
SPLINE
  5
152
330
8A
100
AcDbEntity
  8
0
370
    18
100
AcDbSpline
210
0.0
220
0.0
230
1.0
 70
     8
 71
     3
 72
     8
 73
     4
 74
     0
 42
0.000000001
 43
0.00000001
 40
2.0
 40
2.0
 40
2.0
 40
2.0
 40
3.0
 40
3.0
 40
3.0
 40
3.0
 10
7.402520307175909
 20
9.779028163818586
 30
0.0
 10
7.391392234896158
 20
9.555332647163173
 30
0.0
 10
7.206893049264348
 20
9.376999972922052
 30
0.0
 10
6.980291475516796
 20
9.376999972922052
 30
0.0
  0
SPLINE
  5
153
330
8A
100
AcDbEntity
  8
0
370
    18
100
AcDbSpline
210
0.0
220
0.0
230
1.0
 70
     8
 71
     3
 72
     8
 73
     4
 74
     0
 42
0.000000001
 43
0.00000001
 40
3.0
 40
3.0
 40
3.0
 40
3.0
 40
4.0
 40
4.0
 40
4.0
 40
4.0
 10
6.980291475516796
 20
9.376999972922052
 30
0.0
 10
6.751138241883437
 20
9.376999972922052
 30
0.0
 10
6.564937949661092
 20
9.559301895874432
 30
0.0
 10
6.557779126092594
 20
9.786683143475988
 30
0.0
  0
SPLINE
  5
154
330
8A
100
AcDbEntity
  8
0
370
    18
100
AcDbSpline
210
0.0
220
0.0
230
1.0
 70
     8
 71
     2
 72
     6
 73
     3
 74
     0
 42
0.000000001
 43
0.00000001
 40
6.0
 40
6.0
 40
6.0
 40
7.0
 40
7.0
 40
7.0
 10
5.714739051599811
 20
15.34185935319279
 30
0.0
 10
5.713888498304544
 20
9.698509118533215
 30
0.0
 10
5.713888498304544
 20
9.695815699764879
 30
0.0
  0
SPLINE
  5
155
330
8A
100
AcDbEntity
  8
0
370
    18
100
AcDbSpline
210
0.0
220
0.0
230
1.0
 70
     8
 71
     3
 72
     8
 73
     4
 74
     0
 42
0.000000001
 43
0.00000001
 40
7.0
 40
7.0
 40
7.0
 40
7.0
 40
8.0
 40
8.0
 40
8.0
 40
8.0
 10
5.713888498304544
 20
9.695815699764879
 30
0.0
 10
5.713888498304544
 20
8.997582323791436
 30
0.0
 10
6.279931716305157
 20
8.431680864673364
 30
0.0
 10
6.978094212837349
 20
8.431680864673364
 30
0.0
  0
SPLINE
  5
156
330
8A
100
AcDbEntity
  8
0
370
    18
100
AcDbSpline
210
0.0
220
0.0
230
1.0
 70
     8
 71
     3
 72
     8
 73
     4
 74
     0
 42
0.000000001
 43
0.00000001
 40
8.0
 40
8.0
 40
8.0
 40
8.0
 40
9.0
 40
9.0
 40
9.0
 40
9.0
 10
6.978094212837349
 20
8.431680864673364
 30
0.0
 10
7.676256709369548
 20
8.431680864673364
 30
0.0
 10
8.242299927370162
 20
8.997298806026343
 30
0.0
 10
8.242299927370162
 20
9.695815699764879
 30
0.0
  0
SPLINE
  5
157
330
8A
100
AcDbEntity
  8
0
370
    18
100
AcDbSpline
210
0.0
220
0.0
230
1.0
 70
     8
 71
     2
 72
     6
 73
     3
 74
     0
 42
0.000000001
 43
0.00000001
 40
9.0
 40
9.0
 40
9.0
 40
10.0
 40
10.0
 40
10.0
 10
8.242299927370162
 20
9.695815699764879
 30
0.0
 10
8.242299927370162
 20
9.701060778419045
 30
0.0
 10
8.246552693846501
 20
15.34185935319279
 30
0.0
  0
SPLINE
  5
158
330
8A
100
AcDbEntity
  8
0
370
    18
100
AcDbSpline
210
0.0
220
0.0
230
1.0
 70
     8
 71
     3
 72
     8
 73
     4
 74
     0
 42
0.000000001
 43
0.00000001
 40
2.0
 40
2.0
 40
2.0
 40
2.0
 40
3.0
 40
3.0
 40
3.0
 40
3.0
 10
25.33275080694805
 20
9.779028163818586
 30
0.0
 10
25.32155185522702
 20
9.555332647163173
 30
0.0
 10
25.13726530791903
 20
9.376999972922052
 30
0.0
 10
24.91073461361275
 20
9.376999972922052
 30
0.0
  0
SPLINE
  5
159
330
8A
100
AcDbEntity
  8
0
370
    18
100
AcDbSpline
210
0.0
220
0.0
230
1.0
 70
     8
 71
     3
 72
     8
 73
     4
 74
     0
 42
0.000000001
 43
0.00000001
 40
3.0
 40
3.0
 40
3.0
 40
3.0
 40
4.0
 40
4.0
 40
4.0
 40
4.0
 10
24.91073461361275
 20
9.376999972922052
 30
0.0
 10
24.68136874165558
 20
9.376999972922052
 30
0.0
 10
24.4952393288745
 20
9.559301895874432
 30
0.0
 10
24.48800962586473
 20
9.786683143475988
 30
0.0
  0
SPLINE
  5
15A
330
8A
100
AcDbEntity
  8
0
370
    18
100
AcDbSpline
210
0.0
220
0.0
230
1.0
 70
     8
 71
     2
 72
     6
 73
     3
 74
     0
 42
0.000000001
 43
0.00000001
 40
6.0
 40
6.0
 40
6.0
 40
7.0
 40
7.0
 40
7.0
 10
23.64511131025449
 20
15.34185935319279
 30
0.0
 10
23.64426075695922
 20
9.698509118533215
 30
0.0
 10
23.64426075695922
 20
9.695815699764879
 30
0.0
  0
SPLINE
  5
15B
330
8A
100
AcDbEntity
  8
0
370
    18
100
AcDbSpline
210
0.0
220
0.0
230
1.0
 70
     8
 71
     3
 72
     8
 73
     4
 74
     0
 42
0.000000001
 43
0.00000001
 40
7.0
 40
7.0
 40
7.0
 40
7.0
 40
8.0
 40
8.0
 40
8.0
 40
8.0
 10
23.64426075695922
 20
9.695815699764879
 30
0.0
 10
23.64426075695922
 20
8.997582323791436
 30
0.0
 10
24.2101622160773
 20
8.431680864673364
 30
0.0
 10
24.9083247126095
 20
8.431680864673364
 30
0.0
  0
SPLINE
  5
15C
330
8A
100
AcDbEntity
  8
0
370
    18
100
AcDbSpline
210
0.0
220
0.0
230
1.0
 70
     8
 71
     3
 72
     8
 73
     4
 74
     0
 42
0.000000001
 43
0.00000001
 40
8.0
 40
8.0
 40
8.0
 40
8.0
 40
9.0
 40
9.0
 40
9.0
 40
9.0
 10
24.9083247126095
 20
8.431680864673364
 30
0.0
 10
25.60648720914169
 20
8.431680864673364
 30
0.0
 10
26.17267218602484
 20
8.997298806026343
 30
0.0
 10
26.17267218602484
 20
9.695815699764879
 30
0.0
  0
SPLINE
  5
15D
330
8A
100
AcDbEntity
  8
0
370
    18
100
AcDbSpline
210
0.0
220
0.0
230
1.0
 70
     8
 71
     2
 72
     6
 73
     3
 74
     0
 42
0.000000001
 43
0.00000001
 40
9.0
 40
9.0
 40
9.0
 40
10.0
 40
10.0
 40
10.0
 10
26.17267218602484
 20
9.695815699764879
 30
0.0
 10
26.17267218602484
 20
9.701060778419045
 30
0.0
 10
26.17692495250119
 20
15.34185935319279
 30
0.0
  0
SPLINE
  5
15E
330
8A
100
AcDbEntity
  8
0
370
    18
100
AcDbSpline
210
0.0
220
0.0
230
1.0
 70
     8
 71
     2
 72
     6
 73
     3
 74
     0
 42
0.000000001
 43
0.00000001
 40
3.0
 40
3.0
 40
3.0
 40
4.0
 40
4.0
 40
4.0
 10
14.45063018841125
 20
10.41538378756133
 30
0.0
 10
14.35969186525889
 20
10.27064796848328
 30
0.0
 10
14.18199710598922
 20
10.09600102518832
 30
0.0
  0
SPLINE
  5
15F
330
8A
100
AcDbEntity
  8
0
370
    18
100
AcDbSpline
210
0.0
220
0.0
230
1.0
 70
     8
 71
     3
 72
     8
 73
     4
 74
     0
 42
0.000000001
 43
0.00000001
 40
4.0
 40
4.0
 40
4.0
 40
4.0
 40
5.0
 40
5.0
 40
5.0
 40
5.0
 10
14.18199710598922
 20
10.09600102518832
 30
0.0
 10
13.69647293327394
 20
9.605231773818897
 30
0.0
 10
13.01900723359326
 20
9.300450176347976
 30
0.0
 10
12.26938626269738
 20
9.300450176347976
 30
0.0
  0
SPLINE
  5
160
330
8A
100
AcDbEntity
  8
0
370
    18
100
AcDbSpline
210
0.0
220
0.0
230
1.0
 70
     8
 71
     3
 72
     8
 73
     4
 74
     0
 42
0.000000001
 43
0.00000001
 40
5.0
 40
5.0
 40
5.0
 40
5.0
 40
6.0
 40
6.0
 40
6.0
 40
6.0
 10
12.26938626269738
 20
9.300450176347976
 30
0.0
 10
10.79254222434765
 20
9.300450176347976
 30
0.0
 10
9.595246702375896
 20
10.48300277453512
 30
0.0
 10
9.595246702375896
 20
11.94219783200801
 30
0.0
  0
SPLINE
  5
161
330
8A
100
AcDbEntity
  8
0
370
    18
100
AcDbSpline
210
0.0
220
0.0
230
1.0
 70
     8
 71
     3
 72
     8
 73
     4
 74
     0
 42
0.000000001
 43
0.00000001
 40
6.0
 40
6.0
 40
6.0
 40
6.0
 40
7.0
 40
7.0
 40
7.0
 40
7.0
 10
9.595246702375896
 20
11.94219783200801
 30
0.0
 10
9.595246702375896
 20
13.40096761283331
 30
0.0
 10
10.79254222434765
 20
14.58366196990294
 30
0.0
 10
12.26938626269738
 20
14.58366196990294
 30
0.0
  0
SPLINE
  5
162
330
8A
100
AcDbEntity
  8
0
370
    18
100
AcDbSpline
210
0.0
220
0.0
230
1.0
 70
     8
 71
     3
 72
     8
 73
     4
 74
     0
 42
0.000000001
 43
0.00000001
 40
7.0
 40
7.0
 40
7.0
 40
7.0
 40
8.0
 40
8.0
 40
8.0
 40
8.0
 10
12.26938626269738
 20
14.58366196990294
 30
0.0
 10
13.16296337881731
 20
14.58366196990294
 30
0.0
 10
13.95355266676859
 20
14.15037594540535
 30
0.0
 10
14.50995628075617
 20
13.54215945984774
 30
0.0
  0
SPLINE
  5
163
330
8A
100
AcDbEntity
  8
0
370
    18
100
AcDbSpline
210
0.0
220
0.0
230
1.0
 70
     8
 71
     3
 72
     8
 73
     4
 74
     0
 42
0.000000001
 43
0.00000001
 40
9.0
 40
9.0
 40
9.0
 40
9.0
 40
10.0
 40
10.0
 40
10.0
 40
10.0
 10
15.22002652342211
 20
14.08367839116812
 30
0.0
 10
14.4993952440066
 20
14.90127274624418
 30
0.0
 10
13.45172622256067
 20
15.46922970915913
 30
0.0
 10
12.26938626269738
 20
15.46922970915913
 30
0.0
  0
SPLINE
  5
164
330
8A
100
AcDbEntity
  8
0
370
    18
100
AcDbSpline
210
0.0
220
0.0
230
1.0
 70
     8
 71
     3
 72
     8
 73
     4
 74
     0
 42
0.000000001
 43
0.00000001
 40
10.0
 40
10.0
 40
10.0
 40
10.0
 40
11.0
 40
11.0
 40
11.0
 40
11.0
 10
12.26938626269738
 20
15.46922970915913
 30
0.0
 10
10.2974493270606
 20
15.46922970915913
 30
0.0
 10
8.698692649722526
 20
13.89010663705348
 30
0.0
 10
8.698692649722526
 20
11.94219783200801
 30
0.0
  0
SPLINE
  5
165
330
8A
100
AcDbEntity
  8
0
370
    18
100
AcDbSpline
210
0.0
220
0.0
230
1.0
 70
     8
 71
     3
 72
     8
 73
     4
 74
     0
 42
0.000000001
 43
0.00000001
 40
11.0
 40
11.0
 40
11.0
 40
11.0
 40
12.0
 40
12.0
 40
12.0
 40
12.0
 10
8.698692649722526
 20
11.94219783200801
 30
0.0
 10
8.698692649722526
 20
9.993934629756218
 30
0.0
 10
10.2974493270606
 20
8.414811557650523
 30
0.0
 10
12.26938626269738
 20
8.414811557650523
 30
0.0
  0
SPLINE
  5
166
330
8A
100
AcDbEntity
  8
0
370
    18
100
AcDbSpline
210
0.0
220
0.0
230
1.0
 70
     8
 71
     3
 72
     8
 73
     4
 74
     0
 42
0.000000001
 43
0.00000001
 40
12.0
 40
12.0
 40
12.0
 40
12.0
 40
13.0
 40
13.0
 40
13.0
 40
13.0
 10
12.26938626269738
 20
8.414811557650523
 30
0.0
 10
13.33966582590916
 20
8.414811557650523
 30
0.0
 10
14.33247415981032
 20
8.880489486809598
 30
0.0
 10
14.98683316163622
 20
9.61742303771775
 30
0.0
  0
SPLINE
  5
167
330
8A
100
AcDbEntity
  8
0
370
    18
100
AcDbSpline
210
0.0
220
0.0
230
1.0
 70
     8
 71
     2
 72
     6
 73
     3
 74
     0
 42
0.000000001
 43
0.00000001
 40
13.0
 40
13.0
 40
13.0
 40
14.0
 40
14.0
 40
14.0
 10
14.98683316163622
 20
9.61742303771775
 30
0.0
 10
15.15226577756578
 20
9.800291996200263
 30
0.0
 10
15.29168563854841
 20
10.02668093162401
 30
0.0
  0
ENDBLK
  5
8C
330
8A
100
AcDbEntity
  8
0
100
AcDbBlockEnd
  0
BLOCK
  5
169
330
168
100
AcDbEntity
  8
0
100
AcDbBlockBegin
  2
ﾌﾞﾛｯｸ1
 70
     0
 10
0.0
 20
0.0
 30
0.0
  3
ﾌﾞﾛｯｸ1
  1

  0
CIRCLE
  5
16B
330
168
100
AcDbEntity
  8
9
  6
Continuous
 62
   179
100
AcDbCircle
 10
4.437888
 20
3.2320596145
 30
0.0
 40
1.109472
  0
CIRCLE
  5
16C
330
168
100
AcDbEntity
  8
9
  6
Continuous
 62
   179
100
AcDbCircle
 10
4.437888
 20
3.2320596145
 30
0.0
 40
2.218944
  0
LINE
  5
16D
330
168
100
AcDbEntity
  8
9
  6
CENTER
 62
   179
100
AcDbLine
 10
4.437888
 20
6.1328113459
 30
0.0
 11
4.437888
 21
0.0
 31
0.0
  0
LINE
  5
16E
330
168
100
AcDbEntity
  8
9
  6
CENTER
 62
   179
100
AcDbLine
 10
0.0
 20
3.2320596145
 30
0.0
 11
19.970496
 21
3.2320596145
 31
0.0
  0
LINE
  5
16F
330
168
100
AcDbEntity
  8
9
  6
Continuous
 62
   179
100
AcDbLine
 10
9.985248
 20
2.1225876145
 30
0.0
 11
17.751552
 21
1.0131156145
 31
0.0
  0
LINE
  5
170
330
168
100
AcDbEntity
  8
9
  6
Continuous
 62
   179
100
AcDbLine
 10
17.751552
 20
1.0131156145
 30
0.0
 11
17.751552
 21
3.2320596145
 31
0.0
  0
LINE
  5
171
330
168
100
AcDbEntity
  8
9
  6
Continuous
 62
   179
100
AcDbLine
 10
9.985248
 20
4.3415316145
 30
0.0
 11
9.985248
 21
2.1225876145
 31
0.0
  0
LINE
  5
172
330
168
100
AcDbEntity
  8
9
  6
Continuous
 62
   179
100
AcDbLine
 10
17.751552
 20
3.2320596145
 30
0.0
 11
17.751552
 21
5.4510036145
 31
0.0
  0
LINE
  5
173
330
168
100
AcDbEntity
  8
9
  6
Continuous
 62
   179
100
AcDbLine
 10
17.751552
 20
5.4510036145
 30
0.0
 11
9.985248
 21
4.3415316145
 31
0.0
  0
ENDBLK
  5
16A
330
168
100
AcDbEntity
  8
0
100
AcDbBlockEnd
  0
ENDSEC
  0
SECTION
  2
ENTITIES
  0
INSERT
  5
176
330
1F
100
AcDbEntity
  8
0
  6
Continuous
 62
     7
100
AcDbBlockReference
 66
     1
  2
ﾌﾞﾛｯｸ2
 10
0.0
 20
0.0
 30
0.0
  0
ATTRIB
  5
177
330
176
100
AcDbEntity
  8
SLD-0
 62
     7
100
AcDbText
 10
78.3050930978
 20
15.925989336
 30
0.0
 40
4.0
  1
J95-DP2
 41
0.7
  7
SLDTEXTSTYLE0
 11
78.3050930978
 21
14.5129490883
 31
0.0
100
AcDbAttribute
  2
AUTOATTR0
 70
     0
 74
     1
  0
ATTRIB
  5
178
330
176
100
AcDbEntity
  8
SLD-0
 62
     7
100
AcDbText
 10
78.3050930978
 20
9.8784313554
 30
0.0
 40
4.0
  1

 41
0.7
  7
SLDTEXTSTYLE0
 11
78.3050930978
 21
8.4653911077
 31
0.0
100
AcDbAttribute
  2
AUTOATTR0
 70
     0
 74
     1
  0
ATTRIB
  5
179
330
176
100
AcDbEntity
  8
SLD-0
 62
     7
100
AcDbText
 10
66.9646413579
 20
16.8429035566
 30
0.0
 40
2.38125
  1
Title
 41
0.7
  7
SLDTEXTSTYLE0
 11
66.9646413579
 21
16.0017030342
 31
0.0
100
AcDbAttribute
  2
AUTOATTR0
 70
     0
 74
     1
  0
ATTRIB
  5
17A
330
176
100
AcDbEntity
  8
SLD-0
 62
     7
100
AcDbText
 10
66.9646413579
 20
2.4516379051
 30
0.0
 40
2.38125
  1
Date
 41
0.7
  7
SLDTEXTSTYLE0
 11
66.9646413579
 21
1.6104373826
 31
0.0
100
AcDbAttribute
  2
AUTOATTR0
 70
     0
 74
     1
  0
ATTRIB
  5
17B
330
176
100
AcDbEntity
  8
SLD-0
 62
     7
100
AcDbText
 10
51.857512217
 20
2.0282473934
 30
0.0
 40
4.0
  1
1:1
 41
0.7
  7
SLDTEXTSTYLE0
 11
51.857512217
 21
0.6152071457
 31
0.0
100
AcDbAttribute
  2
AUTOATTR0
 70
     0
 74
     1
  0
ATTRIB
  5
17C
330
176
100
AcDbEntity
  8
SLD-0
 62
     7
100
AcDbText
 10
38.4275608796
 20
2.4516379051
 30
0.0
 40
2.38125
  1
Scale
 41
0.7
  7
SLDTEXTSTYLE0
 11
38.4275608796
 21
1.6104373826
 31
0.0
100
AcDbAttribute
  2
AUTOATTR0
 70
     0
 74
     1
  0
ATTRIB
  5
17D
330
176
100
AcDbEntity
  8
SLD-0
 62
     7
100
AcDbText
 10
78.3050930978
 20
2.0282474516
 30
0.0
 40
4.0
  1

 41
0.7
  7
SLDTEXTSTYLE0
 11
78.3050930978
 21
0.6152072039
 31
0.0
100
AcDbAttribute
  2
AUTOATTR0
 70
     0
 74
     1
  0
SEQEND
  5
17E
330
176
100
AcDbEntity
  8
0
  6
Continuous
 62
     7
  0
MTEXT
  5
17F
330
1F
100
AcDbEntity
  8
9
 62
     7
100
AcDbMText
 10
80.777961154
 20
6.176763485
 30
0.0
 40
4.0
 41
0.0
 71
     1
 72
     1
  1
2020/08/21
  7
SLDTEXTSTYLE0
 73
     1
 44
1.0
  0
ARC
  5
180
330
1F
100
AcDbEntity
  8
0
  6
Continuous
 62
     7
370
    25
100
AcDbCircle
 10
292.1108534523
 20
123.6951502312
 30
0.0
 40
0.2999999999999972
100
AcDbArc
 50
180.0
 51
270.0
  0
ARC
  5
181
330
1F
100
AcDbEntity
  8
0
  6
Continuous
 62
     7
370
    25
100
AcDbCircle
 10
288.5108534523
 20
123.6951502312
 30
0.0
 40
0.3000000000000682
100
AcDbArc
 50
270.0
 51
0.0
  0
ARC
  5
182
330
1F
100
AcDbEntity
  8
0
  6
Continuous
 62
     7
370
    25
100
AcDbCircle
 10
245.1108534523
 20
123.6951502312
 30
0.0
 40
0.3000000000000114
100
AcDbArc
 50
180.0
 51
270.0
  0
ARC
  5
183
330
1F
100
AcDbEntity
  8
0
  6
Continuous
 62
     7
370
    25
100
AcDbCircle
 10
241.5108534523
 20
123.6951502312
 30
0.0
 40
0.3000000000000398
100
AcDbArc
 50
270.0
 51
0.0
  0
ARC
  5
184
330
1F
100
AcDbEntity
  8
0
  6
Continuous
 62
     7
370
    25
100
AcDbCircle
 10
242.1108534523
 20
124.3951502312
 30
0.0
 40
0.3000000000000114
100
AcDbArc
 50
90.0
 51
180.0
  0
ARC
  5
185
330
1F
100
AcDbEntity
  8
0
  6
Continuous
 62
     7
370
    25
100
AcDbCircle
 10
244.5108534523
 20
124.3951502312
 30
0.0
 40
0.3000000000000114
100
AcDbArc
 50
0.0
 51
90.0
  0
LINE
  5
186
330
1F
100
AcDbEntity
  8
0
  6
Continuous
 62
     7
370
    25
100
AcDbLine
 10
291.8108538248
 20
123.6951502822
 30
0.0
 11
291.8108538248
 21
124.3951502573
 31
0.0
  0
LINE
  5
187
330
1F
100
AcDbEntity
  8
0
  6
Continuous
 62
     7
370
    25
100
AcDbLine
 10
288.8108533331
 20
124.3951502573
 30
0.0
 11
288.8108533331
 21
123.6951502822
 31
0.0
  0
ARC
  5
188
330
1F
100
AcDbEntity
  8
0
  6
Continuous
 62
     7
370
    25
100
AcDbCircle
 10
289.1108534523
 20
124.3951502312
 30
0.0
 40
0.2999999999999972
100
AcDbArc
 50
90.0
 51
180.0
  0
ARC
  5
189
330
1F
100
AcDbEntity
  8
0
  6
Continuous
 62
     7
370
    25
100
AcDbCircle
 10
291.5108534523
 20
124.3951502312
 30
0.0
 40
0.3000000000000682
100
AcDbArc
 50
0.0
 51
90.0
  0
LINE
  5
18A
330
1F
100
AcDbEntity
  8
0
  6
Continuous
 62
     7
370
    25
100
AcDbLine
 10
244.8108535715
 20
123.6951502822
 30
0.0
 11
244.8108535715
 21
124.3951502573
 31
0.0
  0
LINE
  5
18B
330
1F
100
AcDbEntity
  8
0
  6
Continuous
 62
     7
370
    25
100
AcDbLine
 10
241.8108530798
 20
124.3951502573
 30
0.0
 11
241.8108530798
 21
123.6951502822
 31
0.0
  0
ARC
  5
18C
330
1F
100
AcDbEntity
  8
0
  6
Continuous
 62
     7
370
    25
100
AcDbCircle
 10
288.0108534523
 20
123.6951502312
 30
0.0
 40
0.3000000000000682
100
AcDbArc
 50
270.0
 51
0.0
  0
ARC
  5
18D
330
1F
100
AcDbEntity
  8
0
  6
Continuous
 62
     7
370
    25
100
AcDbCircle
 10
245.6108534523
 20
123.6951502312
 30
0.0
 40
0.2999999999999972
100
AcDbArc
 50
180.0
 51
270.0
  0
ARC
  5
18E
330
1F
100
AcDbEntity
  8
0
  6
Continuous
 62
     7
370
    25
100
AcDbCircle
 10
245.0108534523
 20
124.3951502312
 30
0.0
 40
0.3000000000000114
100
AcDbArc
 50
0.0
 51
90.0
  0
LINE
  5
18F
330
1F
100
AcDbEntity
  8
0
  6
Continuous
 62
     7
370
    25
100
AcDbLine
 10
245.3108527221
 20
123.6951502822
 30
0.0
 11
245.3108527221
 21
124.3951502573
 31
0.0
  0
ARC
  5
190
330
1F
100
AcDbEntity
  8
0
  6
Continuous
 62
     7
370
    25
100
AcDbCircle
 10
288.6108534523
 20
124.3951502312
 30
0.0
 40
0.2999999999999972
100
AcDbArc
 50
90.0
 51
180.0
  0
LINE
  5
191
330
1F
100
AcDbEntity
  8
0
  6
Continuous
 62
     7
370
    25
100
AcDbLine
 10
288.3108541825
 20
124.3951502573
 30
0.0
 11
288.3108541825
 21
123.6951502822
 31
0.0
  0
LINE
  5
192
330
1F
100
AcDbEntity
  8
0
  6
Continuous
 62
     7
370
    25
100
AcDbLine
 10
294.7759427585
 20
123.3951503262
 30
0.0
 11
294.8108543166
 21
121.3951502312
 31
0.0
  0
LINE
  5
193
330
1F
100
AcDbEntity
  8
0
  6
Continuous
 62
     7
370
    25
100
AcDbLine
 10
294.8108543166
 20
121.3951502312
 30
0.0
 11
291.8108538248
 21
121.3951502312
 31
0.0
  0
LINE
  5
194
330
1F
100
AcDbEntity
  8
0
  6
Continuous
 62
     7
370
    25
100
AcDbLine
 10
291.8108538248
 20
121.3951502312
 30
0.0
 11
291.8108538248
 21
123.3951503262
 31
0.0
  0
LINE
  5
195
330
1F
100
AcDbEntity
  8
0
  6
Continuous
 62
     7
370
    25
100
AcDbLine
 10
291.8108538248
 20
123.3951503262
 30
0.0
 11
294.7759427585
 21
123.3951503262
 31
0.0
  0
LINE
  5
196
330
1F
100
AcDbEntity
  8
0
  6
Continuous
 62
     7
370
    25
100
AcDbLine
 10
241.8108530798
 20
123.3951503262
 30
0.0
 11
241.8108530798
 21
121.3951502312
 31
0.0
  0
LINE
  5
197
330
1F
100
AcDbEntity
  8
0
  6
Continuous
 62
     7
370
    25
100
AcDbLine
 10
241.8108530798
 20
121.3951502312
 30
0.0
 11
238.810852588
 21
121.3951502312
 31
0.0
  0
LINE
  5
198
330
1F
100
AcDbEntity
  8
0
  6
Continuous
 62
     7
370
    25
100
AcDbLine
 10
238.810852588
 20
121.3951502312
 30
0.0
 11
238.8457641461
 21
123.3951503262
 31
0.0
  0
LINE
  5
199
330
1F
100
AcDbEntity
  8
0
  6
Continuous
 62
     7
370
    25
100
AcDbLine
 10
238.8457641461
 20
123.3951503262
 30
0.0
 11
241.8108530798
 21
123.3951503262
 31
0.0
  0
LINE
  5
19A
330
1F
100
AcDbEntity
  8
0
  6
Continuous
 62
     7
370
    25
100
AcDbLine
 10
241.8108530798
 20
123.3951503262
 30
0.0
 11
253.7759434887
 21
123.3951503262
 31
0.0
  0
LINE
  5
19B
330
1F
100
AcDbEntity
  8
0
  6
Continuous
 62
     7
370
    25
100
AcDbLine
 10
241.8108530798
 20
121.3951502312
 30
0.0
 11
253.8108531841
 21
121.3951502312
 31
0.0
  0
LINE
  5
19C
330
1F
100
AcDbEntity
  8
0
  6
Continuous
 62
     7
370
    25
100
AcDbLine
 10
253.8108531841
 20
121.3951502312
 30
0.0
 11
253.7759434887
 21
123.3951503262
 31
0.0
  0
LINE
  5
19D
330
1F
100
AcDbEntity
  8
0
  6
Continuous
 62
     7
370
    25
100
AcDbLine
 10
279.8457634159
 20
123.3951503262
 30
0.0
 11
291.8108538248
 21
123.3951503262
 31
0.0
  0
LINE
  5
19E
330
1F
100
AcDbEntity
  8
0
  6
Continuous
 62
     7
370
    25
100
AcDbLine
 10
279.8108537205
 20
121.3951502312
 30
0.0
 11
291.8108538248
 21
121.3951502312
 31
0.0
  0
LINE
  5
19F
330
1F
100
AcDbEntity
  8
0
  6
Continuous
 62
     7
370
    25
100
AcDbLine
 10
279.8108537205
 20
121.3951502312
 30
0.0
 11
279.8457634159
 21
123.3951503262
 31
0.0
  0
LINE
  5
1A0
330
1F
100
AcDbEntity
  8
0
  6
Continuous
 62
     7
370
    25
100
AcDbLine
 10
243.310854257
 20
124.6951502133
 30
0.0
 11
244.5108540811
 21
124.6951502133
 31
0.0
  0
LINE
  5
1A1
330
1F
100
AcDbEntity
  8
0
  6
Continuous
 62
     7
370
    25
100
AcDbLine
 10
242.1108525702
 20
124.6951502133
 30
0.0
 11
243.310854257
 21
124.6951502133
 31
0.0
  0
LINE
  5
1A2
330
1F
100
AcDbEntity
  8
0
  6
Continuous
 62
     7
370
    25
100
AcDbLine
 10
290.3108526476
 20
124.6951502133
 30
0.0
 11
291.5108543344
 21
124.6951502133
 31
0.0
  0
LINE
  5
1A3
330
1F
100
AcDbEntity
  8
0
  6
Continuous
 62
     7
370
    25
100
AcDbLine
 10
289.1108528235
 20
124.6951502133
 30
0.0
 11
290.3108526476
 21
124.6951502133
 31
0.0
  0
LINE
  5
1A4
330
1F
100
AcDbEntity
  8
0
  6
Continuous
 62
     7
370
    25
100
AcDbLine
 10
255.8108535119
 20
123.3951503262
 30
0.0
 11
255.8108535119
 21
121.3951502312
 31
0.0
  0
LINE
  5
1A5
330
1F
100
AcDbEntity
  8
0
  6
Continuous
 62
     7
370
    25
100
AcDbLine
 10
253.7759434887
 20
123.3951503262
 30
0.0
 11
255.8108535119
 21
123.3951503262
 31
0.0
  0
LINE
  5
1A6
330
1F
100
AcDbEntity
  8
0
  6
Continuous
 62
     7
370
    25
100
AcDbLine
 10
255.8108535119
 20
121.3951502312
 30
0.0
 11
253.8108531841
 21
121.3951502312
 31
0.0
  0
LINE
  5
1A7
330
1F
100
AcDbEntity
  8
0
  6
Continuous
 62
     7
370
    25
100
AcDbLine
 10
277.8108533927
 20
121.3951502312
 30
0.0
 11
277.8108533927
 21
123.3951503262
 31
0.0
  0
LINE
  5
1A8
330
1F
100
AcDbEntity
  8
0
  6
Continuous
 62
     7
370
    25
100
AcDbLine
 10
277.8108533927
 20
123.3951503262
 30
0.0
 11
279.8457634159
 21
123.3951503262
 31
0.0
  0
LINE
  5
1A9
330
1F
100
AcDbEntity
  8
0
  6
Continuous
 62
     7
370
    25
100
AcDbLine
 10
279.8108537205
 20
121.3951502312
 30
0.0
 11
277.8108533927
 21
121.3951502312
 31
0.0
  0
LINE
  5
1AA
330
1F
100
AcDbEntity
  8
0
  6
Continuous
 62
     7
370
    25
100
AcDbLine
 10
277.8108533927
 20
123.3951503262
 30
0.0
 11
255.8108535119
 21
123.3951503262
 31
0.0
  0
LINE
  5
1AB
330
1F
100
AcDbEntity
  8
0
  6
Continuous
 62
     7
370
    25
100
AcDbLine
 10
277.8108533927
 20
121.3951502312
 30
0.0
 11
255.8108535119
 21
121.3951502312
 31
0.0
  0
LINE
  5
1AC
330
1F
100
AcDbEntity
  8
0
  6
Continuous
 62
     7
370
    25
100
AcDbLine
 10
244.5108540811
 20
124.6951502133
 30
0.0
 11
245.0108532318
 21
124.6951502133
 31
0.0
  0
LINE
  5
1AD
330
1F
100
AcDbEntity
  8
0
  6
Continuous
 62
     7
370
    25
100
AcDbLine
 10
288.6108536728
 20
124.6951502133
 30
0.0
 11
289.1108528235
 21
124.6951502133
 31
0.0
  0
LINE
  5
1AE
330
1F
100
AcDbEntity
  8
0
  6
Continuous
 62
     8
370
    25
100
AcDbLine
 10
288.8108533331
 20
123.6951502822
 30
0.0
 11
291.8108538248
 21
123.6951502822
 31
0.0
  0
LINE
  5
1AF
330
1F
100
AcDbEntity
  8
0
  6
Continuous
 62
     8
370
    25
100
AcDbLine
 10
241.8108530798
 20
123.6951502822
 30
0.0
 11
244.8108535715
 21
123.6951502822
 31
0.0
  0
LINE
  5
1B0
330
1F
100
AcDbEntity
  8
0
  6
Continuous
 62
     8
370
    25
100
AcDbLine
 10
243.310854257
 20
124.3951502573
 30
0.0
 11
241.8108530798
 21
124.3951502573
 31
0.0
  0
LINE
  5
1B1
330
1F
100
AcDbEntity
  8
0
  6
Continuous
 62
     8
370
    25
100
AcDbLine
 10
244.8108535715
 20
124.3951502573
 30
0.0
 11
243.310854257
 21
124.3951502573
 31
0.0
  0
LINE
  5
1B2
330
1F
100
AcDbEntity
  8
0
  6
Continuous
 62
     8
370
    25
100
AcDbLine
 10
290.3108526476
 20
124.3951502573
 30
0.0
 11
288.8108533331
 21
124.3951502573
 31
0.0
  0
LINE
  5
1B3
330
1F
100
AcDbEntity
  8
0
  6
Continuous
 62
     8
370
    25
100
AcDbLine
 10
291.8108538248
 20
124.3951502573
 30
0.0
 11
290.3108526476
 21
124.3951502573
 31
0.0
  0
LINE
  5
1B4
330
1F
100
AcDbEntity
  8
0
  6
Continuous
 62
     8
370
    25
100
AcDbLine
 10
288.3108541825
 20
123.6951502822
 30
0.0
 11
288.8108533331
 21
123.6951502822
 31
0.0
  0
LINE
  5
1B5
330
1F
100
AcDbEntity
  8
0
  6
Continuous
 62
     8
370
    25
100
AcDbLine
 10
244.8108535715
 20
123.6951502822
 30
0.0
 11
245.3108527221
 21
123.6951502822
 31
0.0
  0
LINE
  5
1B6
330
1F
100
AcDbEntity
  8
0
  6
Continuous
 62
     8
370
    25
100
AcDbLine
 10
245.3108527221
 20
124.3951502573
 30
0.0
 11
244.8108535715
 21
124.3951502573
 31
0.0
  0
LINE
  5
1B7
330
1F
100
AcDbEntity
  8
0
  6
Continuous
 62
     8
370
    25
100
AcDbLine
 10
288.8108533331
 20
124.3951502573
 30
0.0
 11
288.3108541825
 21
124.3951502573
 31
0.0
  0
ARC
  5
1B8
330
1F
100
AcDbEntity
  8
0
  6
Continuous
 62
     7
370
    25
100
AcDbCircle
 10
135.0994634422
 20
123.6951502312
 30
0.0
 40
0.2999999999999972
100
AcDbArc
 50
180.0
 51
270.0
  0
ARC
  5
1B9
330
1F
100
AcDbEntity
  8
0
  6
Continuous
 62
     7
370
    25
100
AcDbCircle
 10
130.9994634422
 20
123.6951502312
 30
0.0
 40
0.3000000000000114
100
AcDbArc
 50
270.0
 51
0.0
  0
ARC
  5
1BA
330
1F
100
AcDbEntity
  8
0
  6
Continuous
 62
     7
370
    25
100
AcDbCircle
 10
177.5994634422
 20
123.6951502312
 30
0.0
 40
0.2999999999999972
100
AcDbArc
 50
180.0
 51
270.0
  0
ARC
  5
1BB
330
1F
100
AcDbEntity
  8
0
  6
Continuous
 62
     7
370
    25
100
AcDbCircle
 10
173.9994634422
 20
123.6951502312
 30
0.0
 40
0.3000000000000114
100
AcDbArc
 50
270.0
 51
0.0
  0
LINE
  5
1BC
330
1F
100
AcDbEntity
  8
0
  6
Continuous
 62
     7
370
    25
100
AcDbLine
 10
134.7994630399
 20
123.6951502822
 30
0.0
 11
134.7994630399
 21
124.3951502573
 31
0.0
  0
LINE
  5
1BD
330
1F
100
AcDbEntity
  8
0
  6
Continuous
 62
     7
370
    25
100
AcDbLine
 10
131.2994633975
 20
124.3951502573
 30
0.0
 11
131.2994633975
 21
123.6951502822
 31
0.0
  0
ARC
  5
1BE
330
1F
100
AcDbEntity
  8
0
  6
Continuous
 62
     7
370
    25
100
AcDbCircle
 10
131.5994634422
 20
124.3951502312
 30
0.0
 40
0.2999999999999972
100
AcDbArc
 50
90.0
 51
180.0
  0
ARC
  5
1BF
330
1F
100
AcDbEntity
  8
0
  6
Continuous
 62
     7
370
    25
100
AcDbCircle
 10
134.4994634422
 20
124.3951502312
 30
0.0
 40
0.3000000000000114
100
AcDbArc
 50
0.0
 51
90.0
  0
ARC
  5
1C0
330
1F
100
AcDbEntity
  8
0
  6
Continuous
 62
     7
370
    25
100
AcDbCircle
 10
174.5994634422
 20
124.3951502312
 30
0.0
 40
0.3000000000000114
100
AcDbArc
 50
90.0
 51
180.0
  0
ARC
  5
1C1
330
1F
100
AcDbEntity
  8
0
  6
Continuous
 62
     7
370
    25
100
AcDbCircle
 10
176.9994634422
 20
124.3951502312
 30
0.0
 40
0.2999999999999972
100
AcDbArc
 50
0.0
 51
90.0
  0
LINE
  5
1C2
330
1F
100
AcDbEntity
  8
0
  6
Continuous
 62
     7
370
    25
100
AcDbLine
 10
177.299463487
 20
123.6951502822
 30
0.0
 11
177.299463487
 21
124.3951502573
 31
0.0
  0
LINE
  5
1C3
330
1F
100
AcDbEntity
  8
0
  6
Continuous
 62
     7
370
    25
100
AcDbLine
 10
174.2994629952
 20
124.3951502573
 30
0.0
 11
174.2994629952
 21
123.6951502822
 31
0.0
  0
LINE
  5
1C4
330
1F
100
AcDbEntity
  8
0
  6
Continuous
 62
     7
370
    25
100
AcDbLine
 10
131.2994633975
 20
123.3951503262
 30
0.0
 11
131.2994633975
 21
121.3951502312
 31
0.0
  0
LINE
  5
1C5
330
1F
100
AcDbEntity
  8
0
  6
Continuous
 62
     7
370
    25
100
AcDbLine
 10
131.2994633975
 20
121.3951502312
 30
0.0
 11
128.2994629058
 21
121.3951502312
 31
0.0
  0
LINE
  5
1C6
330
1F
100
AcDbEntity
  8
0
  6
Continuous
 62
     7
370
    25
100
AcDbLine
 10
128.2994629058
 20
121.3951502312
 30
0.0
 11
128.3343744638
 21
123.3951503262
 31
0.0
  0
LINE
  5
1C7
330
1F
100
AcDbEntity
  8
0
  6
Continuous
 62
     7
370
    25
100
AcDbLine
 10
128.3343744638
 20
123.3951503262
 30
0.0
 11
131.2994633975
 21
123.3951503262
 31
0.0
  0
LINE
  5
1C8
330
1F
100
AcDbEntity
  8
0
  6
Continuous
 62
     7
370
    25
100
AcDbLine
 10
131.2994633975
 20
123.3951503262
 30
0.0
 11
177.299463487
 21
123.3951503262
 31
0.0
  0
LINE
  5
1C9
330
1F
100
AcDbEntity
  8
0
  6
Continuous
 62
     7
370
    25
100
AcDbLine
 10
177.299463487
 20
121.3951502312
 30
0.0
 11
177.299463487
 21
123.3951503262
 31
0.0
  0
LINE
  5
1CA
330
1F
100
AcDbEntity
  8
0
  6
Continuous
 62
     7
370
    25
100
AcDbLine
 10
131.2994633975
 20
121.3951502312
 30
0.0
 11
177.299463487
 21
121.3951502312
 31
0.0
  0
LINE
  5
1CB
330
1F
100
AcDbEntity
  8
0
  6
Continuous
 62
     7
370
    25
100
AcDbLine
 10
180.2645524207
 20
123.3951503262
 30
0.0
 11
180.2994639787
 21
121.3951502312
 31
0.0
  0
LINE
  5
1CC
330
1F
100
AcDbEntity
  8
0
  6
Continuous
 62
     7
370
    25
100
AcDbLine
 10
177.299463487
 20
123.3951503262
 30
0.0
 11
180.2645524207
 21
123.3951503262
 31
0.0
  0
LINE
  5
1CD
330
1F
100
AcDbEntity
  8
0
  6
Continuous
 62
     7
370
    25
100
AcDbLine
 10
180.2994639787
 20
121.3951502312
 30
0.0
 11
177.299463487
 21
121.3951502312
 31
0.0
  0
LINE
  5
1CE
330
1F
100
AcDbEntity
  8
0
  6
Continuous
 62
     7
370
    25
100
AcDbLine
 10
131.5994628879
 20
124.6951502133
 30
0.0
 11
134.4994635495
 21
124.6951502133
 31
0.0
  0
LINE
  5
1CF
330
1F
100
AcDbEntity
  8
0
  6
Continuous
 62
     7
370
    25
100
AcDbLine
 10
174.5994643482
 20
124.6951502133
 30
0.0
 11
176.9994639966
 21
124.6951502133
 31
0.0
  0
LINE
  5
1D0
330
1F
100
AcDbEntity
  8
0
  6
Continuous
 62
     8
370
    25
100
AcDbLine
 10
131.2994633975
 20
123.6951502822
 30
0.0
 11
134.7994630399
 21
123.6951502822
 31
0.0
  0
LINE
  5
1D1
330
1F
100
AcDbEntity
  8
0
  6
Continuous
 62
     8
370
    25
100
AcDbLine
 10
174.2994629952
 20
123.6951502822
 30
0.0
 11
177.299463487
 21
123.6951502822
 31
0.0
  0
LINE
  5
1D2
330
1F
100
AcDbEntity
  8
0
  6
Continuous
 62
     8
370
    25
100
AcDbLine
 10
134.7994630399
 20
124.3951502573
 30
0.0
 11
131.2994633975
 21
124.3951502573
 31
0.0
  0
LINE
  5
1D3
330
1F
100
AcDbEntity
  8
0
  6
Continuous
 62
     8
370
    25
100
AcDbLine
 10
177.299463487
 20
124.3951502573
 30
0.0
 11
174.2994629952
 21
124.3951502573
 31
0.0
  0
CIRCLE
  5
1D4
330
1F
100
AcDbEntity
  8
0
  6
Continuous
 62
     7
370
    25
100
AcDbCircle
 10
290.0608534523
 20
228.6809999838
 30
0.0
 40
1.449999999999989
  0
CIRCLE
  5
1D5
330
1F
100
AcDbEntity
  8
0
  6
Continuous
 62
     7
370
    25
100
AcDbCircle
 10
290.0608534523
 20
228.6809999838
 30
0.0
 40
1.75
  0
CIRCLE
  5
1D6
330
1F
100
AcDbEntity
  8
0
  6
Continuous
 62
     7
370
    25
100
AcDbCircle
 10
243.5608534523
 20
228.6809999838
 30
0.0
 40
1.449999999999989
  0
CIRCLE
  5
1D7
330
1F
100
AcDbEntity
  8
0
  6
Continuous
 62
     7
370
    25
100
AcDbCircle
 10
243.5608534523
 20
228.6809999838
 30
0.0
 40
1.75
  0
CIRCLE
  5
1D8
330
1F
100
AcDbEntity
  8
0
  6
Continuous
 62
     7
370
    25
100
AcDbCircle
 10
290.3108534523
 20
185.9309999838
 30
0.0
 40
1.199999999999989
  0
CIRCLE
  5
1D9
330
1F
100
AcDbEntity
  8
0
  6
Continuous
 62
     7
370
    25
100
AcDbCircle
 10
290.3108534523
 20
185.9309999838
 30
0.0
 40
1.5
  0
CIRCLE
  5
1DA
330
1F
100
AcDbEntity
  8
0
  6
Continuous
 62
     7
370
    25
100
AcDbCircle
 10
243.3108534523
 20
185.9309999838
 30
0.0
 40
1.199999999999989
  0
CIRCLE
  5
1DB
330
1F
100
AcDbEntity
  8
0
  6
Continuous
 62
     7
370
    25
100
AcDbCircle
 10
243.3108534523
 20
185.9309999838
 30
0.0
 40
1.5
  0
CIRCLE
  5
1DC
330
1F
100
AcDbEntity
  8
0
  6
Continuous
 62
     7
370
    25
100
AcDbCircle
 10
243.5608534523
 20
228.6809999838
 30
0.0
 40
2.049999999999983
  0
CIRCLE
  5
1DD
330
1F
100
AcDbEntity
  8
0
  6
Continuous
 62
     7
370
    25
100
AcDbCircle
 10
290.0608534523
 20
228.6809999838
 30
0.0
 40
2.049999999999983
  0
CIRCLE
  5
1DE
330
1F
100
AcDbEntity
  8
0
  6
Continuous
 62
     7
370
    25
100
AcDbCircle
 10
290.3108534523
 20
185.9309999838
 30
0.0
 40
1.800000000000011
  0
CIRCLE
  5
1DF
330
1F
100
AcDbEntity
  8
0
  6
Continuous
 62
     7
370
    25
100
AcDbCircle
 10
243.3108534523
 20
185.9309999838
 30
0.0
 40
1.800000000000011
  0
LINE
  5
1E0
330
1F
100
AcDbEntity
  8
0
  6
Continuous
 62
     7
370
    25
100
AcDbLine
 10
260.3108533182
 20
232.930999507
 30
0.0
 11
260.3108533182
 21
233.4310005203
 31
0.0
  0
LINE
  5
1E1
330
1F
100
AcDbEntity
  8
0
  6
Continuous
 62
     7
370
    25
100
AcDbLine
 10
260.3108533182
 20
232.930999507
 30
0.0
 11
260.2759431571
 21
232.8960898116
 31
0.0
  0
LINE
  5
1E2
330
1F
100
AcDbEntity
  8
0
  6
Continuous
 62
     7
370
    25
100
AcDbLine
 10
260.2759431571
 20
232.8960898116
 30
0.0
 11
260.2759431571
 21
233.3960889623
 31
0.0
  0
LINE
  5
1E3
330
1F
100
AcDbEntity
  8
0
  6
Continuous
 62
     7
370
    25
100
AcDbLine
 10
260.3108533182
 20
233.4310005203
 30
0.0
 11
260.2759431571
 21
233.3960889623
 31
0.0
  0
LINE
  5
1E4
330
1F
100
AcDbEntity
  8
0
  6
Continuous
 62
     7
370
    25
100
AcDbLine
 10
291.8108538248
 20
233.3960889623
 30
0.0
 11
291.8108538248
 21
233.4310005203
 31
0.0
  0
ARC
  5
1E5
330
1F
100
AcDbEntity
  8
0
  6
Continuous
 62
     7
370
    25
100
AcDbCircle
 10
291.8108534523
 20
230.4309999838
 30
0.0
 40
3.0
100
AcDbArc
 50
0.0
 51
90.0
  0
LINE
  5
1E6
330
1F
100
AcDbEntity
  8
0
  6
Continuous
 62
     7
370
    25
100
AcDbLine
 10
294.8108543166
 20
230.4310000286
 30
0.0
 11
294.7759427585
 21
230.4310000286
 31
0.0
  0
ARC
  5
1E7
330
1F
100
AcDbEntity
  8
0
  6
Continuous
 62
     7
370
    25
100
AcDbCircle
 10
291.8108534523
 20
230.4309999838
 30
0.0
 40
2.965089870143544
100
AcDbArc
 50
0.0
 51
90.0
  0
LINE
  5
1E8
330
1F
100
AcDbEntity
  8
0
  6
Continuous
 62
     7
370
    25
100
AcDbLine
 10
291.8108538248
 20
233.3960889623
 30
0.0
 11
273.3457637475
 21
233.3960889623
 31
0.0
  0
LINE
  5
1E9
330
1F
100
AcDbEntity
  8
0
  6
Continuous
 62
     7
370
    25
100
AcDbLine
 10
273.3457637475
 20
233.3960889623
 30
0.0
 11
273.3108535864
 21
233.4310005203
 31
0.0
  0
LINE
  5
1EA
330
1F
100
AcDbEntity
  8
0
  6
Continuous
 62
     7
370
    25
100
AcDbLine
 10
291.8108538248
 20
233.4310005203
 30
0.0
 11
273.3108535864
 21
233.4310005203
 31
0.0
  0
LINE
  5
1EB
330
1F
100
AcDbEntity
  8
0
  6
Continuous
 62
     7
370
    25
100
AcDbLine
 10
273.3457637475
 20
232.8960898116
 30
0.0
 11
273.3457637475
 21
233.3960889623
 31
0.0
  0
LINE
  5
1EC
330
1F
100
AcDbEntity
  8
0
  6
Continuous
 62
     7
370
    25
100
AcDbLine
 10
273.3457637475
 20
232.8960898116
 30
0.0
 11
273.3108535864
 21
232.930999507
 31
0.0
  0
LINE
  5
1ED
330
1F
100
AcDbEntity
  8
0
  6
Continuous
 62
     7
370
    25
100
AcDbLine
 10
273.3108535864
 20
232.930999507
 30
0.0
 11
273.3108535864
 21
233.4310005203
 31
0.0
  0
LINE
  5
1EE
330
1F
100
AcDbEntity
  8
0
  6
Continuous
 62
     7
370
    25
100
AcDbLine
 10
241.8108530798
 20
233.4310005203
 30
0.0
 11
241.8108530798
 21
233.3960889623
 31
0.0
  0
LINE
  5
1EF
330
1F
100
AcDbEntity
  8
0
  6
Continuous
 62
     7
370
    25
100
AcDbLine
 10
260.3108533182
 20
233.4310005203
 30
0.0
 11
241.8108530798
 21
233.4310005203
 31
0.0
  0
LINE
  5
1F0
330
1F
100
AcDbEntity
  8
0
  6
Continuous
 62
     7
370
    25
100
AcDbLine
 10
260.2759431571
 20
233.3960889623
 30
0.0
 11
241.8108530798
 21
233.3960889623
 31
0.0
  0
CIRCLE
  5
1F1
330
1F
100
AcDbEntity
  8
0
  6
Continuous
 62
     7
370
    25
100
AcDbCircle
 10
282.8108534523
 20
222.4309999838
 30
0.0
 40
3.5
  0
LINE
  5
1F2
330
1F
100
AcDbEntity
  8
0
  6
Continuous
 62
     7
370
    25
100
AcDbLine
 10
262.8108532623
 20
197.765920569
 30
0.0
 11
270.8108536423
 21
197.765920569
 31
0.0
  0
ARC
  5
1F3
330
1F
100
AcDbEntity
  8
0
  6
Continuous
 62
     7
370
    25
100
AcDbCircle
 10
262.8108534523
 20
204.7309999838
 30
0.0
 40
6.96507923050823
100
AcDbArc
 50
184.6604193841
 51
270.0
  0
ARC
  5
1F4
330
1F
100
AcDbEntity
  8
0
  6
Continuous
 62
     7
370
    25
100
AcDbCircle
 10
254.8373034274
 20
204.0809999838
 30
0.0
 40
1.034920769491776
100
AcDbArc
 50
4.6604193841
 51
90.0
  0
LINE
  5
1F5
330
1F
100
AcDbEntity
  8
0
  6
Continuous
 62
     7
370
    25
100
AcDbLine
 10
242.8108532437
 20
205.1159206562
 30
0.0
 11
254.8373038404
 21
205.1159206562
 31
0.0
  0
ARC
  5
1F6
330
1F
100
AcDbEntity
  8
0
  6
Continuous
 62
     7
370
    25
100
AcDbCircle
 10
242.8108534523
 20
204.0809999838
 30
0.0
 40
1.034920769491777
100
AcDbArc
 50
90.0
 51
180.0
  0
LINE
  5
1F7
330
1F
100
AcDbEntity
  8
0
  6
Continuous
 62
     7
370
    25
100
AcDbLine
 10
241.7759322085
 20
204.0810000867
 30
0.0
 11
241.7759322085
 21
190.1011320546
 31
0.0
  0
ARC
  5
1F8
330
1F
100
AcDbEntity
  8
0
  6
Continuous
 62
     7
370
    25
100
AcDbCircle
 10
242.8108534523
 20
190.1011318762
 30
0.0
 40
1.034920769491778
100
AcDbArc
 50
180.0
 51
276.8371411681
  0
ARC
  5
1F9
330
1F
100
AcDbEntity
  8
0
  6
Continuous
 62
     7
370
    25
100
AcDbCircle
 10
243.3108534523
 20
185.9309999838
 30
0.0
 40
3.165079230508256
100
AcDbArc
 50
353.1628588319
 51
96.8371411681
  0
ARC
  5
1FA
330
1F
100
AcDbEntity
  8
0
  6
Continuous
 62
     7
370
    25
100
AcDbCircle
 10
247.4809853447
 20
185.4309999838
 30
0.0
 40
1.03492076949175
100
AcDbArc
 50
173.1628588319
 51
270.0
  0
LINE
  5
1FB
330
1F
100
AcDbEntity
  8
0
  6
Continuous
 62
     7
370
    25
100
AcDbLine
 10
247.4809851953
 20
184.3960790679
 30
0.0
 11
249.8108525284
 21
184.3960790679
 31
0.0
  0
ARC
  5
1FC
330
1F
100
AcDbEntity
  8
0
  6
Continuous
 62
     7
370
    25
100
AcDbCircle
 10
249.8108534523
 20
185.4309999838
 30
0.0
 40
1.034920769491748
100
AcDbArc
 50
270.0
 51
0.0
  0
LINE
  5
1FD
330
1F
100
AcDbEntity
  8
0
  6
Continuous
 62
     7
370
    25
100
AcDbLine
 10
250.8457735636
 20
185.4310001031
 30
0.0
 11
250.8457735636
 21
187.9309995815
 31
0.0
  0
ARC
  5
1FE
330
1F
100
AcDbEntity
  8
0
  6
Continuous
 62
     7
370
    25
100
AcDbCircle
 10
255.8108534523
 20
187.9309999838
 30
0.0
 40
4.965079230508252
100
AcDbArc
 50
160.2031159429
 51
180.0
  0
ARC
  5
1FF
330
1F
100
AcDbEntity
  8
0
  6
Continuous
 62
     7
370
    25
100
AcDbCircle
 10
250.1654583165
 20
189.9631204922
 30
0.0
 40
1.03492076949179
100
AcDbArc
 50
340.2031159429
 51
84.3016232137
  0
ARC
  5
200
330
1F
100
AcDbEntity
  8
0
  6
Continuous
 62
     7
370
    25
100
AcDbCircle
 10
250.8108534523
 20
196.4309999838
 30
0.0
 40
5.465079230508283
100
AcDbArc
 50
337.380135052
 51
264.3016232137
  0
ARC
  5
201
330
1F
100
AcDbEntity
  8
0
  6
Continuous
 62
     7
370
    25
100
AcDbCircle
 10
256.8108534523
 20
193.9309999838
 30
0.0
 40
1.034920769491777
100
AcDbArc
 50
157.380135052
 51
270.0
  0
LINE
  5
202
330
1F
100
AcDbEntity
  8
0
  6
Continuous
 62
     7
370
    25
100
AcDbLine
 10
256.8108536758
 20
192.8960795298
 30
0.0
 11
276.8108532288
 21
192.8960795298
 31
0.0
  0
ARC
  5
203
330
1F
100
AcDbEntity
  8
0
  6
Continuous
 62
     7
370
    25
100
AcDbCircle
 10
276.8108534523
 20
193.9309999838
 30
0.0
 40
1.034920769491777
100
AcDbArc
 50
270.0
 51
22.619864948
  0
ARC
  5
204
330
1F
100
AcDbEntity
  8
0
  6
Continuous
 62
     7
370
    25
100
AcDbCircle
 10
282.8108534523
 20
196.4309999838
 30
0.0
 40
5.465079230508309
100
AcDbArc
 50
275.6983767863
 51
202.619864948
  0
ARC
  5
205
330
1F
100
AcDbEntity
  8
0
  6
Continuous
 62
     7
370
    25
100
AcDbCircle
 10
283.4562485881
 20
189.9631204922
 30
0.0
 40
1.034920769491817
100
AcDbArc
 50
95.6983767863
 51
199.7968840571
  0
ARC
  5
206
330
1F
100
AcDbEntity
  8
0
  6
Continuous
 62
     7
370
    25
100
AcDbCircle
 10
277.8108534523
 20
187.9309999838
 30
0.0
 40
4.965079230508309
100
AcDbArc
 50
0.0
 51
19.7968840571
  0
LINE
  5
207
330
1F
100
AcDbEntity
  8
0
  6
Continuous
 62
     7
370
    25
100
AcDbLine
 10
282.775933341
 20
187.9309995815
 30
0.0
 11
282.775933341
 21
185.4310001031
 31
0.0
  0
ARC
  5
208
330
1F
100
AcDbEntity
  8
0
  6
Continuous
 62
     7
370
    25
100
AcDbCircle
 10
283.8108534523
 20
185.4309999838
 30
0.0
 40
1.034920769491748
100
AcDbArc
 50
180.0
 51
270.0
  0
LINE
  5
209
330
1F
100
AcDbEntity
  8
0
  6
Continuous
 62
     7
370
    25
100
AcDbLine
 10
283.8108543762
 20
184.3960790679
 30
0.0
 11
286.1407217093
 21
184.3960790679
 31
0.0
  0
ARC
  5
20A
330
1F
100
AcDbEntity
  8
0
  6
Continuous
 62
     7
370
    25
100
AcDbCircle
 10
286.1407215599
 20
185.4309999838
 30
0.0
 40
1.03492076949175
100
AcDbArc
 50
270.0
 51
6.8371411681
  0
ARC
  5
20B
330
1F
100
AcDbEntity
  8
0
  6
Continuous
 62
     7
370
    25
100
AcDbCircle
 10
290.3108534523
 20
185.9309999838
 30
0.0
 40
3.165079230508256
100
AcDbArc
 50
83.1628588319
 51
186.8371411681
  0
ARC
  5
20C
330
1F
100
AcDbEntity
  8
0
  6
Continuous
 62
     7
370
    25
100
AcDbCircle
 10
290.8108534523
 20
190.1011318762
 30
0.0
 40
1.034920769491778
100
AcDbArc
 50
263.1628588319
 51
0.0
  0
LINE
  5
20D
330
1F
100
AcDbEntity
  8
0
  6
Continuous
 62
     7
370
    25
100
AcDbLine
 10
291.8457746961
 20
190.1011320546
 30
0.0
 11
291.8457746961
 21
204.0810000867
 31
0.0
  0
ARC
  5
20E
330
1F
100
AcDbEntity
  8
0
  6
Continuous
 62
     7
370
    25
100
AcDbCircle
 10
290.8108534523
 20
204.0809999838
 30
0.0
 40
1.034920769491748
100
AcDbArc
 50
0.0
 51
90.0
  0
LINE
  5
20F
330
1F
100
AcDbEntity
  8
0
  6
Continuous
 62
     7
370
    25
100
AcDbLine
 10
278.7844030642
 20
205.1159206562
 30
0.0
 11
290.8108536609
 21
205.1159206562
 31
0.0
  0
ARC
  5
210
330
1F
100
AcDbEntity
  8
0
  6
Continuous
 62
     7
370
    25
100
AcDbCircle
 10
278.7844034772
 20
204.0809999838
 30
0.0
 40
1.034920769491748
100
AcDbArc
 50
90.0
 51
175.3395806159
  0
ARC
  5
211
330
1F
100
AcDbEntity
  8
0
  6
Continuous
 62
     7
370
    25
100
AcDbCircle
 10
270.8108534523
 20
204.7309999838
 30
0.0
 40
6.965079230508286
100
AcDbArc
 50
270.0
 51
355.3395806159
  0
CIRCLE
  5
212
330
1F
100
AcDbEntity
  8
0
  6
Continuous
 62
     7
370
    25
100
AcDbCircle
 10
282.8108534523
 20
196.4309999838
 30
0.0
 40
3.5
  0
CIRCLE
  5
213
330
1F
100
AcDbEntity
  8
0
  6
Continuous
 62
     7
370
    25
100
AcDbCircle
 10
250.8108534523
 20
196.4309999838
 30
0.0
 40
3.5
  0
ARC
  5
214
330
1F
100
AcDbEntity
  8
0
  6
Continuous
 62
     7
370
    25
100
AcDbCircle
 10
244.6019784838
 20
224.3545050204
 30
0.0
 40
1.034920769491765
100
AcDbArc
 50
342.7870561698
 51
103.5303664175
  0
ARC
  5
215
330
1F
100
AcDbEntity
  8
0
  6
Continuous
 62
     7
370
    25
100
AcDbCircle
 10
243.5608534523
 20
228.6809999838
 30
0.0
 40
3.415079230508249
100
AcDbArc
 50
260.2970967706
 51
283.5303664175
  0
ARC
  5
216
330
1F
100
AcDbEntity
  8
0
  6
Continuous
 62
     7
370
    25
100
AcDbCircle
 10
242.8108534523
 20
224.294657544
 30
0.0
 40
1.034920769491777
100
AcDbArc
 50
80.2970967706
 51
180.0
  0
LINE
  5
217
330
1F
100
AcDbEntity
  8
0
  6
Continuous
 62
     7
370
    25
100
AcDbLine
 10
241.7759322085
 20
224.2946571454
 30
0.0
 11
241.7759322085
 21
214.0809998631
 31
0.0
  0
ARC
  5
218
330
1F
100
AcDbEntity
  8
0
  6
Continuous
 62
     7
370
    25
100
AcDbCircle
 10
242.8108534523
 20
214.0809999838
 30
0.0
 40
1.034920769491777
100
AcDbArc
 50
180.0
 51
270.0
  0
LINE
  5
219
330
1F
100
AcDbEntity
  8
0
  6
Continuous
 62
     7
370
    25
100
AcDbLine
 10
242.8108532437
 20
213.0460792936
 30
0.0
 11
290.8108536609
 21
213.0460792936
 31
0.0
  0
ARC
  5
21A
330
1F
100
AcDbEntity
  8
0
  6
Continuous
 62
     7
370
    25
100
AcDbCircle
 10
290.8108534523
 20
214.0809999838
 30
0.0
 40
1.034920769491748
100
AcDbArc
 50
270.0
 51
0.0
  0
LINE
  5
21B
330
1F
100
AcDbEntity
  8
0
  6
Continuous
 62
     7
370
    25
100
AcDbLine
 10
291.8457746961
 20
214.0809998631
 30
0.0
 11
291.8457746961
 21
224.2946571454
 31
0.0
  0
ARC
  5
21C
330
1F
100
AcDbEntity
  8
0
  6
Continuous
 62
     7
370
    25
100
AcDbCircle
 10
290.8108534523
 20
224.294657544
 30
0.0
 40
1.034920769491754
100
AcDbArc
 50
0.0
 51
99.7029032294
  0
ARC
  5
21D
330
1F
100
AcDbEntity
  8
0
  6
Continuous
 62
     7
370
    25
100
AcDbCircle
 10
290.0608534523
 20
228.6809999838
 30
0.0
 40
3.415079230508242
100
AcDbArc
 50
256.4696335825
 51
279.7029032294
  0
ARC
  5
21E
330
1F
100
AcDbEntity
  8
0
  6
Continuous
 62
     7
370
    25
100
AcDbCircle
 10
289.0197284208
 20
224.3545050204
 30
0.0
 40
1.034920769491772
100
AcDbArc
 50
76.4696335825
 51
197.2129438302
  0
ARC
  5
21F
330
1F
100
AcDbEntity
  8
0
  6
Continuous
 62
     7
370
    25
100
AcDbCircle
 10
282.8108534523
 20
222.4309999838
 30
0.0
 40
5.465079230508234
100
AcDbArc
 50
64.3142665716
 51
17.2129438302
  0
ARC
  5
220
330
1F
100
AcDbEntity
  8
0
  6
Continuous
 62
     7
370
    25
100
AcDbCircle
 10
285.6281790295
 20
228.2887023143
 30
0.0
 40
1.034920769491777
100
AcDbArc
 50
244.3142665716
 51
5.0575768194
  0
ARC
  5
221
330
1F
100
AcDbEntity
  8
0
  6
Continuous
 62
     7
370
    25
100
AcDbCircle
 10
290.0608534523
 20
228.6809999838
 30
0.0
 40
3.41507923050824
100
AcDbArc
 50
170.2970967706
 51
185.0575768194
  0
ARC
  5
222
330
1F
100
AcDbEntity
  8
0
  6
Continuous
 62
     7
370
    25
100
AcDbCircle
 10
285.6745110124
 20
229.4309999838
 30
0.0
 40
1.034920769491749
100
AcDbArc
 50
350.2970967706
 51
90.0
  0
LINE
  5
223
330
1F
100
AcDbEntity
  8
0
  6
Continuous
 62
     7
370
    25
100
AcDbLine
 10
285.6745109417
 20
230.4659208998
 30
0.0
 11
247.9471959629
 21
230.4659208998
 31
0.0
  0
ARC
  5
224
330
1F
100
AcDbEntity
  8
0
  6
Continuous
 62
     7
370
    25
100
AcDbCircle
 10
247.9471958922
 20
229.4309999838
 30
0.0
 40
1.034920769491748
100
AcDbArc
 50
90.0
 51
189.7029032294
  0
ARC
  5
225
330
1F
100
AcDbEntity
  8
0
  6
Continuous
 62
     7
370
    25
100
AcDbCircle
 10
243.5608534523
 20
228.6809999838
 30
0.0
 40
3.41507923050824
100
AcDbArc
 50
354.9424231806
 51
9.7029032294
  0
ARC
  5
226
330
1F
100
AcDbEntity
  8
0
  6
Continuous
 62
     7
370
    25
100
AcDbCircle
 10
247.9935278751
 20
228.2887023143
 30
0.0
 40
1.03492076949176
100
AcDbArc
 50
174.9424231806
 51
295.6857334284
  0
ARC
  5
227
330
1F
100
AcDbEntity
  8
0
  6
Continuous
 62
     7
370
    25
100
AcDbCircle
 10
250.8108534523
 20
222.4309999838
 30
0.0
 40
5.46507923050825
100
AcDbArc
 50
162.7870561698
 51
115.6857334284
  0
CIRCLE
  5
228
330
1F
100
AcDbEntity
  8
0
  6
Continuous
 62
     7
370
    25
100
AcDbCircle
 10
250.8108534523
 20
222.4309999838
 30
0.0
 40
3.5
  0
LINE
  5
229
330
1F
100
AcDbEntity
  8
0
  6
Continuous
 62
     7
370
    25
100
AcDbLine
 10
294.7759427585
 20
184.4309999391
 30
0.0
 11
294.7759427585
 21
230.4310000286
 31
0.0
  0
ARC
  5
22A
330
1F
100
AcDbEntity
  8
0
  6
Continuous
 62
     7
370
    25
100
AcDbCircle
 10
291.8108534523
 20
184.4309999838
 30
0.0
 40
2.965089870143572
100
AcDbArc
 50
270.0
 51
0.0
  0
LINE
  5
22B
330
1F
100
AcDbEntity
  8
0
  6
Continuous
 62
     7
370
    25
100
AcDbLine
 10
279.8457634159
 20
181.4659110054
 30
0.0
 11
291.8108538248
 21
181.4659110054
 31
0.0
  0
LINE
  5
22C
330
1F
100
AcDbEntity
  8
0
  6
Continuous
 62
     7
370
    25
100
AcDbLine
 10
279.8457634159
 20
181.4659110054
 30
0.0
 11
279.8457634159
 21
187.9309995815
 31
0.0
  0
ARC
  5
22D
330
1F
100
AcDbEntity
  8
0
  6
Continuous
 62
     7
370
    25
100
AcDbCircle
 10
277.8108534523
 20
187.9309999838
 30
0.0
 40
2.034910129856456
100
AcDbArc
 50
0.0
 51
90.0
  0
LINE
  5
22E
330
1F
100
AcDbEntity
  8
0
  6
Continuous
 62
     7
370
    25
100
AcDbLine
 10
277.8108533927
 20
189.9659096047
 30
0.0
 11
255.8108535119
 21
189.9659096047
 31
0.0
  0
ARC
  5
22F
330
1F
100
AcDbEntity
  8
0
  6
Continuous
 62
     7
370
    25
100
AcDbCircle
 10
255.8108534523
 20
187.9309999838
 30
0.0
 40
2.034910129856456
100
AcDbArc
 50
90.0
 51
180.0
  0
LINE
  5
230
330
1F
100
AcDbEntity
  8
0
  6
Continuous
 62
     7
370
    25
100
AcDbLine
 10
253.7759434887
 20
187.9309995815
 30
0.0
 11
253.7759434887
 21
181.4659110054
 31
0.0
  0
LINE
  5
231
330
1F
100
AcDbEntity
  8
0
  6
Continuous
 62
     7
370
    25
100
AcDbLine
 10
241.8108530798
 20
181.4659110054
 30
0.0
 11
253.7759434887
 21
181.4659110054
 31
0.0
  0
ARC
  5
232
330
1F
100
AcDbEntity
  8
0
  6
Continuous
 62
     7
370
    25
100
AcDbCircle
 10
241.8108534523
 20
184.4309999838
 30
0.0
 40
2.965089870143572
100
AcDbArc
 50
180.0
 51
270.0
  0
LINE
  5
233
330
1F
100
AcDbEntity
  8
0
  6
Continuous
 62
     7
370
    25
100
AcDbLine
 10
238.8457641461
 20
230.4310000286
 30
0.0
 11
238.8457641461
 21
184.4309999391
 31
0.0
  0
ARC
  5
234
330
1F
100
AcDbEntity
  8
0
  6
Continuous
 62
     7
370
    25
100
AcDbCircle
 10
241.8108534523
 20
230.4309999838
 30
0.0
 40
2.965089870143572
100
AcDbArc
 50
90.0
 51
180.0
  0
LINE
  5
235
330
1F
100
AcDbEntity
  8
0
  6
Continuous
 62
     7
370
    25
100
AcDbLine
 10
260.2759431571
 20
232.8960898116
 30
0.0
 11
273.3457637475
 21
232.8960898116
 31
0.0
  0
LINE
  5
236
330
1F
100
AcDbEntity
  8
0
  6
Continuous
 62
     7
370
    25
100
AcDbLine
 10
238.8457641461
 20
230.4310000286
 30
0.0
 11
238.810852588
 21
230.4310000286
 31
0.0
  0
ARC
  5
237
330
1F
100
AcDbEntity
  8
0
  6
Continuous
 62
     7
370
    25
100
AcDbCircle
 10
241.8108534523
 20
230.4309999838
 30
0.0
 40
3.0
100
AcDbArc
 50
90.0
 51
180.0
  0
LINE
  5
238
330
1F
100
AcDbEntity
  8
0
  6
Continuous
 62
     7
370
    25
100
AcDbLine
 10
273.3108535864
 20
232.930999507
 30
0.0
 11
260.3108533182
 21
232.930999507
 31
0.0
  0
LINE
  5
239
330
1F
100
AcDbEntity
  8
0
  6
Continuous
 62
     7
370
    25
100
AcDbLine
 10
285.6745109417
 20
230.4310000286
 30
0.0
 11
285.6745109417
 21
230.4659208998
 31
0.0
  0
LINE
  5
23A
330
1F
100
AcDbEntity
  8
0
  6
Continuous
 62
     7
370
    25
100
AcDbLine
 10
286.6946276732
 20
229.2565743223
 30
0.0
 11
286.6602059909
 21
229.262460281
 31
0.0
  0
ARC
  5
23B
330
1F
100
AcDbEntity
  8
0
  6
Continuous
 62
     7
370
    25
100
AcDbCircle
 10
285.6745110124
 20
229.4309999838
 30
0.0
 40
1.0
100
AcDbArc
 50
350.2970967706
 51
90.0
  0
LINE
  5
23C
330
1F
100
AcDbEntity
  8
0
  6
Continuous
 62
     7
370
    25
100
AcDbLine
 10
285.6745109417
 20
230.4310000286
 30
0.0
 11
247.9471959629
 21
230.4310000286
 31
0.0
  0
LINE
  5
23D
330
1F
100
AcDbEntity
  8
0
  6
Continuous
 62
     7
370
    25
100
AcDbLine
 10
247.9471959629
 20
230.4659208998
 30
0.0
 11
247.9471959629
 21
230.4310000286
 31
0.0
  0
LINE
  5
23E
330
1F
100
AcDbEntity
  8
0
  6
Continuous
 62
     7
370
    25
100
AcDbLine
 10
294.7759427585
 20
184.4309999391
 30
0.0
 11
294.8108543166
 21
184.4309999391
 31
0.0
  0
LINE
  5
23F
330
1F
100
AcDbEntity
  8
0
  6
Continuous
 62
     7
370
    25
100
AcDbLine
 10
294.8108543166
 20
184.4309999391
 30
0.0
 11
294.8108543166
 21
230.4310000286
 31
0.0
  0
LINE
  5
240
330
1F
100
AcDbEntity
  8
0
  6
Continuous
 62
     7
370
    25
100
AcDbLine
 10
238.810852588
 20
184.4309999391
 30
0.0
 11
238.8457641461
 21
184.4309999391
 31
0.0
  0
LINE
  5
241
330
1F
100
AcDbEntity
  8
0
  6
Continuous
 62
     7
370
    25
100
AcDbLine
 10
238.810852588
 20
230.4310000286
 30
0.0
 11
238.810852588
 21
184.4309999391
 31
0.0
  0
LINE
  5
242
330
1F
100
AcDbEntity
  8
0
  6
Continuous
 62
     7
370
    25
100
AcDbLine
 10
246.9615009137
 20
229.262460281
 30
0.0
 11
246.9270792314
 21
229.2565743223
 31
0.0
  0
ARC
  5
243
330
1F
100
AcDbEntity
  8
0
  6
Continuous
 62
     7
370
    25
100
AcDbCircle
 10
247.9471958922
 20
229.4309999838
 30
0.0
 40
1.0
100
AcDbArc
 50
90.0
 51
189.7029032294
  0
ARC
  5
244
330
1F
100
AcDbEntity
  8
0
  6
Continuous
 62
     7
370
    25
100
AcDbCircle
 10
243.5608534523
 20
228.6809999838
 30
0.0
 40
3.449999999999994
100
AcDbArc
 50
354.9424231806
 51
9.7029032294
  0
LINE
  5
245
330
1F
100
AcDbEntity
  8
0
  6
Continuous
 62
     7
370
    25
100
AcDbLine
 10
246.9626371273
 20
228.3799371466
 30
0.0
 11
246.9974220254
 21
228.3768581942
 31
0.0
  0
ARC
  5
246
330
1F
100
AcDbEntity
  8
0
  6
Continuous
 62
     7
370
    25
100
AcDbCircle
 10
290.0608534523
 20
228.6809999838
 30
0.0
 40
3.450000000000022
100
AcDbArc
 50
170.2970967706
 51
185.0575768194
  0
LINE
  5
247
330
1F
100
AcDbEntity
  8
0
  6
Continuous
 62
     7
370
    25
100
AcDbLine
 10
286.6590697773
 20
228.3799371466
 30
0.0
 11
286.6242848792
 21
228.3768581942
 31
0.0
  0
ARC
  5
248
330
1F
100
AcDbEntity
  8
0
  6
Continuous
 62
     7
370
    25
100
AcDbCircle
 10
285.6281790295
 20
228.2887023143
 30
0.0
 40
1.000000000000025
100
AcDbArc
 50
244.3142665716
 51
5.0575768194
  0
LINE
  5
249
330
1F
100
AcDbEntity
  8
0
  6
Continuous
 62
     7
370
    25
100
AcDbLine
 10
285.1796079882
 20
227.356046696
 30
0.0
 11
285.1947438427
 21
227.3875179485
 31
0.0
  0
ARC
  5
24A
330
1F
100
AcDbEntity
  8
0
  6
Continuous
 62
     7
370
    25
100
AcDbCircle
 10
247.9935278751
 20
228.2887023143
 30
0.0
 40
0.999999999999997
100
AcDbArc
 50
174.9424231806
 51
295.6857334284
  0
LINE
  5
24B
330
1F
100
AcDbEntity
  8
0
  6
Continuous
 62
     7
370
    25
100
AcDbLine
 10
248.4420989164
 20
227.356046696
 30
0.0
 11
248.4269630619
 21
227.3875179485
 31
0.0
  0
ARC
  5
24C
330
1F
100
AcDbEntity
  8
0
  6
Continuous
 62
     7
370
    25
100
AcDbCircle
 10
282.8108534523
 20
222.4309999838
 30
0.0
 40
5.499999999999986
100
AcDbArc
 50
64.3142665716
 51
17.2129438302
  0
LINE
  5
24D
330
1F
100
AcDbEntity
  8
0
  6
Continuous
 62
     7
370
    25
100
AcDbLine
 10
288.0311593868
 20
224.0482478187
 30
0.0
 11
288.0645174988
 21
224.0585817739
 31
0.0
  0
ARC
  5
24E
330
1F
100
AcDbEntity
  8
0
  6
Continuous
 62
     7
370
    25
100
AcDbCircle
 10
250.8108534523
 20
222.4309999838
 30
0.0
 40
5.499999999999997
100
AcDbArc
 50
162.7870561698
 51
115.6857334284
  0
LINE
  5
24F
330
1F
100
AcDbEntity
  8
0
  6
Continuous
 62
     7
370
    25
100
AcDbLine
 10
245.5905475178
 20
224.0482478187
 30
0.0
 11
245.5571894058
 21
224.0585817739
 31
0.0
  0
ARC
  5
250
330
1F
100
AcDbEntity
  8
0
  6
Continuous
 62
     7
370
    25
100
AcDbCircle
 10
244.6019784838
 20
224.3545050204
 30
0.0
 40
1.000000000000016
100
AcDbArc
 50
342.7870561698
 51
103.5303664175
  0
LINE
  5
251
330
1F
100
AcDbEntity
  8
0
  6
Continuous
 62
     7
370
    25
100
AcDbLine
 10
244.3598475762
 20
225.3607029811
 30
0.0
 11
244.3680171379
 21
225.3267506853
 31
0.0
  0
ARC
  5
252
330
1F
100
AcDbEntity
  8
0
  6
Continuous
 62
     7
370
    25
100
AcDbCircle
 10
289.0197284208
 20
224.3545050204
 30
0.0
 40
1.000000000000006
100
AcDbArc
 50
76.4696335825
 51
197.2129438302
  0
LINE
  5
253
330
1F
100
AcDbEntity
  8
0
  6
Continuous
 62
     7
370
    25
100
AcDbLine
 10
289.2618593284
 20
225.3607029811
 30
0.0
 11
289.2536897667
 21
225.3267506853
 31
0.0
  0
LINE
  5
254
330
1F
100
AcDbEntity
  8
0
  6
Continuous
 62
     7
370
    25
100
AcDbLine
 10
290.6423140772
 20
225.2803521946
 30
0.0
 11
290.6364281186
 21
225.314773877
 31
0.0
  0
LINE
  5
255
330
1F
100
AcDbEntity
  8
0
  6
Continuous
 62
     7
370
    25
100
AcDbLine
 10
291.8457746961
 20
224.2946571454
 30
0.0
 11
291.8108538248
 21
224.2946571454
 31
0.0
  0
ARC
  5
256
330
1F
100
AcDbEntity
  8
0
  6
Continuous
 62
     7
370
    25
100
AcDbCircle
 10
290.8108534523
 20
224.294657544
 30
0.0
 40
1.0
100
AcDbArc
 50
0.0
 51
99.7029032294
  0
LINE
  5
257
330
1F
100
AcDbEntity
  8
0
  6
Continuous
 62
     7
370
    25
100
AcDbLine
 10
241.8108530798
 20
224.2946571454
 30
0.0
 11
241.7759322085
 21
224.2946571454
 31
0.0
  0
LINE
  5
258
330
1F
100
AcDbEntity
  8
0
  6
Continuous
 62
     7
370
    25
100
AcDbLine
 10
242.985278786
 20
225.314773877
 30
0.0
 11
242.9793928274
 21
225.2803521946
 31
0.0
  0
ARC
  5
259
330
1F
100
AcDbEntity
  8
0
  6
Continuous
 62
     7
370
    25
100
AcDbCircle
 10
242.8108534523
 20
224.294657544
 30
0.0
 40
1.0
100
AcDbArc
 50
80.2970967706
 51
180.0
  0
ARC
  5
25A
330
1F
100
AcDbEntity
  8
0
  6
Continuous
 62
     7
370
    25
100
AcDbCircle
 10
243.5608534523
 20
228.6809999838
 30
0.0
 40
3.450000000000009
100
AcDbArc
 50
260.2970967706
 51
283.5303664175
  0
ARC
  5
25B
330
1F
100
AcDbEntity
  8
0
  6
Continuous
 62
     7
370
    25
100
AcDbCircle
 10
290.0608534523
 20
228.6809999838
 30
0.0
 40
3.450000000000009
100
AcDbArc
 50
256.4696335825
 51
279.7029032294
  0
LINE
  5
25C
330
1F
100
AcDbEntity
  8
0
  6
Continuous
 62
     7
370
    25
100
AcDbLine
 10
291.8108538248
 20
214.0809998631
 30
0.0
 11
291.8457746961
 21
214.0809998631
 31
0.0
  0
LINE
  5
25D
330
1F
100
AcDbEntity
  8
0
  6
Continuous
 62
     7
370
    25
100
AcDbLine
 10
291.8108538248
 20
214.0809998631
 30
0.0
 11
291.8108538248
 21
224.2946571454
 31
0.0
  0
LINE
  5
25E
330
1F
100
AcDbEntity
  8
0
  6
Continuous
 62
     7
370
    25
100
AcDbLine
 10
241.7759322085
 20
214.0809998631
 30
0.0
 11
241.8108530798
 21
214.0809998631
 31
0.0
  0
LINE
  5
25F
330
1F
100
AcDbEntity
  8
0
  6
Continuous
 62
     7
370
    25
100
AcDbLine
 10
241.8108530798
 20
224.2946571454
 30
0.0
 11
241.8108530798
 21
214.0809998631
 31
0.0
  0
LINE
  5
260
330
1F
100
AcDbEntity
  8
0
  6
Continuous
 62
     7
370
    25
100
AcDbLine
 10
242.8108532437
 20
213.0810001649
 30
0.0
 11
242.8108532437
 21
213.0460792936
 31
0.0
  0
ARC
  5
261
330
1F
100
AcDbEntity
  8
0
  6
Continuous
 62
     7
370
    25
100
AcDbCircle
 10
242.8108534523
 20
214.0809999838
 30
0.0
 40
1.0
100
AcDbArc
 50
180.0
 51
270.0
  0
LINE
  5
262
330
1F
100
AcDbEntity
  8
0
  6
Continuous
 62
     7
370
    25
100
AcDbLine
 10
290.8108536609
 20
213.0460792936
 30
0.0
 11
290.8108536609
 21
213.0810001649
 31
0.0
  0
ARC
  5
263
330
1F
100
AcDbEntity
  8
0
  6
Continuous
 62
     7
370
    25
100
AcDbCircle
 10
290.8108534523
 20
214.0809999838
 30
0.0
 40
1.0
100
AcDbArc
 50
270.0
 51
0.0
  0
LINE
  5
264
330
1F
100
AcDbEntity
  8
0
  6
Continuous
 62
     7
370
    25
100
AcDbLine
 10
242.8108532437
 20
213.0810001649
 30
0.0
 11
290.8108536609
 21
213.0810001649
 31
0.0
  0
LINE
  5
265
330
1F
100
AcDbEntity
  8
0
  6
Continuous
 62
     7
370
    25
100
AcDbLine
 10
254.8373038404
 20
205.0810000177
 30
0.0
 11
254.8373038404
 21
205.1159206562
 31
0.0
  0
LINE
  5
266
330
1F
100
AcDbEntity
  8
0
  6
Continuous
 62
     7
370
    25
100
AcDbLine
 10
255.8688022651
 20
204.1650873393
 30
0.0
 11
255.8339968779
 21
204.1622500651
 31
0.0
  0
ARC
  5
267
330
1F
100
AcDbEntity
  8
0
  6
Continuous
 62
     7
370
    25
100
AcDbCircle
 10
254.8373034274
 20
204.0809999838
 30
0.0
 40
1.000000000000037
100
AcDbArc
 50
4.6604193841
 51
90.0
  0
LINE
  5
268
330
1F
100
AcDbEntity
  8
0
  6
Continuous
 62
     7
370
    25
100
AcDbLine
 10
277.7877100267
 20
204.1622500651
 30
0.0
 11
277.7529046395
 21
204.1650873393
 31
0.0
  0
LINE
  5
269
330
1F
100
AcDbEntity
  8
0
  6
Continuous
 62
     7
370
    25
100
AcDbLine
 10
278.7844030642
 20
205.1159206562
 30
0.0
 11
278.7844030642
 21
205.0810000177
 31
0.0
  0
ARC
  5
26A
330
1F
100
AcDbEntity
  8
0
  6
Continuous
 62
     7
370
    25
100
AcDbCircle
 10
278.7844034772
 20
204.0809999838
 30
0.0
 40
1.000000000000009
100
AcDbArc
 50
90.0
 51
175.3395806159
  0
LINE
  5
26B
330
1F
100
AcDbEntity
  8
0
  6
Continuous
 62
     7
370
    25
100
AcDbLine
 10
290.8108536609
 20
205.0810000177
 30
0.0
 11
290.8108536609
 21
205.1159206562
 31
0.0
  0
LINE
  5
26C
330
1F
100
AcDbEntity
  8
0
  6
Continuous
 62
     7
370
    25
100
AcDbLine
 10
291.8457746961
 20
204.0810000867
 30
0.0
 11
291.8108538248
 21
204.0810000867
 31
0.0
  0
ARC
  5
26D
330
1F
100
AcDbEntity
  8
0
  6
Continuous
 62
     7
370
    25
100
AcDbCircle
 10
290.8108534523
 20
204.0809999838
 30
0.0
 40
1.0
100
AcDbArc
 50
0.0
 51
90.0
  0
LINE
  5
26E
330
1F
100
AcDbEntity
  8
0
  6
Continuous
 62
     7
370
    25
100
AcDbLine
 10
278.7844030642
 20
205.0810000177
 30
0.0
 11
290.8108536609
 21
205.0810000177
 31
0.0
  0
LINE
  5
26F
330
1F
100
AcDbEntity
  8
0
  6
Continuous
 62
     7
370
    25
100
AcDbLine
 10
241.8108530798
 20
204.0810000867
 30
0.0
 11
241.7759322085
 21
204.0810000867
 31
0.0
  0
LINE
  5
270
330
1F
100
AcDbEntity
  8
0
  6
Continuous
 62
     7
370
    25
100
AcDbLine
 10
242.8108532437
 20
205.1159206562
 30
0.0
 11
242.8108532437
 21
205.0810000177
 31
0.0
  0
ARC
  5
271
330
1F
100
AcDbEntity
  8
0
  6
Continuous
 62
     7
370
    25
100
AcDbCircle
 10
242.8108534523
 20
204.0809999838
 30
0.0
 40
1.0
100
AcDbArc
 50
90.0
 51
180.0
  0
LINE
  5
272
330
1F
100
AcDbEntity
  8
0
  6
Continuous
 62
     7
370
    25
100
AcDbLine
 10
242.8108532437
 20
205.0810000177
 30
0.0
 11
254.8373038404
 21
205.0810000177
 31
0.0
  0
LINE
  5
273
330
1F
100
AcDbEntity
  8
0
  6
Continuous
 62
     7
370
    25
100
AcDbLine
 10
262.8108532623
 20
197.7309996977
 30
0.0
 11
262.8108532623
 21
197.765920569
 31
0.0
  0
ARC
  5
274
330
1F
100
AcDbEntity
  8
0
  6
Continuous
 62
     7
370
    25
100
AcDbCircle
 10
262.8108534523
 20
204.7309999838
 30
0.0
 40
6.999999999999972
100
AcDbArc
 50
184.6604193841
 51
270.0
  0
LINE
  5
275
330
1F
100
AcDbEntity
  8
0
  6
Continuous
 62
     7
370
    25
100
AcDbLine
 10
270.8108536423
 20
197.7309996977
 30
0.0
 11
270.8108536423
 21
197.765920569
 31
0.0
  0
ARC
  5
276
330
1F
100
AcDbEntity
  8
0
  6
Continuous
 62
     7
370
    25
100
AcDbCircle
 10
270.8108534523
 20
204.7309999838
 30
0.0
 40
6.999999999999996
100
AcDbArc
 50
270.0
 51
355.3395806159
  0
LINE
  5
277
330
1F
100
AcDbEntity
  8
0
  6
Continuous
 62
     7
370
    25
100
AcDbLine
 10
291.8108538248
 20
190.1011320546
 30
0.0
 11
291.8457746961
 21
190.1011320546
 31
0.0
  0
LINE
  5
278
330
1F
100
AcDbEntity
  8
0
  6
Continuous
 62
     7
370
    25
100
AcDbLine
 10
291.8108538248
 20
190.1011320546
 30
0.0
 11
291.8108538248
 21
204.0810000867
 31
0.0
  0
LINE
  5
279
330
1F
100
AcDbEntity
  8
0
  6
Continuous
 62
     7
370
    25
100
AcDbLine
 10
241.8108530798
 20
204.0810000867
 30
0.0
 11
241.8108530798
 21
190.1011320546
 31
0.0
  0
LINE
  5
27A
330
1F
100
AcDbEntity
  8
0
  6
Continuous
 62
     7
370
    25
100
AcDbLine
 10
241.7759322085
 20
190.1011320546
 30
0.0
 11
241.8108530798
 21
190.1011320546
 31
0.0
  0
LINE
  5
27B
330
1F
100
AcDbEntity
  8
0
  6
Continuous
 62
     7
370
    25
100
AcDbLine
 10
250.264749349
 20
190.9581797913
 30
0.0
 11
250.2682175942
 21
190.9929274365
 31
0.0
  0
ARC
  5
27C
330
1F
100
AcDbEntity
  8
0
  6
Continuous
 62
     7
370
    25
100
AcDbCircle
 10
250.8108534523
 20
196.4309999838
 30
0.0
 40
5.500000000000027
100
AcDbArc
 50
337.380135052
 51
264.3016232137
  0
LINE
  5
27D
330
1F
100
AcDbEntity
  8
0
  6
Continuous
 62
     7
370
    25
100
AcDbLine
 10
255.8555420943
 20
194.3290459707
 30
0.0
 11
255.8877761
 21
194.3156153679
 31
0.0
  0
LINE
  5
27E
330
1F
100
AcDbEntity
  8
0
  6
Continuous
 62
     7
370
    25
100
AcDbLine
 10
283.3534893104
 20
190.9929274365
 30
0.0
 11
283.3569575556
 21
190.9581797913
 31
0.0
  0
LINE
  5
27F
330
1F
100
AcDbEntity
  8
0
  6
Continuous
 62
     7
370
    25
100
AcDbLine
 10
277.7339308046
 20
194.3156153679
 30
0.0
 11
277.7661648103
 21
194.3290459707
 31
0.0
  0
ARC
  5
280
330
1F
100
AcDbEntity
  8
0
  6
Continuous
 62
     7
370
    25
100
AcDbCircle
 10
282.8108534523
 20
196.4309999838
 30
0.0
 40
5.500000000000027
100
AcDbArc
 50
275.6983767863
 51
202.619864948
  0
LINE
  5
281
330
1F
100
AcDbEntity
  8
0
  6
Continuous
 62
     7
370
    25
100
AcDbLine
 10
262.8108532623
 20
197.7309996977
 30
0.0
 11
270.8108536423
 21
197.7309996977
 31
0.0
  0
LINE
  5
282
330
1F
100
AcDbEntity
  8
0
  6
Continuous
 62
     7
370
    25
100
AcDbLine
 10
276.8108532288
 20
192.8960795298
 30
0.0
 11
276.8108532288
 21
192.9310004011
 31
0.0
  0
ARC
  5
283
330
1F
100
AcDbEntity
  8
0
  6
Continuous
 62
     7
370
    25
100
AcDbCircle
 10
276.8108534523
 20
193.9309999838
 30
0.0
 40
1.000000000000026
100
AcDbArc
 50
270.0
 51
22.619864948
  0
LINE
  5
284
330
1F
100
AcDbEntity
  8
0
  6
Continuous
 62
     7
370
    25
100
AcDbLine
 10
256.8108536758
 20
192.9310004011
 30
0.0
 11
256.8108536758
 21
192.8960795298
 31
0.0
  0
ARC
  5
285
330
1F
100
AcDbEntity
  8
0
  6
Continuous
 62
     7
370
    25
100
AcDbCircle
 10
256.8108534523
 20
193.9309999838
 30
0.0
 40
1.0
100
AcDbArc
 50
157.380135052
 51
270.0
  0
LINE
  5
286
330
1F
100
AcDbEntity
  8
0
  6
Continuous
 62
     7
370
    25
100
AcDbLine
 10
256.8108536758
 20
192.9310004011
 30
0.0
 11
276.8108532288
 21
192.9310004011
 31
0.0
  0
LINE
  5
287
330
1F
100
AcDbEntity
  8
0
  6
Continuous
 62
     7
370
    25
100
AcDbLine
 10
251.1392146804
 20
189.6126067981
 30
0.0
 11
251.10635762
 21
189.6244345948
 31
0.0
  0
ARC
  5
288
330
1F
100
AcDbEntity
  8
0
  6
Continuous
 62
     7
370
    25
100
AcDbCircle
 10
250.1654583165
 20
189.9631204922
 30
0.0
 40
1.000000000000008
100
AcDbArc
 50
340.2031159429
 51
84.3016232137
  0
LINE
  5
289
330
1F
100
AcDbEntity
  8
0
  6
Continuous
 62
     7
370
    25
100
AcDbLine
 10
282.5153492846
 20
189.6244345948
 30
0.0
 11
282.4824922242
 21
189.6126067981
 31
0.0
  0
ARC
  5
28A
330
1F
100
AcDbEntity
  8
0
  6
Continuous
 62
     7
370
    25
100
AcDbCircle
 10
283.4562485881
 20
189.9631204922
 30
0.0
 40
1.000000000000035
100
AcDbArc
 50
95.6983767863
 51
199.7968840571
  0
LINE
  5
28B
330
1F
100
AcDbEntity
  8
0
  6
Continuous
 62
     7
370
    25
100
AcDbLine
 10
242.9299004831
 20
189.1082434699
 30
0.0
 11
242.9340579071
 21
189.0735703304
 31
0.0
  0
ARC
  5
28C
330
1F
100
AcDbEntity
  8
0
  6
Continuous
 62
     7
370
    25
100
AcDbCircle
 10
242.8108534523
 20
190.1011318762
 30
0.0
 40
1.000000000000026
100
AcDbArc
 50
180.0
 51
276.8371411681
  0
LINE
  5
28D
330
1F
100
AcDbEntity
  8
0
  6
Continuous
 62
     7
370
    25
100
AcDbLine
 10
290.6876489975
 20
189.0735703304
 30
0.0
 11
290.6918064215
 21
189.1082434699
 31
0.0
  0
ARC
  5
28E
330
1F
100
AcDbEntity
  8
0
  6
Continuous
 62
     7
370
    25
100
AcDbCircle
 10
290.8108534523
 20
190.1011318762
 30
0.0
 40
1.000000000000033
100
AcDbArc
 50
263.1628588319
 51
0.0
  0
LINE
  5
28F
330
1F
100
AcDbEntity
  8
0
  6
Continuous
 62
     7
370
    25
100
AcDbLine
 10
253.8108531841
 20
187.9309995815
 30
0.0
 11
253.7759434887
 21
187.9309995815
 31
0.0
  0
LINE
  5
290
330
1F
100
AcDbEntity
  8
0
  6
Continuous
 62
     7
370
    25
100
AcDbLine
 10
255.8108535119
 20
189.9659096047
 30
0.0
 11
255.8108535119
 21
189.9309999093
 31
0.0
  0
ARC
  5
291
330
1F
100
AcDbEntity
  8
0
  6
Continuous
 62
     7
370
    25
100
AcDbCircle
 10
255.8108534523
 20
187.9309999838
 30
0.0
 40
2.0
100
AcDbArc
 50
90.0
 51
180.0
  0
LINE
  5
292
330
1F
100
AcDbEntity
  8
0
  6
Continuous
 62
     7
370
    25
100
AcDbLine
 10
277.8108533927
 20
189.9309999093
 30
0.0
 11
277.8108533927
 21
189.9659096047
 31
0.0
  0
LINE
  5
293
330
1F
100
AcDbEntity
  8
0
  6
Continuous
 62
     7
370
    25
100
AcDbLine
 10
279.8457634159
 20
187.9309995815
 30
0.0
 11
279.8108537205
 21
187.9309995815
 31
0.0
  0
ARC
  5
294
330
1F
100
AcDbEntity
  8
0
  6
Continuous
 62
     7
370
    25
100
AcDbCircle
 10
277.8108534523
 20
187.9309999838
 30
0.0
 40
2.000000000000057
100
AcDbArc
 50
0.0
 51
90.0
  0
LINE
  5
295
330
1F
100
AcDbEntity
  8
0
  6
Continuous
 62
     7
370
    25
100
AcDbLine
 10
277.8108533927
 20
189.9309999093
 30
0.0
 11
255.8108535119
 21
189.9309999093
 31
0.0
  0
LINE
  5
296
330
1F
100
AcDbEntity
  8
0
  6
Continuous
 62
     7
370
    25
100
AcDbLine
 10
282.8108542123
 20
187.9309995815
 30
0.0
 11
282.775933341
 21
187.9309995815
 31
0.0
  0
ARC
  5
297
330
1F
100
AcDbEntity
  8
0
  6
Continuous
 62
     7
370
    25
100
AcDbCircle
 10
277.8108534523
 20
187.9309999838
 30
0.0
 40
5.000000000000057
100
AcDbArc
 50
0.0
 51
19.7968840571
  0
LINE
  5
298
330
1F
100
AcDbEntity
  8
0
  6
Continuous
 62
     7
370
    25
100
AcDbLine
 10
250.8108526923
 20
187.9309995815
 30
0.0
 11
250.8457735636
 21
187.9309995815
 31
0.0
  0
ARC
  5
299
330
1F
100
AcDbEntity
  8
0
  6
Continuous
 62
     7
370
    25
100
AcDbCircle
 10
255.8108534523
 20
187.9309999838
 30
0.0
 40
5.000000000000006
100
AcDbArc
 50
160.2031159429
 51
180.0
  0
LINE
  5
29A
330
1F
100
AcDbEntity
  8
0
  6
Continuous
 62
     7
370
    25
100
AcDbLine
 10
246.4534234711
 20
185.5542047665
 30
0.0
 11
246.4880966105
 21
185.5500473425
 31
0.0
  0
ARC
  5
29B
330
1F
100
AcDbEntity
  8
0
  6
Continuous
 62
     7
370
    25
100
AcDbCircle
 10
243.3108534523
 20
185.9309999838
 30
0.0
 40
3.200000000000005
100
AcDbArc
 50
353.1628588319
 51
96.8371411681
  0
LINE
  5
29C
330
1F
100
AcDbEntity
  8
0
  6
Continuous
 62
     7
370
    25
100
AcDbLine
 10
287.1336102941
 20
185.5500473425
 30
0.0
 11
287.1682834335
 21
185.5542047665
 31
0.0
  0
ARC
  5
29D
330
1F
100
AcDbEntity
  8
0
  6
Continuous
 62
     7
370
    25
100
AcDbCircle
 10
290.3108534523
 20
185.9309999838
 30
0.0
 40
3.200000000000005
100
AcDbArc
 50
83.1628588319
 51
186.8371411681
  0
LINE
  5
29E
330
1F
100
AcDbEntity
  8
0
  6
Continuous
 62
     7
370
    25
100
AcDbLine
 10
250.8108526923
 20
185.4310001031
 30
0.0
 11
250.8457735636
 21
185.4310001031
 31
0.0
  0
LINE
  5
29F
330
1F
100
AcDbEntity
  8
0
  6
Continuous
 62
     7
370
    25
100
AcDbLine
 10
250.8108526923
 20
185.4310001031
 30
0.0
 11
250.8108526923
 21
187.9309995815
 31
0.0
  0
LINE
  5
2A0
330
1F
100
AcDbEntity
  8
0
  6
Continuous
 62
     7
370
    25
100
AcDbLine
 10
279.8108537205
 20
181.4309994474
 30
0.0
 11
279.8457634159
 21
181.4659110054
 31
0.0
  0
LINE
  5
2A1
330
1F
100
AcDbEntity
  8
0
  6
Continuous
 62
     7
370
    25
100
AcDbLine
 10
279.8108537205
 20
181.4309994474
 30
0.0
 11
279.8108537205
 21
187.9309995815
 31
0.0
  0
LINE
  5
2A2
330
1F
100
AcDbEntity
  8
0
  6
Continuous
 62
     7
370
    25
100
AcDbLine
 10
282.8108542123
 20
187.9309995815
 30
0.0
 11
282.8108542123
 21
185.4310001031
 31
0.0
  0
LINE
  5
2A3
330
1F
100
AcDbEntity
  8
0
  6
Continuous
 62
     7
370
    25
100
AcDbLine
 10
282.775933341
 20
185.4310001031
 30
0.0
 11
282.8108542123
 21
185.4310001031
 31
0.0
  0
LINE
  5
2A4
330
1F
100
AcDbEntity
  8
0
  6
Continuous
 62
     7
370
    25
100
AcDbLine
 10
253.8108531841
 20
181.4309994474
 30
0.0
 11
253.7759434887
 21
181.4659110054
 31
0.0
  0
LINE
  5
2A5
330
1F
100
AcDbEntity
  8
0
  6
Continuous
 62
     7
370
    25
100
AcDbLine
 10
253.8108531841
 20
187.9309995815
 30
0.0
 11
253.8108531841
 21
181.4309994474
 31
0.0
  0
LINE
  5
2A6
330
1F
100
AcDbEntity
  8
0
  6
Continuous
 62
     7
370
    25
100
AcDbLine
 10
286.1407217093
 20
184.3960790679
 30
0.0
 11
286.1407217093
 21
184.4309999391
 31
0.0
  0
ARC
  5
2A7
330
1F
100
AcDbEntity
  8
0
  6
Continuous
 62
     7
370
    25
100
AcDbCircle
 10
286.1407215599
 20
185.4309999838
 30
0.0
 40
1.000000000000002
100
AcDbArc
 50
270.0
 51
6.8371411681
  0
LINE
  5
2A8
330
1F
100
AcDbEntity
  8
0
  6
Continuous
 62
     7
370
    25
100
AcDbLine
 10
247.4809851953
 20
184.4309999391
 30
0.0
 11
247.4809851953
 21
184.3960790679
 31
0.0
  0
ARC
  5
2A9
330
1F
100
AcDbEntity
  8
0
  6
Continuous
 62
     7
370
    25
100
AcDbCircle
 10
247.4809853447
 20
185.4309999838
 30
0.0
 40
1.000000000000002
100
AcDbArc
 50
173.1628588319
 51
270.0
  0
LINE
  5
2AA
330
1F
100
AcDbEntity
  8
0
  6
Continuous
 62
     7
370
    25
100
AcDbLine
 10
249.8108525284
 20
184.3960790679
 30
0.0
 11
249.8108525284
 21
184.4309999391
 31
0.0
  0
ARC
  5
2AB
330
1F
100
AcDbEntity
  8
0
  6
Continuous
 62
     7
370
    25
100
AcDbCircle
 10
249.8108534523
 20
185.4309999838
 30
0.0
 40
1.0
100
AcDbArc
 50
270.0
 51
0.0
  0
LINE
  5
2AC
330
1F
100
AcDbEntity
  8
0
  6
Continuous
 62
     7
370
    25
100
AcDbLine
 10
283.8108543762
 20
184.4309999391
 30
0.0
 11
283.8108543762
 21
184.3960790679
 31
0.0
  0
ARC
  5
2AD
330
1F
100
AcDbEntity
  8
0
  6
Continuous
 62
     7
370
    25
100
AcDbCircle
 10
283.8108534523
 20
185.4309999838
 30
0.0
 40
1.0
100
AcDbArc
 50
180.0
 51
270.0
  0
LINE
  5
2AE
330
1F
100
AcDbEntity
  8
0
  6
Continuous
 62
     7
370
    25
100
AcDbLine
 10
247.4809851953
 20
184.4309999391
 30
0.0
 11
249.8108525284
 21
184.4309999391
 31
0.0
  0
ARC
  5
2AF
330
1F
100
AcDbEntity
  8
0
  6
Continuous
 62
     7
370
    25
100
AcDbCircle
 10
291.8108534523
 20
184.4309999838
 30
0.0
 40
3.0
100
AcDbArc
 50
270.0
 51
0.0
  0
LINE
  5
2B0
330
1F
100
AcDbEntity
  8
0
  6
Continuous
 62
     7
370
    25
100
AcDbLine
 10
291.8108538248
 20
181.4309994474
 30
0.0
 11
291.8108538248
 21
181.4659110054
 31
0.0
  0
LINE
  5
2B1
330
1F
100
AcDbEntity
  8
0
  6
Continuous
 62
     7
370
    25
100
AcDbLine
 10
241.8108530798
 20
181.4659110054
 30
0.0
 11
241.8108530798
 21
181.4309994474
 31
0.0
  0
ARC
  5
2B2
330
1F
100
AcDbEntity
  8
0
  6
Continuous
 62
     7
370
    25
100
AcDbCircle
 10
241.8108534523
 20
184.4309999838
 30
0.0
 40
3.0
100
AcDbArc
 50
180.0
 51
270.0
  0
LINE
  5
2B3
330
1F
100
AcDbEntity
  8
0
  6
Continuous
 62
     7
370
    25
100
AcDbLine
 10
283.8108543762
 20
184.4309999391
 30
0.0
 11
286.1407217093
 21
184.4309999391
 31
0.0
  0
LINE
  5
2B4
330
1F
100
AcDbEntity
  8
0
  6
Continuous
 62
     7
370
    25
100
AcDbLine
 10
241.8108530798
 20
181.4309994474
 30
0.0
 11
253.8108531841
 21
181.4309994474
 31
0.0
  0
LINE
  5
2B5
330
1F
100
AcDbEntity
  8
0
  6
Continuous
 62
     7
370
    25
100
AcDbLine
 10
279.8108537205
 20
181.4309994474
 30
0.0
 11
291.8108538248
 21
181.4309994474
 31
0.0
  0
LINE
  5
2B6
330
1F
100
AcDbEntity
  8
0
  6
Continuous
 62
     7
370
    25
100
AcDbLine
 10
263.4570074257
 20
220.4810001671
 30
0.0
 11
264.5646994457
 21
220.4810001671
 31
0.0
  0
LINE
  5
2B7
330
1F
100
AcDbEntity
  8
0
  6
Continuous
 62
     7
370
    25
100
AcDbLine
 10
264.5646994457
 20
220.4810001671
 30
0.0
 11
264.0108535521
 21
221.6809999913
 31
0.0
  0
LINE
  5
2B8
330
1F
100
AcDbEntity
  8
0
  6
Continuous
 62
     7
370
    25
100
AcDbLine
 10
264.0108535521
 20
221.6809999913
 30
0.0
 11
263.4570074257
 21
220.4810001671
 31
0.0
  0
LINE
  5
2B9
330
1F
100
AcDbEntity
  8
0
  6
Continuous
 62
     7
370
    25
100
AcDbLine
 10
265.0608533983
 20
222.3309998184
 30
0.0
 11
262.9608534732
 21
222.3309998184
 31
0.0
  0
LINE
  5
2BA
330
1F
100
AcDbEntity
  8
0
  6
Continuous
 62
     7
370
    25
100
AcDbLine
 10
266.5608534404
 20
219.0809997514
 30
0.0
 11
265.0608533983
 21
222.3309998184
 31
0.0
  0
LINE
  5
2BB
330
1F
100
AcDbEntity
  8
0
  6
Continuous
 62
     7
370
    25
100
AcDbLine
 10
265.2108534927
 20
219.0809997514
 30
0.0
 11
266.5608534404
 21
219.0809997514
 31
0.0
  0
LINE
  5
2BC
330
1F
100
AcDbEntity
  8
0
  6
Continuous
 62
     7
370
    25
100
AcDbLine
 10
264.9570074388
 20
219.6309997484
 30
0.0
 11
265.2108534927
 21
219.0809997514
 31
0.0
  0
LINE
  5
2BD
330
1F
100
AcDbEntity
  8
0
  6
Continuous
 62
     7
370
    25
100
AcDbLine
 10
263.0646994327
 20
219.6309997484
 30
0.0
 11
264.9570074388
 21
219.6309997484
 31
0.0
  0
LINE
  5
2BE
330
1F
100
AcDbEntity
  8
0
  6
Continuous
 62
     7
370
    25
100
AcDbLine
 10
262.8108532623
 20
219.0809997514
 30
0.0
 11
263.0646994327
 21
219.6309997484
 31
0.0
  0
LINE
  5
2BF
330
1F
100
AcDbEntity
  8
0
  6
Continuous
 62
     7
370
    25
100
AcDbLine
 10
261.4608532273
 20
219.0809997514
 30
0.0
 11
262.8108532623
 21
219.0809997514
 31
0.0
  0
LINE
  5
2C0
330
1F
100
AcDbEntity
  8
0
  6
Continuous
 62
     7
370
    25
100
AcDbLine
 10
262.9608534732
 20
222.3309998184
 30
0.0
 11
261.4608532273
 21
219.0809997514
 31
0.0
  0
LINE
  5
2C1
330
1F
100
AcDbEntity
  8
0
  6
Continuous
 62
     7
370
    25
100
AcDbLine
 10
273.4608533316
 20
221.431000416
 30
0.0
 11
273.4608533316
 21
220.5310000822
 31
0.0
  0
LINE
  5
2C2
330
1F
100
AcDbEntity
  8
0
  6
Continuous
 62
     7
370
    25
100
AcDbLine
 10
273.4608533316
 20
220.5310000822
 30
0.0
 11
274.4108535805
 21
220.5310000822
 31
0.0
  0
ARC
  5
2C3
330
1F
100
AcDbEntity
  8
0
  6
Continuous
 62
     7
370
    25
100
AcDbCircle
 10
274.4108534523
 20
220.9809999838
 30
0.0
 40
0.4500000000000171
100
AcDbArc
 50
270.0
 51
90.0
  0
LINE
  5
2C4
330
1F
100
AcDbEntity
  8
0
  6
Continuous
 62
     7
370
    25
100
AcDbLine
 10
274.4108535805
 20
221.431000416
 30
0.0
 11
273.4608533316
 21
221.431000416
 31
0.0
  0
ARC
  5
2C5
330
1F
100
AcDbEntity
  8
0
  6
Continuous
 62
     7
370
    25
100
AcDbCircle
 10
274.8108534523
 20
220.9809999838
 30
0.0
 40
1.349999999999994
100
AcDbArc
 50
270.0
 51
90.0
  0
LINE
  5
2C6
330
1F
100
AcDbEntity
  8
0
  6
Continuous
 62
     7
370
    25
100
AcDbLine
 10
273.4608533316
 20
219.6309997484
 30
0.0
 11
274.8108538323
 21
219.6309997484
 31
0.0
  0
LINE
  5
2C7
330
1F
100
AcDbEntity
  8
0
  6
Continuous
 62
     7
370
    25
100
AcDbLine
 10
273.4608533316
 20
219.0809997514
 30
0.0
 11
273.4608533316
 21
219.6309997484
 31
0.0
  0
LINE
  5
2C8
330
1F
100
AcDbEntity
  8
0
  6
Continuous
 62
     7
370
    25
100
AcDbLine
 10
272.0108534665
 20
219.0809997514
 30
0.0
 11
273.4608533316
 21
219.0809997514
 31
0.0
  0
LINE
  5
2C9
330
1F
100
AcDbEntity
  8
0
  6
Continuous
 62
     7
370
    25
100
AcDbLine
 10
272.0108534665
 20
222.3309998184
 30
0.0
 11
272.0108534665
 21
219.0809997514
 31
0.0
  0
LINE
  5
2CA
330
1F
100
AcDbEntity
  8
0
  6
Continuous
 62
     7
370
    25
100
AcDbLine
 10
274.8108538323
 20
222.3309998184
 30
0.0
 11
272.0108534665
 21
222.3309998184
 31
0.0
  0
LINE
  5
2CB
330
1F
100
AcDbEntity
  8
0
  6
Continuous
 62
     7
370
    25
100
AcDbLine
 10
261.3108534821
 20
219.0809997514
 30
0.0
 11
261.3108534821
 21
219.9810000852
 31
0.0
  0
LINE
  5
2CC
330
1F
100
AcDbEntity
  8
0
  6
Continuous
 62
     7
370
    25
100
AcDbLine
 10
257.9108536699
 20
219.0809997514
 30
0.0
 11
261.3108534821
 21
219.0809997514
 31
0.0
  0
LINE
  5
2CD
330
1F
100
AcDbEntity
  8
0
  6
Continuous
 62
     7
370
    25
100
AcDbLine
 10
257.9108536699
 20
222.3309998184
 30
0.0
 11
257.9108536699
 21
219.0809997514
 31
0.0
  0
LINE
  5
2CE
330
1F
100
AcDbEntity
  8
0
  6
Continuous
 62
     7
370
    25
100
AcDbLine
 10
259.4108534501
 20
222.3309998184
 30
0.0
 11
257.9108536699
 21
222.3309998184
 31
0.0
  0
LINE
  5
2CF
330
1F
100
AcDbEntity
  8
0
  6
Continuous
 62
     7
370
    25
100
AcDbLine
 10
259.4108534501
 20
219.9810000852
 30
0.0
 11
259.4108534501
 21
222.3309998184
 31
0.0
  0
LINE
  5
2D0
330
1F
100
AcDbEntity
  8
0
  6
Continuous
 62
     7
370
    25
100
AcDbLine
 10
261.3108534821
 20
219.9810000852
 30
0.0
 11
259.4108534501
 21
219.9810000852
 31
0.0
  0
LINE
  5
2D1
330
1F
100
AcDbEntity
  8
0
  6
Continuous
 62
     7
370
    25
100
AcDbLine
 10
269.1608534184
 20
220.5487417772
 30
0.0
 11
268.3108534653
 21
222.3309998184
 31
0.0
  0
LINE
  5
2D2
330
1F
100
AcDbEntity
  8
0
  6
Continuous
 62
     7
370
    25
100
AcDbLine
 10
271.5108533845
 20
222.3309998184
 30
0.0
 11
270.0108533715
 21
222.3309998184
 31
0.0
  0
LINE
  5
2D3
330
1F
100
AcDbEntity
  8
0
  6
Continuous
 62
     7
370
    25
100
AcDbLine
 10
270.3108535603
 20
219.0809997514
 30
0.0
 11
271.5108533845
 21
219.0809997514
 31
0.0
  0
LINE
  5
2D4
330
1F
100
AcDbEntity
  8
0
  6
Continuous
 62
     7
370
    25
100
AcDbLine
 10
270.3108535603
 20
220.443902795
 30
0.0
 11
270.3108535603
 21
219.0809997514
 31
0.0
  0
LINE
  5
2D5
330
1F
100
AcDbEntity
  8
0
  6
Continuous
 62
     7
370
    25
100
AcDbLine
 10
269.6608535004
 20
219.0809997514
 30
0.0
 11
270.3108535603
 21
220.443902795
 31
0.0
  0
LINE
  5
2D6
330
1F
100
AcDbEntity
  8
0
  6
Continuous
 62
     7
370
    25
100
AcDbLine
 10
268.6608534529
 20
219.0809997514
 30
0.0
 11
269.6608535004
 21
219.0809997514
 31
0.0
  0
LINE
  5
2D7
330
1F
100
AcDbEntity
  8
0
  6
Continuous
 62
     7
370
    25
100
AcDbLine
 10
268.0108535093
 20
220.443902795
 30
0.0
 11
268.6608534529
 21
219.0809997514
 31
0.0
  0
LINE
  5
2D8
330
1F
100
AcDbEntity
  8
0
  6
Continuous
 62
     7
370
    25
100
AcDbLine
 10
268.0108535093
 20
219.0809997514
 30
0.0
 11
268.0108535093
 21
220.443902795
 31
0.0
  0
LINE
  5
2D9
330
1F
100
AcDbEntity
  8
0
  6
Continuous
 62
     7
370
    25
100
AcDbLine
 10
266.8108534523
 20
219.0809997514
 30
0.0
 11
268.0108535093
 21
219.0809997514
 31
0.0
  0
LINE
  5
2DA
330
1F
100
AcDbEntity
  8
0
  6
Continuous
 62
     7
370
    25
100
AcDbLine
 10
266.8108534523
 20
222.3309998184
 30
0.0
 11
266.8108534523
 21
219.0809997514
 31
0.0
  0
LINE
  5
2DB
330
1F
100
AcDbEntity
  8
0
  6
Continuous
 62
     7
370
    25
100
AcDbLine
 10
268.3108534653
 20
222.3309998184
 30
0.0
 11
266.8108534523
 21
222.3309998184
 31
0.0
  0
LINE
  5
2DC
330
1F
100
AcDbEntity
  8
0
  6
Continuous
 62
     7
370
    25
100
AcDbLine
 10
270.0108533715
 20
222.3309998184
 30
0.0
 11
269.1608534184
 21
220.5487417772
 31
0.0
  0
LINE
  5
2DD
330
1F
100
AcDbEntity
  8
0
  6
Continuous
 62
     7
370
    25
100
AcDbLine
 10
271.5108533845
 20
219.0809997514
 30
0.0
 11
271.5108533845
 21
222.3309998184
 31
0.0
  0
SPLINE
  5
2DE
330
1F
100
AcDbEntity
  8
0
  6
Continuous
 62
     7
370
    25
100
AcDbSpline
210
0.0
220
0.0
230
1.0
 70
     8
 71
     3
 72
    11
 73
     7
 74
     0
 42
0.000000001
 43
0.00000001
 40
0.0
 40
0.0
 40
0.0
 40
0.0
 40
0.2054740149635651
 40
0.4329656441720716
 40
0.6945893642928291
 40
1.0
 40
1.0
 40
1.0
 40
1.0
 10
262.580344977724
 20
216.9935423567304
 30
0.0
 10
262.563477528721
 20
216.9919734017618
 30
0.0
 10
262.5279351954267
 20
216.9886673701023
 30
0.0
 10
262.4750724806509
 20
216.9653794757375
 30
0.0
 10
262.4208308864849
 20
216.9289385380828
 30
0.0
 10
262.3870267925876
 20
216.8969002231931
 30
0.0
 10
262.3688195539951
 20
216.8796440516457
 30
0.0
  0
SPLINE
  5
2DF
330
1F
100
AcDbEntity
  8
0
  6
Continuous
 62
     7
370
    25
100
AcDbSpline
210
0.0
220
0.0
230
1.0
 70
     8
 71
     3
 72
    15
 73
    11
 74
     0
 42
0.000000001
 43
0.00000001
 40
0.0
 40
0.0
 40
0.0
 40
0.0
 40
0.0940351749123492
 40
0.193514880870785
 40
0.300851317867317
 40
0.417519952947663
 40
0.545328205820456
 40
0.6845871214291813
 40
0.8359697576379205
 40
0.9999999999999999
 40
0.9999999999999999
 40
0.9999999999999999
 40
0.9999999999999999
 10
262.3688195539951
 20
216.8796440516457
 30
0.0
 10
262.3541959921561
 20
216.8636043735262
 30
0.0
 10
262.3241021806666
 20
216.8305963379331
 30
0.0
 10
262.288417666242
 20
216.7707393855317
 30
0.0
 10
262.2576690769961
 20
216.702793366392
 30
0.0
 10
262.2323417125105
 20
216.6256362079342
 30
0.0
 10
262.2135930617596
 20
216.5391533612694
 30
0.0
 10
262.1999536189688
 20
216.4436904456195
 30
0.0
 10
262.1915238193545
 20
216.3392287687935
 30
0.0
 10
262.1904137788959
 20
216.26657837793
 30
0.0
 10
262.1898365031477
 20
216.2287965940185
 30
0.0
  0
SPLINE
  5
2E0
330
1F
100
AcDbEntity
  8
0
  6
Continuous
 62
     7
370
    25
100
AcDbSpline
210
0.0
220
0.0
230
1.0
 70
     8
 71
     3
 72
    15
 73
    11
 74
     0
 42
0.000000001
 43
0.00000001
 40
0.0
 40
0.0
 40
0.0
 40
0.0
 40
0.1718391421231142
 40
0.3294366739943357
 40
0.4723189781012547
 40
0.6011983346935893
 40
0.7173064689925365
 40
0.8216451710437263
 40
0.9151999359232298
 40
1.0
 40
1.0
 40
1.0
 40
1.0
 10
262.1898365031477
 20
216.2287965940185
 30
0.0
 10
262.1901900445464
 20
216.1886037046173
 30
0.0
 10
262.1908678266925
 20
216.1115490147546
 30
0.0
 10
262.1989528856645
 20
216.0013450358494
 30
0.0
 10
262.2108557199448
 20
215.9015552866517
 30
0.0
 10
262.2293158494608
 20
215.8127042191124
 30
0.0
 10
262.2505380401496
 20
215.7336385018153
 30
0.0
 10
262.2791661027572
 20
215.6658892564102
 30
0.0
 10
262.3115582630088
 20
215.6077915449316
 30
0.0
 10
262.3393395556189
 20
215.5765377755239
 30
0.0
 10
262.3525483675545
 20
215.5616779499508
 30
0.0
  0
SPLINE
  5
2E1
330
1F
100
AcDbEntity
  8
0
  6
Continuous
 62
     7
370
    25
100
AcDbSpline
210
0.0
220
0.0
230
1.0
 70
     8
 71
     3
 72
    11
 73
     7
 74
     0
 42
0.000000001
 43
0.00000001
 40
0.0
 40
0.0
 40
0.0
 40
0.0
 40
0.260628846908559
 40
0.5087524937761311
 40
0.7500612162689664
 40
1.0
 40
1.0
 40
1.0
 40
1.0
 10
262.3525483675545
 20
215.5616779499508
 30
0.0
 10
262.3688297522815
 20
215.5465964829989
 30
0.0
 10
262.4006113266553
 20
215.5171571710709
 30
0.0
 10
262.4574517803072
 20
215.4875582076775
 30
0.0
 10
262.5172684967505
 20
215.4670195009722
 30
0.0
 10
262.5590746720664
 20
215.4650519098419
 30
0.0
 10
262.580344977724
 20
215.4640508313067
 30
0.0
  0
SPLINE
  5
2E2
330
1F
100
AcDbEntity
  8
0
  6
Continuous
 62
     7
370
    25
100
AcDbSpline
210
0.0
220
0.0
230
1.0
 70
     8
 71
     3
 72
    11
 73
     7
 74
     0
 42
0.000000001
 43
0.00000001
 40
0.0
 40
0.0
 40
0.0
 40
0.0
 40
0.2450868805219033
 40
0.4875552456976455
 40
0.734628845531149
 40
1.0
 40
1.0
 40
1.0
 40
1.0
 10
262.580344977724
 20
215.4640508313067
 30
0.0
 10
262.6042078564072
 20
215.4654657417724
 30
0.0
 10
262.6516786620851
 20
215.4682804457595
 30
0.0
 10
262.7203583881863
 20
215.4903319179544
 30
0.0
 10
262.7847963561293
 20
215.5267025251812
 30
0.0
 10
262.8216165207829
 20
215.5604650862118
 30
0.0
 10
262.8406839607748
 20
215.5779491363915
 30
0.0
  0
SPLINE
  5
2E3
330
1F
100
AcDbEntity
  8
0
  6
Continuous
 62
     7
370
    25
100
AcDbSpline
210
0.0
220
0.0
230
1.0
 70
     8
 71
     3
 72
    15
 73
    11
 74
     0
 42
0.000000001
 43
0.00000001
 40
0.0
 40
0.0
 40
0.0
 40
0.0
 40
0.1091581140719651
 40
0.2199612592687723
 40
0.3343871882186749
 40
0.4530739717048399
 40
0.5783678808301443
 40
0.7100612391824451
 40
0.8506002251713246
 40
1.0
 40
1.0
 40
1.0
 40
1.0
 10
262.8406839607748
 20
215.5779491363915
 30
0.0
 10
262.8563882437338
 20
215.5948587690884
 30
0.0
 10
262.8880334758352
 20
215.6289328654889
 30
0.0
 10
262.9280391992652
 20
215.6875094247497
 30
0.0
 10
262.9606837868047
 20
215.7525134620896
 30
0.0
 10
262.9891141114918
 20
215.8228278813187
 30
0.0
 10
263.0093794282724
 20
215.8996874999303
 30
0.0
 10
263.0255049193056
 20
215.9821472353764
 30
0.0
 10
263.0342650250221
 20
216.0709175523968
 30
0.0
 10
263.0353692252658
 20
216.1321565764509
 30
0.0
 10
263.035938198063
 20
216.1637118482558
 30
0.0
  0
SPLINE
  5
2E4
330
1F
100
AcDbEntity
  8
0
  6
Continuous
 62
     7
370
    25
100
AcDbSpline
210
0.0
220
0.0
230
1.0
 70
     8
 71
     3
 72
    15
 73
    11
 74
     0
 42
0.000000001
 43
0.00000001
 40
0.0
 40
0.0
 40
0.0
 40
0.0
 40
0.1605992422123793
 40
0.3093816760469837
 40
0.4468233999376512
 40
0.5739415500992323
 40
0.6913524017547604
 40
0.7997718646288214
 40
0.9025461786017883
 40
0.9999999999999999
 40
0.9999999999999999
 40
0.9999999999999999
 40
0.9999999999999999
 10
263.035938198063
 20
216.1637118482558
 30
0.0
 10
263.0355354515989
 20
216.2055229101604
 30
0.0
 10
263.0347595925454
 20
216.2860685978682
 30
0.0
 10
263.0239650387874
 20
216.4019419914866
 30
0.0
 10
263.0085766658709
 20
216.5085102853043
 30
0.0
 10
262.9848162763966
 20
216.6051638537799
 30
0.0
 10
262.9558844458606
 20
216.6925089851749
 30
0.0
 10
262.9194176630814
 20
216.7700500905966
 30
0.0
 10
262.8764461186625
 20
216.8383605554675
 30
0.0
 10
262.8414472237847
 20
216.877073236974
 30
0.0
 10
262.8244127743342
 20
216.8959152380864
 30
0.0
  0
SPLINE
  5
2E5
330
1F
100
AcDbEntity
  8
0
  6
Continuous
 62
     7
370
    25
100
AcDbSpline
210
0.0
220
0.0
230
1.0
 70
     8
 71
     3
 72
    11
 73
     7
 74
     0
 42
0.000000001
 43
0.00000001
 40
0.0
 40
0.0
 40
0.0
 40
0.0
 40
0.249051762131899
 40
0.4918163964483658
 40
0.7399854914835391
 40
1.0
 40
1.0
 40
1.0
 40
1.0
 10
262.8244127743342
 20
216.8959152380864
 30
0.0
 10
262.8077019900642
 20
216.9109471938455
 30
0.0
 10
262.7747022729325
 20
216.9406316347416
 30
0.0
 10
262.7151093081312
 20
216.9717488069972
 30
0.0
 10
262.649556405259
 20
216.9902864562404
 30
0.0
 10
262.6037711942579
 20
216.9924403215231
 30
0.0
 10
262.580344977724
 20
216.9935423567304
 30
0.0
  0
SPLINE
  5
2E6
330
1F
100
AcDbEntity
  8
0
  6
Continuous
 62
     7
370
    25
100
AcDbSpline
210
0.0
220
0.0
230
1.0
 70
     8
 71
     3
 72
    23
 73
    19
 74
     0
 42
0.000000001
 43
0.00000001
 40
0.0
 40
0.0
 40
0.0
 40
0.0
 40
0.0466662231578939
 40
0.0944766660447025
 40
0.1435107880168859
 40
0.1945053508462751
 40
0.247280907777038
 40
0.3020359340741647
 40
0.3596916587901182
 40
0.4193422915869873
 40
0.4816746730274907
 40
0.5464938052960937
 40
0.6145654720869621
 40
0.6853012912402
 40
0.759554628028173
 40
0.836568606963304
 40
0.9164278130687088
 40
1.0
 40
1.0
 40
1.0
 40
1.0
 10
263.0684805709444
 20
217.0911694753745
 30
0.0
 10
263.0837612640455
 20
217.0748904740229
 30
0.0
 10
263.1146973210341
 20
217.0419333227865
 30
0.0
 10
263.1576778246818
 20
216.9882651505784
 30
0.0
 10
263.1966567174383
 20
216.9291942951013
 30
0.0
 10
263.2337473485235
 20
216.8661387926734
 30
0.0
 10
263.2664236627346
 20
216.7976374992802
 30
0.0
 10
263.2974570271094
 20
216.724952105728
 30
0.0
 10
263.3256861429666
 20
216.647585259121
 30
0.0
 10
263.3503548675683
 20
216.5652224086413
 30
0.0
 10
263.3716692155914
 20
216.4784294294216
 30
0.0
 10
263.3915079275342
 20
216.3871396004927
 30
0.0
 10
263.4064754534457
 20
216.2908557597061
 30
0.0
 10
263.4200775087111
 20
216.1898425531343
 30
0.0
 10
263.4301467421307
 20
216.0840937834275
 30
0.0
 10
263.4370681584892
 20
215.9737475331641
 30
0.0
 10
263.4424150862483
 20
215.8588293937158
 30
0.0
 10
263.4426154176996
 20
215.7806425712012
 30
0.0
 10
263.4427178590799
 20
215.7406610007982
 30
0.0
  0
SPLINE
  5
2E7
330
1F
100
AcDbEntity
  8
0
  6
Continuous
 62
     7
370
    25
100
AcDbSpline
210
0.0
220
0.0
230
1.0
 70
     8
 71
     3
 72
    23
 73
    19
 74
     0
 42
0.000000001
 43
0.00000001
 40
0.0
 40
0.0
 40
0.0
 40
0.0
 40
0.0792686122124381
 40
0.155846217421959
 40
0.229847257375904
 40
0.3012994901862797
 40
0.3702739427587357
 40
0.4366074724880089
 40
0.5006621135594794
 40
0.5625381411792666
 40
0.6225934030113104
 40
0.6807391779799897
 40
0.7372753148256908
 40
0.7918620806266597
 40
0.8452266050700091
 40
0.897590742623971
 40
0.9491892532490479
 40
1.0
 40
1.0
 40
1.0
 40
1.0
 10
263.4427178590799
 20
215.7406610007982
 30
0.0
 10
263.442308209583
 20
215.7000805857601
 30
0.0
 10
263.4415028173504
 20
215.6202973776454
 30
0.0
 10
263.4370144769003
 20
215.5026798091847
 30
0.0
 10
263.4276883974848
 20
215.3893640328393
 30
0.0
 10
263.4156515250658
 20
215.280244164097
 30
0.0
 10
263.4011113781377
 20
215.1753569947959
 30
0.0
 10
263.3814497457107
 20
215.0751602299341
 30
0.0
 10
263.3591911393131
 20
214.9792722500484
 30
0.0
 10
263.3342904499881
 20
214.8873150276048
 30
0.0
 10
263.3043962232195
 20
214.8000585765564
 30
0.0
 10
263.2721218726982
 20
214.7165887429913
 30
0.0
 10
263.2359305453124
 20
214.637792694618
 30
0.0
 10
263.1967271013165
 20
214.563213894473
 30
0.0
 10
263.1538778747549
 20
214.4931372919368
 30
0.0
 10
263.1073834497884
 20
214.4273071053535
 30
0.0
 10
263.0574742904425
 20
214.3656512209486
 30
0.0
 10
263.021329300766
 20
214.3276506990489
 30
0.0
 10
263.0033958251816
 20
214.3087965940186
 30
0.0
  0
SPLINE
  5
2E8
330
1F
100
AcDbEntity
  8
0
  6
Continuous
 62
     7
370
    25
100
AcDbSpline
210
0.0
220
0.0
230
1.0
 70
     8
 71
     3
 72
    15
 73
    11
 74
     0
 42
0.000000001
 43
0.00000001
 40
0.0
 40
0.0
 40
0.0
 40
0.0
 40
0.1257750230479195
 40
0.2486349745260648
 40
0.3702755055116851
 40
0.4907205231514336
 40
0.6136413818223538
 40
0.738545531311489
 40
0.8669706000713892
 40
1.0
 40
1.0
 40
1.0
 40
1.0
 10
263.0033958251816
 20
214.3087965940186
 30
0.0
 10
262.9867660188613
 20
214.2934518433001
 30
0.0
 10
262.9538918331077
 20
214.2631179851815
 30
0.0
 10
262.9006742085357
 20
214.2228120152837
 30
0.0
 10
262.843750063854
 20
214.1898580860184
 30
0.0
 10
262.7840151130086
 20
214.1624507344764
 30
0.0
 10
262.7213726569336
 20
214.1405102050858
 30
0.0
 10
262.6552246850704
 20
214.1257336506276
 30
0.0
 10
262.5862383647736
 20
214.1163847836685
 30
0.0
 10
262.5391957567501
 20
214.1152997172592
 30
0.0
 10
262.5152602319612
 20
214.1147476298001
 30
0.0
  0
SPLINE
  5
2E9
330
1F
100
AcDbEntity
  8
0
  6
Continuous
 62
     7
370
    25
100
AcDbSpline
210
0.0
220
0.0
230
1.0
 70
     8
 71
     3
 72
    15
 73
    11
 74
     0
 42
0.000000001
 43
0.00000001
 40
0.0
 40
0.0
 40
0.0
 40
0.0
 40
0.1395784835961046
 40
0.2715040225143384
 40
0.3997065813094903
 40
0.5222340739774203
 40
0.6433934113879158
 40
0.7620369415032286
 40
0.8812561512110855
 40
1.0
 40
1.0
 40
1.0
 40
1.0
 10
262.5152602319612
 20
214.1147476298001
 30
0.0
 10
262.4953552887661
 20
214.1152361079898
 30
0.0
 10
262.4566367699358
 20
214.1161862816125
 30
0.0
 10
262.3999353544114
 20
214.1228497010698
 30
0.0
 10
262.3464923109165
 20
214.1342355486984
 30
0.0
 10
262.2957990548828
 20
214.1500260325698
 30
0.0
 10
262.2481024714299
 20
214.1702432459058
 30
0.0
 10
262.2038967267685
 20
214.1962102311737
 30
0.0
 10
262.161990051482
 20
214.2252421054069
 30
0.0
 10
262.1371479803711
 20
214.2484181572857
 30
0.0
 10
262.124751757385
 20
214.2599830346965
 30
0.0
  0
SPLINE
  5
2EA
330
1F
100
AcDbEntity
  8
0
  6
Continuous
 62
     7
370
    25
100
AcDbSpline
210
0.0
220
0.0
230
1.0
 70
     8
 71
     3
 72
    15
 73
    11
 74
     0
 42
0.000000001
 43
0.00000001
 40
0.0
 40
0.0
 40
0.0
 40
0.0
 40
0.1363189266137382
 40
0.2670282430700048
 40
0.3930479668470424
 40
0.5166328088124053
 40
0.6376314981334205
 40
0.7580932716101602
 40
0.8785653270506548
 40
1.0
 40
1.0
 40
1.0
 40
1.0
 10
262.124751757385
 20
214.2599830346965
 30
0.0
 10
262.1038804991343
 20
214.281740371365
 30
0.0
 10
262.0629968481274
 20
214.3243597165196
 30
0.0
 10
262.0092848489058
 20
214.3928422399831
 30
0.0
 10
261.963051794957
 20
214.4631730298116
 30
0.0
 10
261.9243599848987
 20
214.5355146574436
 30
0.0
 10
261.8931995525222
 20
214.6101252866695
 30
0.0
 10
261.8706071963099
 20
214.6869796513746
 30
0.0
 10
261.8542242598471
 20
214.7655803712614
 30
0.0
 10
261.8501745169145
 20
214.8189531594914
 30
0.0
 10
261.8481415878935
 20
214.8457457465609
 30
0.0
  0
LINE
  5
2EB
330
1F
100
AcDbEntity
  8
0
  6
Continuous
 62
     7
370
    25
100
AcDbLine
 10
261.8481413916
 20
214.8457456164
 30
0.0
 11
262.2223789327
 21
214.8457456164
 31
0.0
  0
SPLINE
  5
2EC
330
1F
100
AcDbEntity
  8
0
  6
Continuous
 62
     7
370
    25
100
AcDbSpline
210
0.0
220
0.0
230
1.0
 70
     8
 71
     3
 72
    15
 73
    11
 74
     0
 42
0.000000001
 43
0.00000001
 40
0.0
 40
0.0
 40
0.0
 40
0.0
 40
0.13055212196234
 40
0.257514555698003
 40
0.3807268344757828
 40
0.5030306145961514
 40
0.6251462349433737
 40
0.7476378858044688
 40
0.872288145966386
 40
1.0
 40
1.0
 40
1.0
 40
1.0
 10
262.222378876029
 20
214.8457457465609
 30
0.0
 10
262.2228855648111
 20
214.8284507878416
 30
0.0
 10
262.2238850103551
 20
214.7943364161756
 30
0.0
 10
262.2304850340241
 20
214.7442338449068
 30
0.0
 10
262.2419620718881
 20
214.6961407310308
 30
0.0
 10
262.2585125671952
 20
214.6502695190404
 30
0.0
 10
262.2787397619855
 20
214.6059598963634
 30
0.0
 10
262.3046100746214
 20
214.5643574471838
 30
0.0
 10
262.3338438308977
 20
214.5240785379265
 30
0.0
 10
262.357067066805
 20
214.4999767415357
 30
0.0
 10
262.3688195539951
 20
214.487779644866
 30
0.0
  0
SPLINE
  5
2ED
330
1F
100
AcDbEntity
  8
0
  6
Continuous
 62
     7
370
    25
100
AcDbSpline
210
0.0
220
0.0
230
1.0
 70
     8
 71
     3
 72
    11
 73
     7
 74
     0
 42
0.000000001
 43
0.00000001
 40
0.0
 40
0.0
 40
0.0
 40
0.0
 40
0.2327496483781403
 40
0.4700966146394871
 40
0.7245377686902738
 40
1.0
 40
1.0
 40
1.0
 40
1.0
 10
262.3688195539951
 20
214.487779644866
 30
0.0
 10
262.3802795029468
 20
214.4777771526167
 30
0.0
 10
262.4034257600674
 20
214.4575745968786
 30
0.0
 10
262.4464921296657
 20
214.4370225375447
 30
0.0
 10
262.4953189203171
 20
214.4250290570804
 30
0.0
 10
262.5298514128033
 20
214.4234932599363
 30
0.0
 10
262.5478026048426
 20
214.4226948991033
 30
0.0
  0
SPLINE
  5
2EE
330
1F
100
AcDbEntity
  8
0
  6
Continuous
 62
     7
370
    25
100
AcDbSpline
210
0.0
220
0.0
230
1.0
 70
     8
 71
     3
 72
    11
 73
     7
 74
     0
 42
0.000000001
 43
0.00000001
 40
0.0
 40
0.0
 40
0.0
 40
0.0
 40
0.235914124951447
 40
0.4736146387378286
 40
0.7245169022655851
 40
0.9999999999999999
 40
0.9999999999999999
 40
0.9999999999999999
 40
0.9999999999999999
 10
262.5478026048426
 20
214.4226948991033
 30
0.0
 10
262.5666629493643
 20
214.4237721355476
 30
0.0
 10
262.6045264527003
 20
214.4259347654854
 30
0.0
 10
262.6591448629879
 20
214.4464734214714
 30
0.0
 10
262.7123378061239
 20
214.4767487837514
 30
0.0
 10
262.7431844679938
 20
214.5053523686175
 30
0.0
 10
262.7593280285714
 20
214.5203220177474
 30
0.0
  0
SPLINE
  5
2EF
330
1F
100
AcDbEntity
  8
0
  6
Continuous
 62
     7
370
    25
100
AcDbSpline
210
0.0
220
0.0
230
1.0
 70
     8
 71
     3
 72
    23
 73
    19
 74
     0
 42
0.000000001
 43
0.00000001
 40
0.0
 40
0.0
 40
0.0
 40
0.0
 40
0.0403568114470976
 40
0.0833165907103264
 40
0.1281431530812309
 40
0.1759907424560227
 40
0.2264858790498898
 40
0.2800454891040394
 40
0.3367903050476213
 40
0.3966506650103429
 40
0.4599022962486319
 40
0.5259470781302366
 40
0.5960680765378331
 40
0.6697775991725274
 40
0.7465725596086796
 40
0.8275097821213648
 40
0.9116096826319935
 40
1.0
 40
1.0
 40
1.0
 40
1.0
 10
262.7593280285714
 20
214.5203220177474
 30
0.0
 10
262.7693086485142
 20
214.5310451927797
 30
0.0
 10
262.7899136268807
 20
214.5531831752725
 30
0.0
 10
262.8188994596212
 20
214.5896761192682
 30
0.0
 10
262.8451059708782
 20
214.6314037945241
 30
0.0
 10
262.8712993825984
 20
214.6763089297405
 30
0.0
 10
262.8951634027878
 20
214.7260654853878
 30
0.0
 10
262.9180407666522
 20
214.7797649481722
 30
0.0
 10
262.9398374350216
 20
214.8375855422117
 30
0.0
 10
262.9594584727136
 20
214.8998671678989
 30
0.0
 10
262.9782237414053
 20
214.9659212388145
 30
0.0
 10
262.9950153063115
 20
215.0363440817586
 30
0.0
 10
263.0106184454918
 20
215.1109122753655
 30
0.0
 10
263.0249115314632
 20
215.1897082930971
 30
0.0
 10
263.0384721692523
 20
215.2726211975291
 30
0.0
 10
263.0495152491091
 20
215.3597084440541
 30
0.0
 10
263.0599728923994
 20
215.4510985294349
 30
0.0
 10
263.0655980392677
 20
215.5134536906891
 30
0.0
 10
263.0684805709444
 20
215.5454067635101
 30
0.0
  0
SPLINE
  5
2F0
330
1F
100
AcDbEntity
  8
0
  6
Continuous
 62
     7
370
    25
100
AcDbSpline
210
0.0
220
0.0
230
1.0
 70
     8
 71
     3
 72
    15
 73
    11
 74
     0
 42
0.000000001
 43
0.00000001
 40
0.0
 40
0.0
 40
0.0
 40
0.0
 40
0.1410911204519717
 40
0.2726960264207971
 40
0.3959711985810259
 40
0.5156999141338384
 40
0.6329287987517346
 40
0.7507109718605383
 40
0.8722273406795431
 40
1.0
 40
1.0
 40
1.0
 40
1.0
 10
263.0684805709444
 20
215.5454067635101
 30
0.0
 10
263.0533804522943
 20
215.515627470124
 30
0.0
 10
263.0241954664414
 20
215.4580710842227
 30
0.0
 10
262.9692982064108
 20
215.3818344891956
 30
0.0
 10
262.909047274201
 20
215.3166506477681
 30
0.0
 10
262.8424514185552
 20
215.2630500395629
 30
0.0
 10
262.7692168487357
 20
215.2214084488328
 30
0.0
 10
262.6897388454956
 20
215.1925157949767
 30
0.0
 10
262.6044503219331
 20
215.1745072502496
 30
0.0
 10
262.5454835491524
 20
215.1723005273646
 30
0.0
 10
262.5152602319612
 20
215.1711694753745
 30
0.0
  0
SPLINE
  5
2F1
330
1F
100
AcDbEntity
  8
0
  6
Continuous
 62
     7
370
    25
100
AcDbSpline
210
0.0
220
0.0
230
1.0
 70
     8
 71
     3
 72
    15
 73
    11
 74
     0
 42
0.000000001
 43
0.00000001
 40
0.0
 40
0.0
 40
0.0
 40
0.0
 40
0.1221692123763242
 40
0.2419322780132624
 40
0.3621110703827103
 40
0.4833567144275519
 40
0.6066842421344807
 40
0.7322726537301412
 40
0.8635810853834733
 40
1.0
 40
1.0
 40
1.0
 40
1.0
 10
262.5152602319612
 20
215.1711694753745
 30
0.0
 10
262.4951424059442
 20
215.1717506654464
 30
0.0
 10
262.4553029784623
 20
215.1729015989371
 30
0.0
 10
262.3962007296451
 20
215.1820764319868
 30
0.0
 10
262.3388942132504
 20
215.1982144700167
 30
0.0
 10
262.2824054782927
 20
215.2189257851684
 30
0.0
 10
262.22826450911
 20
215.2471832390094
 30
0.0
 10
262.1752197035942
 20
215.2805252932276
 30
0.0
 10
262.1239411314712
 20
215.3203044476524
 30
0.0
 10
262.0921415103479
 20
215.350856229589
 30
0.0
 10
262.0759381980629
 20
215.3664237126626
 30
0.0
  0
SPLINE
  5
2F2
330
1F
100
AcDbEntity
  8
0
  6
Continuous
 62
     7
370
    25
100
AcDbSpline
210
0.0
220
0.0
230
1.0
 70
     8
 71
     3
 72
    15
 73
    11
 74
     0
 42
0.000000001
 43
0.00000001
 40
0.0
 40
0.0
 40
0.0
 40
0.0
 40
0.1008873473416081
 40
0.2055267351018239
 40
0.3164607712181866
 40
0.4343508514898562
 40
0.5602061893403875
 40
0.6964861582240498
 40
0.8426275196609185
 40
1.0
 40
1.0
 40
1.0
 40
1.0
 10
262.0759381980629
 20
215.3664237126626
 30
0.0
 10
262.0549945622511
 20
215.3894002013604
 30
0.0
 10
262.0123283885136
 20
215.4362076834736
 30
0.0
 10
261.9591872521675
 20
215.5183699155383
 30
0.0
 10
261.9149797238201
 20
215.6111824885671
 30
0.0
 10
261.8781348316309
 20
215.7141369906729
 30
0.0
 10
261.8501317993253
 20
215.8278625896002
 30
0.0
 10
261.8299123907755
 20
215.9519830013415
 30
0.0
 10
261.8179607567155
 20
216.0869436508653
 30
0.0
 10
261.8164055780076
 20
216.1803600307355
 30
0.0
 10
261.8155992150121
 20
216.2287965940185
 30
0.0
  0
SPLINE
  5
2F3
330
1F
100
AcDbEntity
  8
0
  6
Continuous
 62
     7
370
    25
100
AcDbSpline
210
0.0
220
0.0
230
1.0
 70
     8
 71
     3
 72
    15
 73
    11
 74
     0
 42
0.000000001
 43
0.00000001
 40
0.0
 40
0.0
 40
0.0
 40
0.0
 40
0.1462956457013741
 40
0.2840757061536056
 40
0.4149685491694958
 40
0.5394313714632398
 40
0.658862672832653
 40
0.7741349452967836
 40
0.887624108704649
 40
1.0
 40
1.0
 40
1.0
 40
1.0
 10
261.8155992150121
 20
216.2287965940185
 30
0.0
 10
261.8165754898317
 20
216.2736251194042
 30
0.0
 10
261.8184712124109
 20
216.3606727888251
 30
0.0
 10
261.8316628545307
 20
216.4872914615443
 30
0.0
 10
261.8541564034767
 20
216.6058162934258
 30
0.0
 10
261.8870747894302
 20
216.7160022023493
 30
0.0
 10
261.9276923600082
 20
216.8184897502588
 30
0.0
 10
261.9781692562913
 20
216.9126966943077
 30
0.0
 10
262.0375560394456
 20
216.9991645265777
 30
0.0
 10
262.0849168731243
 20
217.0497367904618
 30
0.0
 10
262.1084805709443
 20
217.0748982889338
 30
0.0
  0
SPLINE
  5
2F4
330
1F
100
AcDbEntity
  8
0
  6
Continuous
 62
     7
370
    25
100
AcDbSpline
210
0.0
220
0.0
230
1.0
 70
     8
 71
     3
 72
    15
 73
    11
 74
     0
 42
0.000000001
 43
0.00000001
 40
0.0
 40
0.0
 40
0.0
 40
0.0
 40
0.1334051687424255
 40
0.2630592395243372
 40
0.3878562603360221
 40
0.5106161027484907
 40
0.6320271957722193
 40
0.7526097058404669
 40
0.8753101387435296
 40
1.0
 40
1.0
 40
1.0
 40
1.0
 10
262.1084805709443
 20
217.0748982889338
 30
0.0
 10
262.1260761959774
 20
217.091690218282
 30
0.0
 10
262.160772690752
 20
217.1248019200709
 30
0.0
 10
262.2167896995433
 20
217.1681207239637
 30
0.0
 10
262.2750903644869
 20
217.2047756100364
 30
0.0
 10
262.3356846069907
 20
217.2341133097374
 30
0.0
 10
262.3977797292172
 20
217.2582174443401
 30
0.0
 10
262.4624269618546
 20
217.2740693737495
 30
0.0
 10
262.5287432397344
 20
217.2850668784251
 30
0.0
 10
262.5738708889677
 20
217.285969016355
 30
0.0
 10
262.5966161641647
 20
217.2864237126626
 30
0.0
  0
SPLINE
  5
2F5
330
1F
100
AcDbEntity
  8
0
  6
Continuous
 62
     7
370
    25
100
AcDbSpline
210
0.0
220
0.0
230
1.0
 70
     8
 71
     3
 72
    15
 73
    11
 74
     0
 42
0.000000001
 43
0.00000001
 40
0.0
 40
0.0
 40
0.0
 40
0.0
 40
0.1299113129690331
 40
0.2551436434037568
 40
0.378267329084351
 40
0.4999523087047303
 40
0.6222158812656396
 40
0.745323495106416
 40
0.8707452845457353
 40
1.0
 40
1.0
 40
1.0
 40
1.0
 10
262.5966161641647
 20
217.2864237126626
 30
0.0
 10
262.619342043963
 20
217.2858513543544
 30
0.0
 10
262.6639752913591
 20
217.2847272522207
 30
0.0
 10
262.7296911981081
 20
217.2756487760072
 30
0.0
 10
262.7924620405419
 20
217.2595765213943
 30
0.0
 10
262.8533477877455
 20
217.2388221852555
 30
0.0
 10
262.9111157819987
 20
217.2105414886449
 30
0.0
 10
262.9670790341598
 20
217.1776049898396
 30
0.0
 10
263.0197769602728
 20
217.1374391965333
 30
0.0
 10
263.052083958725
 20
217.1067466916194
 30
0.0
 10
263.0684805709444
 20
217.0911694753745
 30
0.0
  0
SPLINE
  5
2F6
330
1F
100
AcDbEntity
  8
0
  6
Continuous
 62
     7
370
    25
100
AcDbSpline
210
0.0
220
0.0
230
1.0
 70
     8
 71
     3
 72
    15
 73
    11
 74
     0
 42
0.000000001
 43
0.00000001
 40
0.0
 40
0.0
 40
0.0
 40
0.0
 40
0.1495888260512936
 40
0.2896239650819634
 40
0.4219290861937194
 40
0.5465682968532914
 40
0.6661289243466398
 40
0.7799971355270183
 40
0.8908038749321935
 40
1.0
 40
1.0
 40
1.0
 40
1.0
 10
264.2400059946731
 20
215.0084576109677
 30
0.0
 10
264.2403669762336
 20
214.9821168095498
 30
0.0
 10
264.2410658847928
 20
214.9311174966233
 30
0.0
 10
264.2493341561736
 20
214.8572414355014
 30
0.0
 10
264.2613321136691
 20
214.7882994344324
 30
0.0
 10
264.2801300464623
 20
214.7246920606431
 30
0.0
 10
264.3013940507964
 20
214.6652074786961
 30
0.0
 10
264.3305536908133
 20
214.6119161942269
 30
0.0
 10
264.3634273339696
 20
214.5630094403004
 30
0.0
 10
264.3896850940039
 20
214.5344815421688
 30
0.0
 10
264.4027178590799
 20
214.5203220177474
 30
0.0
  0
SPLINE
  5
2F7
330
1F
100
AcDbEntity
  8
0
  6
Continuous
 62
     7
370
    25
100
AcDbSpline
210
0.0
220
0.0
230
1.0
 70
     8
 71
     3
 72
    11
 73
     7
 74
     0
 42
0.000000001
 43
0.00000001
 40
0.0
 40
0.0
 40
0.0
 40
0.0
 40
0.2280848709855229
 40
0.4646942783559985
 40
0.7188140712369765
 40
1.0
 40
1.0
 40
1.0
 40
1.0
 10
264.4027178590799
 20
214.5203220177474
 30
0.0
 10
264.4199380625861
 20
214.5050695568878
 30
0.0
 10
264.4550220644617
 20
214.4739945835163
 30
0.0
 10
264.5219668584845
 20
214.4449972112814
 30
0.0
 10
264.5972303408718
 20
214.4253563068682
 30
0.0
 10
264.6510549720697
 20
214.4236114429698
 30
0.0
 10
264.6793280285715
 20
214.4226948991033
 30
0.0
  0
SPLINE
  5
2F8
330
1F
100
AcDbEntity
  8
0
  6
Continuous
 62
     7
370
    25
100
AcDbSpline
210
0.0
220
0.0
230
1.0
 70
     8
 71
     3
 72
    11
 73
     7
 74
     0
 42
0.000000001
 43
0.00000001
 40
0.0
 40
0.0
 40
0.0
 40
0.0
 40
0.2322932923175296
 40
0.4682186081034733
 40
0.7217939329173704
 40
1.0
 40
1.0
 40
1.0
 40
1.0
 10
264.6793280285715
 20
214.4226948991033
 30
0.0
 10
264.7036334229058
 20
214.4244154425077
 30
0.0
 10
264.7526242387451
 20
214.4278834308856
 30
0.0
 10
264.8243906449184
 20
214.453742970767
 30
0.0
 10
264.8933933724891
 20
214.4956054278236
 30
0.0
 10
264.9344559519536
 20
214.5331976776807
 30
0.0
 10
264.9559381980629
 20
214.5528643906287
 30
0.0
  0
SPLINE
  5
2F9
330
1F
100
AcDbEntity
  8
0
  6
Continuous
 62
     7
370
    25
100
AcDbSpline
210
0.0
220
0.0
230
1.0
 70
     8
 71
     3
 72
    15
 73
    11
 74
     0
 42
0.000000001
 43
0.00000001
 40
0.0
 40
0.0
 40
0.0
 40
0.0
 40
0.1006221087550949
 40
0.2050318476927438
 40
0.3153461319467938
 40
0.4330500536496943
 40
0.5596111735489316
 40
0.6956185103669246
 40
0.8424420633639879
 40
0.9999999999999999
 40
0.9999999999999999
 40
0.9999999999999999
 40
0.9999999999999999
 10
264.9559381980629
 20
214.5528643906287
 30
0.0
 10
264.9717042021545
 20
214.570139506713
 30
0.0
 10
265.0038296762634
 20
214.6053400109928
 30
0.0
 10
265.0436760268266
 20
214.6671852658096
 30
0.0
 10
265.0764002054778
 20
214.7371959823489
 30
0.0
 10
265.1045603013185
 20
214.814703501673
 30
0.0
 10
265.1248514567976
 20
214.9007502644596
 30
0.0
 10
265.140815946223
 20
214.9944931216952
 30
0.0
 10
265.1495423381367
 20
215.0964783884748
 30
0.0
 10
265.1506296214894
 20
215.1671367440308
 30
0.0
 10
265.1511924353511
 20
215.2037118482558
 30
0.0
  0
SPLINE
  5
2FA
330
1F
100
AcDbEntity
  8
0
  6
Continuous
 62
     7
370
    25
100
AcDbSpline
210
0.0
220
0.0
230
1.0
 70
     8
 71
     3
 72
    15
 73
    11
 74
     0
 42
0.000000001
 43
0.00000001
 40
0.0
 40
0.0
 40
0.0
 40
0.0
 40
0.1636699525063371
 40
0.3142663133013117
 40
0.4532445983829433
 40
0.5803137862596196
 40
0.6975767572334045
 40
0.805433308550916
 40
0.9059060673740418
 40
1.0
 40
1.0
 40
1.0
 40
1.0
 10
265.1511924353511
 20
215.2037118482558
 30
0.0
 10
265.1508320482031
 20
215.2376785893031
 30
0.0
 10
265.150140060831
 20
215.3028988836841
 30
0.0
 10
265.14207329535
 20
215.3966710249789
 30
0.0
 10
265.1297695406757
 20
215.4822930060277
 30
0.0
 10
265.1125071651972
 20
215.5600094142725
 30
0.0
 10
265.0899859544209
 20
215.6297121800357
 30
0.0
 10
265.0613358392621
 20
215.6909918879527
 30
0.0
 10
265.0287971138283
 20
215.7450180385206
 30
0.0
 10
265.001622446744
 20
215.7749831865164
 30
0.0
 10
264.9884805709443
 20
215.7894745601203
 30
0.0
  0
SPLINE
  5
2FB
330
1F
100
AcDbEntity
  8
0
  6
Continuous
 62
     7
370
    25
100
AcDbSpline
210
0.0
220
0.0
230
1.0
 70
     8
 71
     3
 72
    11
 73
     7
 74
     0
 42
0.000000001
 43
0.00000001
 40
0.0
 40
0.0
 40
0.0
 40
0.0
 40
0.2604661921347747
 40
0.5075059661686578
 40
0.7502171995256539
 40
1.0
 40
1.0
 40
1.0
 40
1.0
 10
264.9884805709443
 20
215.7894745601203
 30
0.0
 10
264.9721447428451
 20
215.8044469582692
 30
0.0
 10
264.9403151600699
 20
215.8336199627431
 30
0.0
 10
264.8842054544369
 20
215.8647909787874
 30
0.0
 10
264.8237758474278
 20
215.8837993704562
 30
0.0
 10
264.7819149455059
 20
215.8859904224525
 30
0.0
 10
264.7606839607748
 20
215.8871016787643
 30
0.0
  0
SPLINE
  5
2FC
330
1F
100
AcDbEntity
  8
0
  6
Continuous
 62
     7
370
    25
100
AcDbSpline
210
0.0
220
0.0
230
1.0
 70
     8
 71
     3
 72
    15
 73
    11
 74
     0
 42
0.000000001
 43
0.00000001
 40
0.0
 40
0.0
 40
0.0
 40
0.0
 40
0.1169596890846509
 40
0.2296447754751071
 40
0.3434072384202496
 40
0.4595551983766257
 40
0.580646610395353
 40
0.7103883532808197
 40
0.8493835963365107
 40
0.9999999999999999
 40
0.9999999999999999
 40
0.9999999999999999
 40
0.9999999999999999
 10
264.7606839607748
 20
215.8871016787643
 30
0.0
 10
264.7366953503958
 20
215.8860481075216
 30
0.0
 10
264.6895948571611
 20
215.8839794705974
 30
0.0
 10
264.6206147517272
 20
215.8678399524799
 30
0.0
 10
264.5557308299626
 20
215.8402451869071
 30
0.0
 10
264.494306793498
 20
215.8023296906458
 30
0.0
 10
264.4362473968233
 20
215.7540634337585
 30
0.0
 10
264.3829764311826
 20
215.6942422122923
 30
0.0
 10
264.3323688205751
 20
215.6245236338391
 30
0.0
 10
264.3037191813787
 20
215.5724752305642
 30
0.0
 10
264.2888195539952
 20
215.5454067635101
 30
0.0
  0
LINE
  5
2FD
330
1F
100
AcDbEntity
  8
0
  6
Continuous
 62
     7
370
    25
100
AcDbLine
 10
264.2888195802
 20
215.5454068229
 30
0.0
 11
263.942303554
 21
215.5454068229
 31
0.0
  0
LINE
  5
2FE
330
1F
100
AcDbEntity
  8
0
  6
Continuous
 62
     7
370
    25
100
AcDbLine
 10
263.942303554
 20
215.5454068229
 30
0.0
 11
264.0399306071
 21
217.2864240378
 31
0.0
  0
LINE
  5
2FF
330
1F
100
AcDbEntity
  8
0
  6
Continuous
 62
     7
370
    25
100
AcDbLine
 10
264.0399306071
 20
217.2864240378
 30
0.0
 11
265.4603450316
 21
217.2864240378
 31
0.0
  0
LINE
  5
300
330
1F
100
AcDbEntity
  8
0
  6
Continuous
 62
     7
370
    25
100
AcDbLine
 10
265.4603450316
 20
217.2864240378
 30
0.0
 11
265.4603450316
 21
216.9784766406
 31
0.0
  0
LINE
  5
301
330
1F
100
AcDbEntity
  8
0
  6
Continuous
 62
     7
370
    25
100
AcDbLine
 10
265.4603450316
 20
216.9784766406
 30
0.0
 11
264.3701754966
 21
216.9784766406
 31
0.0
  0
LINE
  5
302
330
1F
100
AcDbEntity
  8
0
  6
Continuous
 62
     7
370
    25
100
AcDbLine
 10
264.3701754966
 20
216.9784766406
 30
0.0
 11
264.3050907169
 21
215.9196438983
 31
0.0
  0
SPLINE
  5
303
330
1F
100
AcDbEntity
  8
0
  6
Continuous
 62
     7
370
    25
100
AcDbSpline
210
0.0
220
0.0
230
1.0
 70
     8
 71
     3
 72
    15
 73
    11
 74
     0
 42
0.000000001
 43
0.00000001
 40
0.0
 40
0.0
 40
0.0
 40
0.0
 40
0.1300766676178293
 40
0.2549142102556796
 40
0.3780524527206243
 40
0.498801457961181
 40
0.6205503384777546
 40
0.7433506761359786
 40
0.8693458609850213
 40
1.0
 40
1.0
 40
1.0
 40
1.0
 10
264.3050907404358
 20
215.9196440516457
 30
0.0
 10
264.3229809439602
 20
215.9391195963112
 30
0.0
 10
264.3580407835628
 20
215.9772862650815
 30
0.0
 10
264.416696609863
 20
216.0271905569776
 30
0.0
 10
264.4787368249919
 20
216.0693854252488
 30
0.0
 10
264.5444711403051
 20
216.1043839247489
 30
0.0
 10
264.6140859370271
 20
216.1305850770708
 30
0.0
 10
264.6868873615763
 20
216.1501438494257
 30
0.0
 10
264.7633165285149
 20
216.1618509490206
 30
0.0
 10
264.8154831115649
 20
216.1630840867957
 30
0.0
 10
264.8420398929782
 20
216.1637118482558
 30
0.0
  0
SPLINE
  5
304
330
1F
100
AcDbEntity
  8
0
  6
Continuous
 62
     7
370
    25
100
AcDbSpline
210
0.0
220
0.0
230
1.0
 70
     8
 71
     3
 72
    15
 73
    11
 74
     0
 42
0.000000001
 43
0.00000001
 40
0.0
 40
0.0
 40
0.0
 40
0.0
 40
0.1278454879460638
 40
0.251720632325134
 40
0.3740462003487443
 40
0.4948090595423464
 40
0.6170146155337709
 40
0.7414019956378137
 40
0.868068804759629
 40
1.0
 40
1.0
 40
1.0
 40
1.0
 10
264.8420398929782
 20
216.1637118482558
 30
0.0
 10
264.862158840699
 20
216.1631127643102
 30
0.0
 10
264.9017719261772
 20
216.1619332014486
 30
0.0
 10
264.9600984584549
 20
216.1531758405932
 30
0.0
 10
265.0162405541274
 20
216.1394160583951
 30
0.0
 10
265.0704787604652
 20
216.1200435821713
 30
0.0
 10
265.1224033340682
 20
216.0944210147968
 30
0.0
 10
265.1725017672555
 20
216.0636583079967
 30
0.0
 10
265.2207129449388
 20
216.0272802546131
 30
0.0
 10
265.2500987357201
 20
215.9991038162647
 30
0.0
 10
265.2650907404359
 20
215.9847287974084
 30
0.0
  0
SPLINE
  5
305
330
1F
100
AcDbEntity
  8
0
  6
Continuous
 62
     7
370
    25
100
AcDbSpline
210
0.0
220
0.0
230
1.0
 70
     8
 71
     3
 72
    15
 73
    11
 74
     0
 42
0.000000001
 43
0.00000001
 40
0.0
 40
0.0
 40
0.0
 40
0.0
 40
0.1091864850232877
 40
0.2199968736090588
 40
0.33422651836402
 40
0.4530548519432288
 40
0.5781912251759616
 40
0.7102721868615411
 40
0.8508203601215755
 40
1.0
 40
1.0
 40
1.0
 40
1.0
 10
265.2650907404359
 20
215.9847287974084
 30
0.0
 10
265.2859598465003
 20
215.9621069455752
 30
0.0
 10
265.3280084396775
 20
215.9165267927066
 30
0.0
 10
265.3811520010631
 20
215.8384130228258
 30
0.0
 10
265.4256236735819
 20
215.7522223692785
 30
0.0
 10
265.4627047519575
 20
215.6582100966246
 30
0.0
 10
265.4905446957226
 20
215.5558698952808
 30
0.0
 10
265.5110958734485
 20
215.4456562139719
 30
0.0
 10
265.5230023987198
 20
215.3273126921943
 30
0.0
 10
265.5246047034692
 20
215.2457223661012
 30
0.0
 10
265.5254297234867
 20
215.2037118482558
 30
0.0
  0
SPLINE
  5
306
330
1F
100
AcDbEntity
  8
0
  6
Continuous
 62
     7
370
    25
100
AcDbSpline
210
0.0
220
0.0
230
1.0
 70
     8
 71
     3
 72
    15
 73
    11
 74
     0
 42
0.000000001
 43
0.00000001
 40
0.0
 40
0.0
 40
0.0
 40
0.0
 40
0.1429456991006061
 40
0.2789838664107752
 40
0.4083850700264299
 40
0.5322066075501716
 40
0.6516540350561637
 40
0.7689398337032388
 40
0.8842923144593472
 40
1.0
 40
1.0
 40
1.0
 40
1.0
 10
265.5254297234867
 20
215.2037118482558
 30
0.0
 10
265.524551190645
 20
215.1588750087976
 30
0.0
 10
265.5228365780999
 20
215.0713679700522
 30
0.0
 10
265.5081408120425
 20
214.9439559361666
 30
0.0
 10
265.4843256040812
 20
214.8240867129267
 30
0.0
 10
265.450567616705
 20
214.7120149843502
 30
0.0
 10
265.4071566623169
 20
214.6073523265014
 30
0.0
 10
265.3531167297288
 20
214.5108700579552
 30
0.0
 10
265.290506355509
 20
214.4209632483883
 30
0.0
 10
265.2410455843074
 20
214.3679075812482
 30
0.0
 10
265.2162771811139
 20
214.3413389668999
 30
0.0
  0
SPLINE
  5
307
330
1F
100
AcDbEntity
  8
0
  6
Continuous
 62
     7
370
    25
100
AcDbSpline
210
0.0
220
0.0
230
1.0
 70
     8
 71
     3
 72
    15
 73
    11
 74
     0
 42
0.000000001
 43
0.00000001
 40
0.0
 40
0.0
 40
0.0
 40
0.0
 40
0.1285289265928336
 40
0.2533592499169484
 40
0.3762221487762645
 40
0.4978204371182842
 40
0.6204126044936279
 40
0.7434752264306362
 40
0.8703259854058959
 40
1.0
 40
1.0
 40
1.0
 40
1.0
 10
265.2162771811139
 20
214.3413389668999
 30
0.0
 10
265.1971487756772
 20
214.3232440338064
 30
0.0
 10
265.1594424119658
 20
214.2875748751399
 30
0.0
 10
265.0972738987055
 20
214.2418370985772
 30
0.0
 10
265.0327504124217
 20
214.2022757781908
 30
0.0
 10
264.9647003882054
 20
214.1700570009838
 30
0.0
 10
264.8935229205343
 20
214.1454095103277
 30
0.0
 10
264.8191957698705
 20
214.1279978873419
 30
0.0
 10
264.7421445913489
 20
214.1167444227139
 30
0.0
 10
264.6896121454115
 20
214.1154180932023
 30
0.0
 10
264.6630568421307
 20
214.1147476298001
 30
0.0
  0
SPLINE
  5
308
330
1F
100
AcDbEntity
  8
0
  6
Continuous
 62
     7
370
    25
100
AcDbSpline
210
0.0
220
0.0
230
1.0
 70
     8
 71
     3
 72
    15
 73
    11
 74
     0
 42
0.000000001
 43
0.00000001
 40
0.0
 40
0.0
 40
0.0
 40
0.0
 40
0.1419689243631947
 40
0.2765068175760517
 40
0.4055469360395224
 40
0.5294344662995757
 40
0.6497204970974112
 40
0.7670529631179775
 40
0.8834584214353748
 40
1.0
 40
1.0
 40
1.0
 40
1.0
 10
264.6630568421307
 20
214.1147476298001
 30
0.0
 10
264.6353071381011
 20
214.1152835905283
 30
0.0
 10
264.5812602233671
 20
214.1163274583744
 30
0.0
 10
264.5024651253577
 20
214.1256770887213
 30
0.0
 10
264.4280481200694
 20
214.1402325105198
 30
0.0
 10
264.3584513937976
 20
214.1624170202376
 30
0.0
 10
264.2930103841243
 20
214.1892547403745
 30
0.0
 10
264.2321930118695
 20
214.2225477838861
 30
0.0
 10
264.1764233042983
 20
214.2625650722833
 30
0.0
 10
264.1428860935351
 20
214.2933800846264
 30
0.0
 10
264.1261076895884
 20
214.3087965940186
 30
0.0
  0
SPLINE
  5
309
330
1F
100
AcDbEntity
  8
0
  6
Continuous
 62
     7
370
    25
100
AcDbSpline
210
0.0
220
0.0
230
1.0
 70
     8
 71
     3
 72
    15
 73
    11
 74
     0
 42
0.000000001
 43
0.00000001
 40
0.0
 40
0.0
 40
0.0
 40
0.0
 40
0.1127868452770385
 40
0.2263176769833934
 40
0.3427662647635186
 40
0.4625187155882555
 40
0.5869029948447946
 40
0.7177124292340756
 40
0.8546027586044866
 40
0.9999999999999999
 40
0.9999999999999999
 40
0.9999999999999999
 40
0.9999999999999999
 10
264.1261076895884
 20
214.3087965940186
 30
0.0
 10
264.1065544879423
 20
214.3298965193173
 30
0.0
 10
264.067319104035
 20
214.3722355533279
 30
0.0
 10
264.0164888453061
 20
214.4435696153988
 30
0.0
 10
263.9728265745526
 20
214.5215001091376
 30
0.0
 10
263.937901909162
 20
214.6066437705483
 30
0.0
 10
263.9075854099839
 20
214.6973890812267
 30
0.0
 10
263.8865945876275
 20
214.7952430637139
 30
0.0
 10
263.8718859726121
 20
214.8995923694673
 30
0.0
 10
263.867848353948
 20
214.9714473984282
 30
0.0
 10
263.8657687065376
 20
215.0084576109677
 30
0.0
  0
LINE
  5
30A
330
1F
100
AcDbEntity
  8
0
  6
Continuous
 62
     7
370
    25
100
AcDbLine
 10
263.865768629
 20
215.0084574491
 30
0.0
 11
264.2400059373
 21
215.0084574491
 31
0.0
  0
LINE
  5
30B
330
1F
100
AcDbEntity
  8
0
  6
Continuous
 62
     7
370
    25
100
AcDbLine
 10
273.872548201
 20
214.4226951309
 30
0.0
 11
273.872548201
 21
214.1147477336
 31
0.0
  0
LINE
  5
30C
330
1F
100
AcDbEntity
  8
0
  6
Continuous
 62
     7
370
    25
100
AcDbLine
 10
273.872548201
 20
214.1147477336
 30
0.0
 11
272.2128871352
 21
214.1147477336
 31
0.0
  0
LINE
  5
30D
330
1F
100
AcDbEntity
  8
0
  6
Continuous
 62
     7
370
    25
100
AcDbLine
 10
272.2128871352
 20
214.1147477336
 30
0.0
 11
272.2128871352
 21
214.3738812551
 31
0.0
  0
SPLINE
  5
30E
330
1F
100
AcDbEntity
  8
0
  6
Continuous
 62
     7
370
    25
100
AcDbSpline
210
0.0
220
0.0
230
1.0
 70
     8
 71
     3
 72
    15
 73
    11
 74
     0
 42
0.000000001
 43
0.00000001
 40
0.0
 40
0.0
 40
0.0
 40
0.0
 40
0.1222539670175352
 40
0.2448798853647844
 40
0.3684953417758717
 40
0.4924913687912562
 40
0.6176861804679226
 40
0.744186480644151
 40
0.8713433854730694
 40
1.0
 40
1.0
 40
1.0
 40
1.0
 10
272.2128873506053
 20
214.3738813397813
 30
0.0
 10
272.2446726718834
 20
214.4321355458903
 30
0.0
 10
272.3083400196246
 20
214.5488211934976
 30
0.0
 10
272.4105819593737
 20
214.7207832986184
 30
0.0
 10
272.5184447017848
 20
214.8903643852469
 30
0.0
 10
272.6312415447913
 20
215.0583924412942
 30
0.0
 10
272.7500315106553
 20
215.2241832208186
 30
0.0
 10
272.8748121021772
 20
215.387652331391
 30
0.0
 10
273.0043027051817
 20
215.5498537793897
 30
0.0
 10
273.0948206660146
 20
215.6551578962093
 30
0.0
 10
273.140344977724
 20
215.7081186279169
 30
0.0
  0
SPLINE
  5
30F
330
1F
100
AcDbEntity
  8
0
  6
Continuous
 62
     7
370
    25
100
AcDbSpline
210
0.0
220
0.0
230
1.0
 70
     8
 71
     3
 72
    15
 73
    11
 74
     0
 42
0.000000001
 43
0.00000001
 40
0.0
 40
0.0
 40
0.0
 40
0.0
 40
0.1393072344656816
 40
0.272815044511458
 40
0.4017015333005712
 40
0.5261488507241954
 40
0.6468391415986398
 40
0.7648124004856477
 40
0.8826214999019873
 40
1.0
 40
1.0
 40
1.0
 40
1.0
 10
273.140344977724
 20
215.7081186279169
 30
0.0
 10
273.1649468947792
 20
215.7376689613949
 30
0.0
 10
273.2131265397359
 20
215.7955394343396
 30
0.0
 10
273.275657193997
 20
215.8871978440635
 30
0.0
 10
273.3299464128705
 20
215.979208584898
 30
0.0
 10
273.3733150700922
 20
216.0730106672876
 30
0.0
 10
273.4074255232838
 20
216.16734464948
 30
0.0
 10
273.431724495771
 20
216.2627717676646
 30
0.0
 10
273.4466884425664
 20
216.3592936667025
 30
0.0
 10
273.448562304523
 20
216.4241996366192
 30
0.0
 10
273.4494975200969
 20
216.4565932041881
 30
0.0
  0
SPLINE
  5
310
330
1F
100
AcDbEntity
  8
0
  6
Continuous
 62
     7
370
    25
100
AcDbSpline
210
0.0
220
0.0
230
1.0
 70
     8
 71
     3
 72
    15
 73
    11
 74
     0
 42
0.000000001
 43
0.00000001
 40
0.0
 40
0.0
 40
0.0
 40
0.0
 40
0.1456545909274862
 40
0.2841001134703736
 40
0.4150056596312781
 40
0.5394805610367867
 40
0.6583154229363549
 40
0.7744867345310873
 40
0.8876132026290401
 40
1.0
 40
1.0
 40
1.0
 40
1.0
 10
273.4494975200969
 20
216.4565932041881
 30
0.0
 10
273.4490014395333
 20
216.478906362563
 30
0.0
 10
273.448033831554
 20
216.5224283057153
 30
0.0
 10
273.4414946976936
 20
216.5857437681324
 30
0.0
 10
273.4302092111565
 20
216.6451006718335
 30
0.0
 10
273.4138136624306
 20
216.7001142748587
 30
0.0
 10
273.3933790028831
 20
216.7513675025302
 30
0.0
 10
273.3679087215877
 20
216.798309988611
 30
0.0
 10
273.3385582950824
 20
216.8418725622612
 30
0.0
 10
273.3148647552922
 20
216.86708111606
 30
0.0
 10
273.3030568421308
 20
216.8796440516457
 30
0.0
  0
SPLINE
  5
311
330
1F
100
AcDbEntity
  8
0
  6
Continuous
 62
     7
370
    25
100
AcDbSpline
210
0.0
220
0.0
230
1.0
 70
     8
 71
     3
 72
    11
 73
     7
 74
     0
 42
0.000000001
 43
0.00000001
 40
0.0
 40
0.0
 40
0.0
 40
0.0
 40
0.2388203430261978
 40
0.4777994110081058
 40
0.7288233729769952
 40
1.0
 40
1.0
 40
1.0
 40
1.0
 10
273.3030568421308
 20
216.8796440516457
 30
0.0
 10
273.2859667653296
 20
216.8947354218271
 30
0.0
 10
273.2517752533076
 20
216.9249281922278
 30
0.0
 10
273.1888636926701
 20
216.9557994854264
 30
0.0
 10
273.1182946088616
 20
216.9741726308679
 30
0.0
 10
273.0685500202177
 20
216.9762120883648
 30
0.0
 10
273.0427178590799
 20
216.9772711702898
 30
0.0
  0
SPLINE
  5
312
330
1F
100
AcDbEntity
  8
0
  6
Continuous
 62
     7
370
    25
100
AcDbSpline
210
0.0
220
0.0
230
1.0
 70
     8
 71
     3
 72
    11
 73
     7
 74
     0
 42
0.000000001
 43
0.00000001
 40
0.0
 40
0.0
 40
0.0
 40
0.0
 40
0.21965410735767
 40
0.4529199694342642
 40
0.7095565103071781
 40
0.9999999999999999
 40
0.9999999999999999
 40
0.9999999999999999
 40
0.9999999999999999
 10
273.0427178590799
 20
216.9772711702898
 30
0.0
 10
273.0207835763006
 20
216.9757915363455
 30
0.0
 10
272.9755557642397
 20
216.9727405769583
 30
0.0
 10
272.9094838421223
 20
216.9453447838338
 30
0.0
 10
272.8430612994155
 20
216.9045484375522
 30
0.0
 10
272.8034228400313
 20
216.8670235516315
 30
0.0
 10
272.7823788760291
 20
216.8471016787643
 30
0.0
  0
SPLINE
  5
313
330
1F
100
AcDbEntity
  8
0
  6
Continuous
 62
     7
370
    25
100
AcDbSpline
210
0.0
220
0.0
230
1.0
 70
     8
 71
     3
 72
    15
 73
    11
 74
     0
 42
0.000000001
 43
0.00000001
 40
0.0
 40
0.0
 40
0.0
 40
0.0
 40
0.0852170654570511
 40
0.1786356419709488
 40
0.281908887249909
 40
0.3979202204271154
 40
0.5271407602511597
 40
0.6701615309881317
 40
0.8276168083953145
 40
1.0
 40
1.0
 40
1.0
 40
1.0
 10
272.7823788760291
 20
216.8471016787643
 30
0.0
 10
272.7704013883663
 20
216.8336242788361
 30
0.0
 10
272.7452936686114
 20
216.8053723791097
 30
0.0
 10
272.7166424640395
 20
216.7528145279724
 30
0.0
 10
272.6908900849717
 20
216.6920055582676
 30
0.0
 10
272.6711428211308
 20
216.6210054538768
 30
0.0
 10
272.6548576074245
 20
216.5406837432153
 30
0.0
 10
272.6437793894645
 20
216.4506260706551
 30
0.0
 10
272.6373273687071
 20
216.3510269534335
 30
0.0
 10
272.6364150187342
 20
216.2814373396588
 30
0.0
 10
272.635938198063
 20
216.2450677804592
 30
0.0
  0
LINE
  5
314
330
1F
100
AcDbEntity
  8
0
  6
Continuous
 62
     7
370
    25
100
AcDbLine
 10
272.6359380864
 20
216.2450675637
 30
0.0
 11
272.2779721477
 21
216.2450675637
 31
0.0
  0
SPLINE
  5
315
330
1F
100
AcDbEntity
  8
0
  6
Continuous
 62
     7
370
    25
100
AcDbSpline
210
0.0
220
0.0
230
1.0
 70
     8
 71
     3
 72
    15
 73
    11
 74
     0
 42
0.000000001
 43
0.00000001
 40
0.0
 40
0.0
 40
0.0
 40
0.0
 40
0.1556879583370678
 40
0.3002580815389088
 40
0.4355729270931333
 40
0.5618760602881498
 40
0.6801793544118016
 40
0.7914120972889361
 40
0.8978216513088172
 40
0.9999999999999999
 40
0.9999999999999999
 40
0.9999999999999999
 40
0.9999999999999999
 10
272.277972096368
 20
216.2450677804592
 30
0.0
 10
272.2799270810964
 20
216.2923232115626
 30
0.0
 10
272.2836974431092
 20
216.3834595154679
 30
0.0
 10
272.2997927720518
 20
216.5148758833438
 30
0.0
 10
272.3220918455741
 20
216.6362908802788
 30
0.0
 10
272.3526577639749
 20
216.7477092814373
 30
0.0
 10
272.3911521439372
 20
216.8488961526619
 30
0.0
 10
272.4371985423227
 20
216.940063046625
 30
0.0
 10
272.4901432571325
 20
217.0220068979042
 30
0.0
 10
272.533395050474
 20
217.0684291748262
 30
0.0
 10
272.5545822658596
 20
217.0911694753745
 30
0.0
  0
SPLINE
  5
316
330
1F
100
AcDbEntity
  8
0
  6
Continuous
 62
     7
370
    25
100
AcDbSpline
210
0.0
220
0.0
230
1.0
 70
     8
 71
     3
 72
    15
 73
    11
 74
     0
 42
0.000000001
 43
0.00000001
 40
0.0
 40
0.0
 40
0.0
 40
0.0
 40
0.1315871839306113
 40
0.2580600875533836
 40
0.3823443227205433
 40
0.5051167370722297
 40
0.6260302100212856
 40
0.7477246756955004
 40
0.8729472477923097
 40
1.0
 40
1.0
 40
1.0
 40
1.0
 10
273.0752602319613
 20
217.2864237126626
 30
0.0
 10
273.1006153844963
 20
217.2859967008671
 30
0.0
 10
273.1503402337381
 20
217.2851592735583
 30
0.0
 10
273.2232537237918
 20
217.2740481702938
 30
0.0
 10
273.2935359207729
 20
217.2583981939918
 30
0.0
 10
273.3603842250344
 20
217.2345042063228
 30
0.0
 10
273.4243128412413
 20
217.2049197322667
 30
0.0
 10
273.4850563917774
 20
217.1682977528388
 30
0.0
 10
273.5429108531057
 20
217.1251741808057
 30
0.0
 10
273.5781771343921
 20
217.0917377765108
 30
0.0
 10
273.595938198063
 20
217.0748982889338
 30
0.0
  0
SPLINE
  5
317
330
1F
100
AcDbEntity
  8
0
  6
Continuous
 62
     7
370
    25
100
AcDbSpline
210
0.0
220
0.0
230
1.0
 70
     8
 71
     3
 72
    15
 73
    11
 74
     0
 42
0.000000001
 43
0.00000001
 40
0.0
 40
0.0
 40
0.0
 40
0.0
 40
0.1158731642777314
 40
0.2315336360112862
 40
0.3480327938015018
 40
0.46815325452682
 40
0.5926256813316256
 40
0.7213353501006579
 40
0.857156394487223
 40
0.9999999999999999
 40
0.9999999999999999
 40
0.9999999999999999
 40
0.9999999999999999
 10
273.595938198063
 20
217.0748982889338
 30
0.0
 10
273.6143802614832
 20
217.0554765380212
 30
0.0
 10
273.6512305367463
 20
217.0166686860518
 30
0.0
 10
273.6964705338864
 20
216.9499573120261
 30
0.0
 10
273.7362205165236
 20
216.8789581057298
 30
0.0
 10
273.7689866449945
 20
216.8021127269771
 30
0.0
 10
273.7933385225778
 20
216.7193002892662
 30
0.0
 10
273.8106602629608
 20
216.63113026488
 30
0.0
 10
273.8218262122946
 20
216.537631700751
 30
0.0
 10
273.8230880101645
 20
216.4732989898305
 30
0.0
 10
273.8237348082325
 20
216.4403220177474
 30
0.0
  0
SPLINE
  5
318
330
1F
100
AcDbEntity
  8
0
  6
Continuous
 62
     7
370
    25
100
AcDbSpline
210
0.0
220
0.0
230
1.0
 70
     8
 71
     3
 72
    15
 73
    11
 74
     0
 42
0.000000001
 43
0.00000001
 40
0.0
 40
0.0
 40
0.0
 40
0.0
 40
0.108728564475733
 40
0.2195306543791324
 40
0.3341319394008485
 40
0.4531437423744117
 40
0.5790770692577073
 40
0.7113896401669794
 40
0.8516165615209437
 40
1.0
 40
1.0
 40
1.0
 40
1.0
 10
273.8237348082325
 20
216.4403220177474
 30
0.0
 10
273.8225456440828
 20
216.4006516047006
 30
0.0
 10
273.8201446376389
 20
216.3205542376688
 30
0.0
 10
273.7974942678896
 20
216.2004545642893
 30
0.0
 10
273.7631550513424
 20
216.0795702739162
 30
0.0
 10
273.7149540289095
 20
215.9574361821552
 30
0.0
 10
273.6524590880893
 20
215.8347398885781
 30
0.0
 10
273.5765062805721
 20
215.7107944163407
 30
0.0
 10
273.4873558158873
 20
215.5856900302031
 30
0.0
 10
273.4193676009979
 20
215.5053540320748
 30
0.0
 10
273.3844127743342
 20
215.4640508313067
 30
0.0
  0
SPLINE
  5
319
330
1F
100
AcDbEntity
  8
0
  6
Continuous
 62
     7
370
    25
100
AcDbSpline
210
0.0
220
0.0
230
1.0
 70
     8
 71
     3
 72
    15
 73
    11
 74
     0
 42
0.000000001
 43
0.00000001
 40
0.0
 40
0.0
 40
0.0
 40
0.0
 40
0.1357218201398476
 40
0.2680461975833006
 40
0.3973862909442005
 40
0.5233554248839193
 40
0.647105147432198
 40
0.7675706788161529
 40
0.8853037134342265
 40
1.0
 40
1.0
 40
1.0
 40
1.0
 10
273.3844127743342
 20
215.4640508313067
 30
0.0
 10
273.3456753184028
 20
215.4196009823336
 30
0.0
 10
273.2691700979765
 20
215.3318139707233
 30
0.0
 10
273.1586757627108
 20
215.199147322458
 30
0.0
 10
273.0542419861035
 20
215.0670398105852
 30
0.0
 10
272.9534576521958
 20
214.9367965655173
 30
0.0
 10
272.8588783593021
 20
214.8067166177588
 30
0.0
 10
272.7679722074099
 20
214.6784139966295
 30
0.0
 10
272.6829872568294
 20
214.5507842944831
 30
0.0
 10
272.6296942066569
 20
214.465017844085
 30
0.0
 10
272.6033958251816
 20
214.4226948991033
 30
0.0
  0
LINE
  5
31A
330
1F
100
AcDbEntity
  8
0
  6
Continuous
 62
     7
370
    25
100
AcDbLine
 10
272.603395813
 20
214.4226951309
 30
0.0
 11
273.872548201
 21
214.4226951309
 31
0.0
  0
SPLINE
  5
31B
330
1F
100
AcDbEntity
  8
0
  6
Continuous
 62
     7
370
    25
100
AcDbSpline
210
0.0
220
0.0
230
1.0
 70
     8
 71
     3
 72
    15
 73
    11
 74
     0
 42
0.000000001
 43
0.00000001
 40
0.0
 40
0.0
 40
0.0
 40
0.0
 40
0.1195122940073567
 40
0.2389686932603894
 40
0.3566129793728514
 40
0.4775556668378035
 40
0.60034791274447
 40
0.728858366052186
 40
0.8606359757345482
 40
1.0
 40
1.0
 40
1.0
 40
1.0
 10
272.5545822658596
 20
217.0911694753745
 30
0.0
 10
272.5711009681888
 20
217.106856147397
 30
0.0
 10
272.6041306472085
 20
217.1382221549358
 30
0.0
 10
272.6597772215855
 20
217.1775141243598
 30
0.0
 10
272.7191349935996
 20
217.211193558302
 30
0.0
 10
272.7822470438646
 20
217.2389918214222
 30
0.0
 10
272.8500780862757
 20
217.2599382180096
 30
0.0
 10
272.9213866123201
 20
217.2756584938166
 30
0.0
 10
272.9970826914746
 20
217.2847935078312
 30
0.0
 10
273.0487194610086
 20
217.2858702686329
 30
0.0
 10
273.0752602319613
 20
217.2864237126626
 30
0.0
  0
SPLINE
  5
31C
330
1F
100
AcDbEntity
  8
0
  6
Continuous
 62
     7
370
    25
100
AcDbSpline
210
0.0
220
0.0
230
1.0
 70
     8
 71
     3
 72
    15
 73
    11
 74
     0
 42
0.000000001
 43
0.00000001
 40
0.0
 40
0.0
 40
0.0
 40
0.0
 40
0.1578858905379509
 40
0.3045400036351307
 40
0.4406497021323706
 40
0.5669056686908566
 40
0.6844829811356731
 40
0.7953196024666607
 40
0.8993864423042469
 40
1.0
 40
1.0
 40
1.0
 40
1.0
 10
261.3600059946731
 20
215.1548982889338
 30
0.0
 10
261.3594063736583
 20
215.109073392906
 30
0.0
 10
261.3582497878139
 20
215.0206835187041
 30
0.0
 10
261.3467950040686
 20
214.8931850714869
 30
0.0
 10
261.3276616110674
 20
214.7759501243092
 30
0.0
 10
261.3015752916267
 20
214.6686826642367
 30
0.0
 10
261.2672433681592
 20
214.5714270392664
 30
0.0
 10
261.2251632428535
 20
214.4844431051084
 30
0.0
 10
261.1758383231287
 20
214.4068051863857
 30
0.0
 10
261.135679056295
 20
214.3629142032862
 30
0.0
 10
261.115938198063
 20
214.3413389668999
 30
0.0
  0
SPLINE
  5
31D
330
1F
100
AcDbEntity
  8
0
  6
Continuous
 62
     7
370
    25
100
AcDbSpline
210
0.0
220
0.0
230
1.0
 70
     8
 71
     3
 72
    15
 73
    11
 74
     0
 42
0.000000001
 43
0.00000001
 40
0.0
 40
0.0
 40
0.0
 40
0.0
 40
0.1253676904632838
 40
0.2486682226336924
 40
0.370149522110773
 40
0.4913589834313447
 40
0.6136521719157876
 40
0.7383493147493178
 40
0.8668213505211457
 40
0.9999999999999999
 40
0.9999999999999999
 40
0.9999999999999999
 40
0.9999999999999999
 10
261.115938198063
 20
214.3413389668999
 30
0.0
 10
261.0968495976834
 20
214.3231911429762
 30
0.0
 10
261.0589871443559
 20
214.287194730319
 30
0.0
 10
260.9956591276609
 20
214.2418790446182
 30
0.0
 10
260.9298626436959
 20
214.202082770068
 30
0.0
 10
260.8600883451963
 20
214.1700907420388
 30
0.0
 10
260.7867831393527
 20
214.1451993200053
 30
0.0
 10
260.7097805750115
 20
214.1280361703569
 30
0.0
 10
260.6293444100438
 20
214.116679497616
 30
0.0
 10
260.5744086494765
 20
214.1153992620981
 30
0.0
 10
260.5464466726393
 20
214.1147476298001
 30
0.0
  0
SPLINE
  5
31E
330
1F
100
AcDbEntity
  8
0
  6
Continuous
 62
     7
370
    25
100
AcDbSpline
210
0.0
220
0.0
230
1.0
 70
     8
 71
     3
 72
    15
 73
    11
 74
     0
 42
0.000000001
 43
0.00000001
 40
0.0
 40
0.0
 40
0.0
 40
0.0
 40
0.1296790459496315
 40
0.256534726738018
 40
0.3796021235083248
 40
0.5012724352530707
 40
0.6237632537934529
 40
0.7466309197368074
 40
0.8714660864810877
 40
1.0
 40
1.0
 40
1.0
 40
1.0
 10
260.5464466726393
 20
214.1147476298001
 30
0.0
 10
260.5198904661783
 20
214.1154156905916
 30
0.0
 10
260.4673562335443
 20
214.1167372671913
 30
0.0
 10
260.3903181014809
 20
214.1280254375824
 30
0.0
 10
260.3161280848835
 20
214.1452667316751
 30
0.0
 10
260.2451259735938
 20
214.1703509619411
 30
0.0
 10
260.1768649281783
 20
214.2020837323193
 30
0.0
 10
260.1122413702431
 20
214.2418634207291
 30
0.0
 10
260.0500580424316
 20
214.2875680217821
 30
0.0
 10
260.0123537090887
 20
214.3232417272288
 30
0.0
 10
259.9932263336562
 20
214.3413389668999
 30
0.0
  0
SPLINE
  5
31F
330
1F
100
AcDbEntity
  8
0
  6
Continuous
 62
     7
370
    25
100
AcDbSpline
210
0.0
220
0.0
230
1.0
 70
     8
 71
     3
 72
    15
 73
    11
 74
     0
 42
0.000000001
 43
0.00000001
 40
0.0
 40
0.0
 40
0.0
 40
0.0
 40
0.1018932351274246
 40
0.2069273144332735
 40
0.3180857032868685
 40
0.4354992067433572
 40
0.5615895883170188
 40
0.6970801652363
 40
0.8429446221899395
 40
0.9999999999999999
 40
0.9999999999999999
 40
0.9999999999999999
 40
0.9999999999999999
 10
259.9932263336562
 20
214.3413389668999
 30
0.0
 10
259.9726956402523
 20
214.3629011717936
 30
0.0
 10
259.9310013978013
 20
214.406690233416
 30
0.0
 10
259.8791520395829
 20
214.4841673128608
 30
0.0
 10
259.8351560204716
 20
214.5712143007345
 30
0.0
 10
259.7999638712367
 20
214.6687329732229
 30
0.0
 10
259.7714996490544
 20
214.7757237733465
 30
0.0
 10
259.7520333209493
 20
214.8931548208283
 30
0.0
 10
259.7408349998603
 20
215.0206923952165
 30
0.0
 10
259.7391728547225
 20
215.109074608079
 30
0.0
 10
259.7383110794189
 20
215.1548982889338
 30
0.0
  0
LINE
  5
320
330
1F
100
AcDbEntity
  8
0
  6
Continuous
 62
     7
370
    25
100
AcDbLine
 10
259.7383111239
 20
215.1548981451
 30
0.0
 11
259.7383111239
 21
215.3826945245
 31
0.0
  0
LINE
  5
321
330
1F
100
AcDbEntity
  8
0
  6
Continuous
 62
     7
370
    25
100
AcDbLine
 10
259.7383111239
 20
215.3826945245
 30
0.0
 11
260.123395779
 21
215.3826945245
 31
0.0
  0
LINE
  5
322
330
1F
100
AcDbEntity
  8
0
  6
Continuous
 62
     7
370
    25
100
AcDbLine
 10
260.123395779
 20
215.3826945245
 30
0.0
 11
260.123395779
 21
215.0735424615
 31
0.0
  0
SPLINE
  5
323
330
1F
100
AcDbEntity
  8
0
  6
Continuous
 62
     7
370
    25
100
AcDbSpline
210
0.0
220
0.0
230
1.0
 70
     8
 71
     3
 72
    15
 73
    11
 74
     0
 42
0.000000001
 43
0.00000001
 40
0.0
 40
0.0
 40
0.0
 40
0.0
 40
0.1685772177275582
 40
0.3229175574578328
 40
0.4643444098170153
 40
0.5928047158829175
 40
0.7087363504067079
 40
0.8150895928540521
 40
0.9109250744216749
 40
1.0
 40
1.0
 40
1.0
 40
1.0
 10
260.1233958251816
 20
215.0735423567304
 30
0.0
 10
260.1235582793527
 20
215.0435902086736
 30
0.0
 10
260.1238694679274
 20
214.9862154659801
 30
0.0
 10
260.1312846234584
 20
214.9040481259324
 30
0.0
 10
260.1398600284087
 20
214.8291265926384
 30
0.0
 10
260.1547015940667
 20
214.7621721622969
 30
0.0
 10
260.1721139843927
 20
214.7022050941834
 30
0.0
 10
260.195418909047
 20
214.650686008366
 30
0.0
 10
260.2205469740023
 20
214.6050968068348
 30
0.0
 10
260.2428307770516
 20
214.5808268739472
 30
0.0
 10
260.253565316707
 20
214.5691355770694
 30
0.0
  0
SPLINE
  5
324
330
1F
100
AcDbEntity
  8
0
  6
Continuous
 62
     7
370
    25
100
AcDbSpline
210
0.0
220
0.0
230
1.0
 70
     8
 71
     3
 72
    11
 73
     7
 74
     0
 42
0.000000001
 43
0.00000001
 40
0.0
 40
0.0
 40
0.0
 40
0.0
 40
0.2550921435312732
 40
0.498379195413477
 40
0.7437399667914613
 40
1.0
 40
1.0
 40
1.0
 40
1.0
 10
260.253565316707
 20
214.5691355770694
 30
0.0
 10
260.2730038380965
 20
214.5515850141653
 30
0.0
 10
260.3109813097503
 20
214.5172960890025
 30
0.0
 10
260.3787525011389
 20
214.4811234602845
 30
0.0
 10
260.4524897172365
 20
214.4592653049708
 30
0.0
 10
260.5039078241318
 20
214.4565992590086
 30
0.0
 10
260.5301754861986
 20
214.4552372719847
 30
0.0
  0
SPLINE
  5
325
330
1F
100
AcDbEntity
  8
0
  6
Continuous
 62
     7
370
    25
100
AcDbSpline
210
0.0
220
0.0
230
1.0
 70
     8
 71
     3
 72
    11
 73
     7
 74
     0
 42
0.000000001
 43
0.00000001
 40
0.0
 40
0.0
 40
0.0
 40
0.0
 40
0.2753919239960412
 40
0.5257608619460061
 40
0.764163953060904
 40
1.0
 40
1.0
 40
1.0
 40
1.0
 10
260.5301754861986
 20
214.4552372719847
 30
0.0
 10
260.5612611263188
 20
214.4565011666012
 30
0.0
 10
260.6206078664359
 20
214.4589141143499
 30
0.0
 10
260.7044764090062
 20
214.4806444182533
 30
0.0
 10
260.7792033513978
 20
214.5158071233883
 30
0.0
 10
260.8193589232037
 20
214.5514236896928
 30
0.0
 10
260.8393280285715
 20
214.5691355770694
 30
0.0
  0
SPLINE
  5
326
330
1F
100
AcDbEntity
  8
0
  6
Continuous
 62
     7
370
    25
100
AcDbSpline
210
0.0
220
0.0
230
1.0
 70
     8
 71
     3
 72
    15
 73
    11
 74
     0
 42
0.000000001
 43
0.00000001
 40
0.0
 40
0.0
 40
0.0
 40
0.0
 40
0.0870307056515482
 40
0.1814519341564887
 40
0.2869879073709781
 40
0.4036016482721306
 40
0.5320892874323261
 40
0.6745774233670013
 40
0.8303621402080794
 40
1.0
 40
1.0
 40
1.0
 40
1.0
 10
260.8393280285715
 20
214.5691355770694
 30
0.0
 10
260.8504691447986
 20
214.5824538309656
 30
0.0
 10
260.8736974648835
 20
214.6102213058005
 30
0.0
 10
260.9002358169518
 20
214.6611825987959
 30
0.0
 10
260.923676235786
 20
214.7196842642859
 30
0.0
 10
260.9428779889118
 20
214.7869269075622
 30
0.0
 10
260.956739267061
 20
214.8628601737734
 30
0.0
 10
260.967786722411
 20
214.947109882955
 30
0.0
 10
260.9733127516147
 20
215.0401241774038
 30
0.0
 10
260.9743700797629
 20
215.1048740005162
 30
0.0
 10
260.9749212489104
 20
215.1386271024932
 30
0.0
  0
LINE
  5
327
330
1F
100
AcDbEntity
  8
0
  6
Continuous
 62
     7
370
    25
100
AcDbLine
 10
260.9749212385
 20
215.1386270084
 30
0.0
 11
260.9749212385
 21
217.2864240378
 31
0.0
  0
LINE
  5
328
330
1F
100
AcDbEntity
  8
0
  6
Continuous
 62
     7
370
    25
100
AcDbLine
 10
260.9749212385
 20
217.2864240378
 30
0.0
 11
261.3600058936
 21
217.2864240378
 31
0.0
  0
LINE
  5
329
330
1F
100
AcDbEntity
  8
0
  6
Continuous
 62
     7
370
    25
100
AcDbLine
 10
261.3600058936
 20
217.2864240378
 30
0.0
 11
261.3600058936
 21
215.1548981451
 31
0.0
  0
LINE
  5
32A
330
1F
100
AcDbEntity
  8
0
  6
Continuous
 62
     7
370
    25
100
AcDbLine
 10
270.032548298
 20
215.7081181899
 30
0.0
 11
270.7984991827
 21
215.7081181899
 31
0.0
  0
LINE
  5
32B
330
1F
100
AcDbEntity
  8
0
  6
Continuous
 62
     7
370
    25
100
AcDbLine
 10
270.7984991827
 20
216.5054066822
 30
0.0
 11
271.1064465799
 21
216.5054066822
 31
0.0
  0
LINE
  5
32C
330
1F
100
AcDbEntity
  8
0
  6
Continuous
 62
     7
370
    25
100
AcDbLine
 10
271.1064465799
 20
215.7081181899
 30
0.0
 11
271.9037346066
 21
215.7081181899
 31
0.0
  0
LINE
  5
32D
330
1F
100
AcDbEntity
  8
0
  6
Continuous
 62
     7
370
    25
100
AcDbLine
 10
271.9037346066
 20
215.7081181899
 30
0.0
 11
271.9037346066
 21
215.4387396544
 31
0.0
  0
LINE
  5
32E
330
1F
100
AcDbEntity
  8
0
  6
Continuous
 62
     7
370
    25
100
AcDbLine
 10
271.9037346066
 20
215.4387396544
 30
0.0
 11
271.1064465799
 21
215.4387396544
 31
0.0
  0
LINE
  5
32F
330
1F
100
AcDbEntity
  8
0
  6
Continuous
 62
     7
370
    25
100
AcDbLine
 10
271.1064465799
 20
215.4387396544
 30
0.0
 11
271.1064465799
 21
214.6504915103
 31
0.0
  0
LINE
  5
330
330
1F
100
AcDbEntity
  8
0
  6
Continuous
 62
     7
370
    25
100
AcDbLine
 10
271.1064465799
 20
214.6504915103
 30
0.0
 11
270.7984991827
 21
214.6504915103
 31
0.0
  0
LINE
  5
331
330
1F
100
AcDbEntity
  8
0
  6
Continuous
 62
     7
370
    25
100
AcDbLine
 10
270.7984991827
 20
214.6504915103
 30
0.0
 11
270.7984991827
 21
215.4387396544
 31
0.0
  0
LINE
  5
332
330
1F
100
AcDbEntity
  8
0
  6
Continuous
 62
     7
370
    25
100
AcDbLine
 10
270.7984991827
 20
215.4387396544
 30
0.0
 11
270.032548298
 21
215.4387396544
 31
0.0
  0
LINE
  5
333
330
1F
100
AcDbEntity
  8
0
  6
Continuous
 62
     7
370
    25
100
AcDbLine
 10
270.032548298
 20
215.4387396544
 30
0.0
 11
270.032548298
 21
215.7081181899
 31
0.0
  0
LINE
  5
334
330
1F
100
AcDbEntity
  8
0
  6
Continuous
 62
     7
370
    25
100
AcDbLine
 10
270.7984991827
 20
215.7081181899
 30
0.0
 11
270.7984991827
 21
216.5054066822
 31
0.0
  0
LINE
  5
335
330
1F
100
AcDbEntity
  8
0
  6
Continuous
 62
     7
370
    25
100
AcDbLine
 10
271.1064465799
 20
216.5054066822
 30
0.0
 11
271.1064465799
 21
215.7081181899
 31
0.0
  0
CIRCLE
  5
336
330
1F
100
AcDbEntity
  8
0
  6
Continuous
 62
     7
370
    25
100
AcDbCircle
 10
250.8108534523
 20
56.4841116641
 30
0.0
 40
4.569841538983496
  0
CIRCLE
  5
337
330
1F
100
AcDbEntity
  8
0
  6
Continuous
 62
     7
370
    25
100
AcDbCircle
 10
282.8108534523
 20
56.4841116641
 30
0.0
 40
4.569841538983496
  0
CIRCLE
  5
338
330
1F
100
AcDbEntity
  8
0
  6
Continuous
 62
     7
370
    25
100
AcDbCircle
 10
282.8108534523
 20
30.4841116641
 30
0.0
 40
4.569841538983496
  0
CIRCLE
  5
339
330
1F
100
AcDbEntity
  8
0
  6
Continuous
 62
     7
370
    25
100
AcDbCircle
 10
250.8108534523
 20
30.4841116641
 30
0.0
 40
4.569841538983496
  0
CIRCLE
  5
33A
330
1F
100
AcDbEntity
  8
0
  6
Continuous
 62
     7
370
    25
100
AcDbCircle
 10
243.3108534523
 20
66.9841116641
 30
0.0
 40
2.049999999999997
  0
CIRCLE
  5
33B
330
1F
100
AcDbEntity
  8
0
  6
Continuous
 62
     7
370
    25
100
AcDbCircle
 10
290.3108534523
 20
66.9841116641
 30
0.0
 40
2.049999999999997
  0
CIRCLE
  5
33C
330
1F
100
AcDbEntity
  8
0
  6
Continuous
 62
     7
370
    25
100
AcDbCircle
 10
290.0608534523
 20
24.2341116641
 30
0.0
 40
2.300000000000001
  0
CIRCLE
  5
33D
330
1F
100
AcDbEntity
  8
0
  6
Continuous
 62
     7
370
    25
100
AcDbCircle
 10
243.5608534523
 20
24.2341116641
 30
0.0
 40
2.300000000000001
  0
LINE
  5
33E
330
1F
100
AcDbEntity
  8
0
  6
Continuous
 62
     7
370
    25
100
AcDbLine
 10
273.3108535864
 20
19.9841121409
 30
0.0
 11
260.3108533182
 21
19.9841121409
 31
0.0
  0
LINE
  5
33F
330
1F
100
AcDbEntity
  8
0
  6
Continuous
 62
     7
370
    25
100
AcDbLine
 10
238.810852588
 20
22.4841116193
 30
0.0
 11
238.810852588
 21
68.4841117088
 31
0.0
  0
ARC
  5
340
330
1F
100
AcDbEntity
  8
0
  6
Continuous
 62
     7
370
    25
100
AcDbCircle
 10
241.8108534523
 20
68.4841116641
 30
0.0
 40
3.0
100
AcDbArc
 50
90.0
 51
180.0
  0
LINE
  5
341
330
1F
100
AcDbEntity
  8
0
  6
Continuous
 62
     7
370
    25
100
AcDbLine
 10
241.8108530798
 20
71.4841122005
 30
0.0
 11
253.8108531841
 21
71.4841122005
 31
0.0
  0
LINE
  5
342
330
1F
100
AcDbEntity
  8
0
  6
Continuous
 62
     7
370
    25
100
AcDbLine
 10
253.8108531841
 20
64.9841120664
 30
0.0
 11
253.8108531841
 21
71.4841122005
 31
0.0
  0
ARC
  5
343
330
1F
100
AcDbEntity
  8
0
  6
Continuous
 62
     7
370
    25
100
AcDbCircle
 10
255.8108534523
 20
64.9841116641
 30
0.0
 40
2.0
100
AcDbArc
 50
180.0
 51
270.0
  0
LINE
  5
344
330
1F
100
AcDbEntity
  8
0
  6
Continuous
 62
     7
370
    25
100
AcDbLine
 10
277.8108533927
 20
62.9841117386
 30
0.0
 11
255.8108535119
 21
62.9841117386
 31
0.0
  0
ARC
  5
345
330
1F
100
AcDbEntity
  8
0
  6
Continuous
 62
     7
370
    25
100
AcDbCircle
 10
277.8108534523
 20
64.9841116641
 30
0.0
 40
2.000000000000057
100
AcDbArc
 50
270.0
 51
0.0
  0
LINE
  5
346
330
1F
100
AcDbEntity
  8
0
  6
Continuous
 62
     7
370
    25
100
AcDbLine
 10
279.8108537205
 20
71.4841122005
 30
0.0
 11
279.8108537205
 21
64.9841120664
 31
0.0
  0
LINE
  5
347
330
1F
100
AcDbEntity
  8
0
  6
Continuous
 62
     7
370
    25
100
AcDbLine
 10
279.8108537205
 20
71.4841122005
 30
0.0
 11
291.8108538248
 21
71.4841122005
 31
0.0
  0
ARC
  5
348
330
1F
100
AcDbEntity
  8
0
  6
Continuous
 62
     7
370
    25
100
AcDbCircle
 10
291.8108534523
 20
68.4841116641
 30
0.0
 40
3.0
100
AcDbArc
 50
0.0
 51
90.0
  0
LINE
  5
349
330
1F
100
AcDbEntity
  8
0
  6
Continuous
 62
     7
370
    25
100
AcDbLine
 10
294.8108543166
 20
68.4841117088
 30
0.0
 11
294.8108543166
 21
22.4841116193
 31
0.0
  0
ARC
  5
34A
330
1F
100
AcDbEntity
  8
0
  6
Continuous
 62
     7
370
    25
100
AcDbCircle
 10
290.8108534523
 20
44.8341116641
 30
0.0
 40
1.034920769491755
100
AcDbArc
 50
0.0
 51
90.0
  0
LINE
  5
34B
330
1F
100
AcDbEntity
  8
0
  6
Continuous
 62
     7
370
    25
100
AcDbLine
 10
290.8108536609
 20
45.8690324355
 30
0.0
 11
278.7844030642
 21
45.8690324355
 31
0.0
  0
ARC
  5
34C
330
1F
100
AcDbEntity
  8
0
  6
Continuous
 62
     7
370
    25
100
AcDbCircle
 10
278.7844034772
 20
48.8341116641
 30
0.0
 40
2.965079230508252
100
AcDbArc
 50
184.6604193841
 51
270.0
  0
ARC
  5
34D
330
1F
100
AcDbEntity
  8
0
  6
Continuous
 62
     7
370
    25
100
AcDbCircle
 10
270.8108534523
 20
48.1841116641
 30
0.0
 40
5.034920769491808
100
AcDbArc
 50
4.6604193841
 51
90.0
  0
LINE
  5
34E
330
1F
100
AcDbEntity
  8
0
  6
Continuous
 62
     7
370
    25
100
AcDbLine
 10
270.8108536423
 20
53.2190324936
 30
0.0
 11
262.8108532623
 21
53.2190324936
 31
0.0
  0
ARC
  5
34F
330
1F
100
AcDbEntity
  8
0
  6
Continuous
 62
     7
370
    25
100
AcDbCircle
 10
262.8108534523
 20
48.1841116641
 30
0.0
 40
5.034920769491751
100
AcDbArc
 50
90.0
 51
175.3395806159
  0
ARC
  5
350
330
1F
100
AcDbEntity
  8
0
  6
Continuous
 62
     7
370
    25
100
AcDbCircle
 10
254.8373034274
 20
48.8341116641
 30
0.0
 40
2.965079230508256
100
AcDbArc
 50
270.0
 51
355.3395806159
  0
LINE
  5
351
330
1F
100
AcDbEntity
  8
0
  6
Continuous
 62
     7
370
    25
100
AcDbLine
 10
254.8373038404
 20
45.8690324355
 30
0.0
 11
242.8108532437
 21
45.8690324355
 31
0.0
  0
ARC
  5
352
330
1F
100
AcDbEntity
  8
0
  6
Continuous
 62
     7
370
    25
100
AcDbCircle
 10
242.8108534523
 20
44.8341116641
 30
0.0
 40
1.034920769491777
100
AcDbArc
 50
90.0
 51
180.0
  0
LINE
  5
353
330
1F
100
AcDbEntity
  8
0
  6
Continuous
 62
     7
370
    25
100
AcDbLine
 10
241.7759322085
 20
44.8341116623
 30
0.0
 11
241.7759322085
 21
42.8341117419
 31
0.0
  0
ARC
  5
354
330
1F
100
AcDbEntity
  8
0
  6
Continuous
 62
     7
370
    25
100
AcDbCircle
 10
242.8108534523
 20
42.8341116641
 30
0.0
 40
1.034920769491777
100
AcDbArc
 50
180.0
 51
270.0
  0
LINE
  5
355
330
1F
100
AcDbEntity
  8
0
  6
Continuous
 62
     7
370
    25
100
AcDbLine
 10
242.8108532437
 20
41.7991909396
 30
0.0
 11
290.8108536609
 21
41.7991909396
 31
0.0
  0
ARC
  5
356
330
1F
100
AcDbEntity
  8
0
  6
Continuous
 62
     7
370
    25
100
AcDbCircle
 10
290.8108534523
 20
42.8341116641
 30
0.0
 40
1.034920769491748
100
AcDbArc
 50
270.0
 51
0.0
  0
LINE
  5
357
330
1F
100
AcDbEntity
  8
0
  6
Continuous
 62
     7
370
    25
100
AcDbLine
 10
291.8457746961
 20
42.8341117419
 30
0.0
 11
291.8457746961
 21
44.8341116623
 31
0.0
  0
ARC
  5
358
330
1F
100
AcDbEntity
  8
0
  6
Continuous
 62
     7
370
    25
100
AcDbCircle
 10
291.8108534523
 20
22.4841116641
 30
0.0
 40
3.0
100
AcDbArc
 50
270.0
 51
0.0
  0
ARC
  5
359
330
1F
100
AcDbEntity
  8
0
  6
Continuous
 62
     7
370
    25
100
AcDbCircle
 10
241.8108534523
 20
22.4841116641
 30
0.0
 40
3.0
100
AcDbArc
 50
180.0
 51
270.0
  0
LINE
  5
35A
330
1F
100
AcDbEntity
  8
0
  6
Continuous
 62
     7
370
    25
100
AcDbLine
 10
260.3108533182
 20
19.4841111276
 30
0.0
 11
241.8108530798
 21
19.4841111276
 31
0.0
  0
LINE
  5
35B
330
1F
100
AcDbEntity
  8
0
  6
Continuous
 62
     7
370
    25
100
AcDbLine
 10
273.3108535864
 20
19.9841121409
 30
0.0
 11
273.3108535864
 21
19.4841111276
 31
0.0
  0
LINE
  5
35C
330
1F
100
AcDbEntity
  8
0
  6
Continuous
 62
     7
370
    25
100
AcDbLine
 10
260.3108533182
 20
19.9841121409
 30
0.0
 11
260.3108533182
 21
19.4841111276
 31
0.0
  0
LINE
  5
35D
330
1F
100
AcDbEntity
  8
0
  6
Continuous
 62
     7
370
    25
100
AcDbLine
 10
291.8108538248
 20
19.4841111276
 30
0.0
 11
273.3108535864
 21
19.4841111276
 31
0.0
  0
CIRCLE
  5
35E
330
1F
100
AcDbEntity
  8
0
  6
Continuous
 62
     7
370
    25
100
AcDbCircle
 10
290.0608534523
 20
24.2341116641
 30
0.0
 40
1.800000000000001
  0
CIRCLE
  5
35F
330
1F
100
AcDbEntity
  8
0
  6
Continuous
 62
     7
370
    25
100
AcDbCircle
 10
243.5608534523
 20
24.2341116641
 30
0.0
 40
1.800000000000001
  0
CIRCLE
  5
360
330
1F
100
AcDbEntity
  8
0
  6
Continuous
 62
     7
370
    25
100
AcDbCircle
 10
250.8108534523
 20
30.4841116641
 30
0.0
 40
4.545397000339275
  0
CIRCLE
  5
361
330
1F
100
AcDbEntity
  8
0
  6
Continuous
 62
     7
370
    25
100
AcDbCircle
 10
282.8108534523
 20
30.4841116641
 30
0.0
 40
4.545397000339275
  0
LINE
  5
362
330
1F
100
AcDbEntity
  8
0
  6
Continuous
 62
     7
370
    25
100
AcDbLine
 10
242.8108532437
 20
41.834111578
 30
0.0
 11
242.8108532437
 21
41.7991909396
 31
0.0
  0
LINE
  5
363
330
1F
100
AcDbEntity
  8
0
  6
Continuous
 62
     7
370
    25
100
AcDbLine
 10
241.7759322085
 20
42.8341117419
 30
0.0
 11
241.8108530798
 21
42.8341117419
 31
0.0
  0
ARC
  5
364
330
1F
100
AcDbEntity
  8
0
  6
Continuous
 62
     7
370
    25
100
AcDbCircle
 10
242.8108534523
 20
42.8341116641
 30
0.0
 40
1.0
100
AcDbArc
 50
180.0
 51
270.0
  0
LINE
  5
365
330
1F
100
AcDbEntity
  8
0
  6
Continuous
 62
     7
370
    25
100
AcDbLine
 10
291.8108538248
 20
42.8341117419
 30
0.0
 11
291.8457746961
 21
42.8341117419
 31
0.0
  0
LINE
  5
366
330
1F
100
AcDbEntity
  8
0
  6
Continuous
 62
     7
370
    25
100
AcDbLine
 10
290.8108536609
 20
41.7991909396
 30
0.0
 11
290.8108536609
 21
41.834111578
 31
0.0
  0
ARC
  5
367
330
1F
100
AcDbEntity
  8
0
  6
Continuous
 62
     7
370
    25
100
AcDbCircle
 10
290.8108534523
 20
42.8341116641
 30
0.0
 40
1.0
100
AcDbArc
 50
270.0
 51
0.0
  0
LINE
  5
368
330
1F
100
AcDbEntity
  8
0
  6
Continuous
 62
     7
370
    25
100
AcDbLine
 10
290.8108536609
 20
41.834111578
 30
0.0
 11
242.8108532437
 21
41.834111578
 31
0.0
  0
LINE
  5
369
330
1F
100
AcDbEntity
  8
0
  6
Continuous
 62
     7
370
    25
100
AcDbLine
 10
291.8457746961
 20
44.8341116623
 30
0.0
 11
291.8108538248
 21
44.8341116623
 31
0.0
  0
LINE
  5
36A
330
1F
100
AcDbEntity
  8
0
  6
Continuous
 62
     7
370
    25
100
AcDbLine
 10
291.8108538248
 20
44.8341116623
 30
0.0
 11
291.8108538248
 21
42.8341117419
 31
0.0
  0
LINE
  5
36B
330
1F
100
AcDbEntity
  8
0
  6
Continuous
 62
     7
370
    25
100
AcDbLine
 10
241.8108530798
 20
44.8341116623
 30
0.0
 11
241.7759322085
 21
44.8341116623
 31
0.0
  0
LINE
  5
36C
330
1F
100
AcDbEntity
  8
0
  6
Continuous
 62
     7
370
    25
100
AcDbLine
 10
241.8108530798
 20
42.8341117419
 30
0.0
 11
241.8108530798
 21
44.8341116623
 31
0.0
  0
LINE
  5
36D
330
1F
100
AcDbEntity
  8
0
  6
Continuous
 62
     7
370
    25
100
AcDbLine
 10
290.8108536609
 20
45.8341116516
 30
0.0
 11
290.8108536609
 21
45.8690324355
 31
0.0
  0
ARC
  5
36E
330
1F
100
AcDbEntity
  8
0
  6
Continuous
 62
     7
370
    25
100
AcDbCircle
 10
290.8108534523
 20
44.8341116641
 30
0.0
 40
1.000000000000007
100
AcDbArc
 50
0.0
 51
90.0
  0
LINE
  5
36F
330
1F
100
AcDbEntity
  8
0
  6
Continuous
 62
     7
370
    25
100
AcDbLine
 10
242.8108532437
 20
45.8690324355
 30
0.0
 11
242.8108532437
 21
45.8341116516
 31
0.0
  0
ARC
  5
370
330
1F
100
AcDbEntity
  8
0
  6
Continuous
 62
     7
370
    25
100
AcDbCircle
 10
242.8108534523
 20
44.8341116641
 30
0.0
 40
1.000000000000007
100
AcDbArc
 50
90.0
 51
180.0
  0
LINE
  5
371
330
1F
100
AcDbEntity
  8
0
  6
Continuous
 62
     7
370
    25
100
AcDbLine
 10
275.7943220892
 20
48.5903616261
 30
0.0
 11
275.8291274764
 21
48.5931989003
 31
0.0
  0
LINE
  5
372
330
1F
100
AcDbEntity
  8
0
  6
Continuous
 62
     7
370
    25
100
AcDbLine
 10
278.7844030642
 20
45.8341116516
 30
0.0
 11
278.7844030642
 21
45.8690324355
 31
0.0
  0
ARC
  5
373
330
1F
100
AcDbEntity
  8
0
  6
Continuous
 62
     7
370
    25
100
AcDbCircle
 10
278.7844034772
 20
48.8341116641
 30
0.0
 40
3.0
100
AcDbArc
 50
184.6604193841
 51
270.0
  0
LINE
  5
374
330
1F
100
AcDbEntity
  8
0
  6
Continuous
 62
     7
370
    25
100
AcDbLine
 10
254.8373038404
 20
45.8341116516
 30
0.0
 11
254.8373038404
 21
45.8690324355
 31
0.0
  0
LINE
  5
375
330
1F
100
AcDbEntity
  8
0
  6
Continuous
 62
     7
370
    25
100
AcDbLine
 10
242.8108532437
 20
45.8341116516
 30
0.0
 11
254.8373038404
 21
45.8341116516
 31
0.0
  0
LINE
  5
376
330
1F
100
AcDbEntity
  8
0
  6
Continuous
 62
     7
370
    25
100
AcDbLine
 10
278.7844030642
 20
45.8341116516
 30
0.0
 11
290.8108536609
 21
45.8341116516
 31
0.0
  0
LINE
  5
377
330
1F
100
AcDbEntity
  8
0
  6
Continuous
 62
     7
370
    25
100
AcDbLine
 10
257.8273848154
 20
48.5903616261
 30
0.0
 11
257.7925794282
 21
48.5931989003
 31
0.0
  0
ARC
  5
378
330
1F
100
AcDbEntity
  8
0
  6
Continuous
 62
     7
370
    25
100
AcDbCircle
 10
254.8373034274
 20
48.8341116641
 30
0.0
 40
3.000000000000024
100
AcDbArc
 50
270.0
 51
355.3395806159
  0
LINE
  5
379
330
1F
100
AcDbEntity
  8
0
  6
Continuous
 62
     7
370
    25
100
AcDbLine
 10
262.8108532623
 20
53.1841116223
 30
0.0
 11
262.8108532623
 21
53.2190324936
 31
0.0
  0
ARC
  5
37A
330
1F
100
AcDbEntity
  8
0
  6
Continuous
 62
     7
370
    25
100
AcDbCircle
 10
262.8108534523
 20
48.1841116641
 30
0.0
 40
5.0
100
AcDbArc
 50
90.0
 51
175.3395806159
  0
LINE
  5
37B
330
1F
100
AcDbEntity
  8
0
  6
Continuous
 62
     7
370
    25
100
AcDbLine
 10
270.8108536423
 20
53.1841116223
 30
0.0
 11
270.8108536423
 21
53.2190324936
 31
0.0
  0
ARC
  5
37C
330
1F
100
AcDbEntity
  8
0
  6
Continuous
 62
     7
370
    25
100
AcDbCircle
 10
270.8108534523
 20
48.1841116641
 30
0.0
 40
5.000000000000041
100
AcDbArc
 50
4.6604193841
 51
90.0
  0
CIRCLE
  5
37D
330
1F
100
AcDbEntity
  8
0
  6
Continuous
 62
     7
370
    25
100
AcDbCircle
 10
282.8108534523
 20
56.4841116641
 30
0.0
 40
4.545397000339271
  0
CIRCLE
  5
37E
330
1F
100
AcDbEntity
  8
0
  6
Continuous
 62
     7
370
    25
100
AcDbCircle
 10
250.8108534523
 20
56.4841116641
 30
0.0
 40
4.545397000339271
  0
LINE
  5
37F
330
1F
100
AcDbEntity
  8
0
  6
Continuous
 62
     7
370
    25
100
AcDbLine
 10
262.8108532623
 20
53.1841116223
 30
0.0
 11
270.8108536423
 21
53.1841116223
 31
0.0
  0
CIRCLE
  5
380
330
1F
100
AcDbEntity
  8
0
  6
Continuous
 62
     7
370
    25
100
AcDbCircle
 10
243.3108534523
 20
66.9841116641
 30
0.0
 40
1.549999999999997
  0
CIRCLE
  5
381
330
1F
100
AcDbEntity
  8
0
  6
Continuous
 62
     7
370
    25
100
AcDbCircle
 10
290.3108534523
 20
66.9841116641
 30
0.0
 40
1.549999999999997
  0
CIRCLE
  5
382
330
1F
100
AcDbEntity
  8
0
  6
Continuous
 62
     7
370
    25
100
AcDbCircle
 10
250.8108534523
 20
30.4841116641
 30
0.0
 40
3.545397000339275
  0
CIRCLE
  5
383
330
1F
100
AcDbEntity
  8
0
  6
Continuous
 62
     7
370
    25
100
AcDbCircle
 10
282.8108534523
 20
30.4841116641
 30
0.0
 40
3.545397000339275
  0
CIRCLE
  5
384
330
1F
100
AcDbEntity
  8
0
  6
Continuous
 62
     7
370
    25
100
AcDbCircle
 10
282.8108534523
 20
30.4841116641
 30
0.0
 40
3.499999999999996
  0
CIRCLE
  5
385
330
1F
100
AcDbEntity
  8
0
  6
Continuous
 62
     7
370
    25
100
AcDbCircle
 10
250.8108534523
 20
30.4841116641
 30
0.0
 40
3.499999999999996
  0
CIRCLE
  5
386
330
1F
100
AcDbEntity
  8
0
  6
Continuous
 62
     7
370
    25
100
AcDbCircle
 10
282.8108534523
 20
56.4841116641
 30
0.0
 40
3.545397000339271
  0
CIRCLE
  5
387
330
1F
100
AcDbEntity
  8
0
  6
Continuous
 62
     7
370
    25
100
AcDbCircle
 10
250.8108534523
 20
56.4841116641
 30
0.0
 40
3.545397000339271
  0
CIRCLE
  5
388
330
1F
100
AcDbEntity
  8
0
  6
Continuous
 62
     7
370
    25
100
AcDbCircle
 10
282.8108534523
 20
56.4841116641
 30
0.0
 40
3.5
  0
CIRCLE
  5
389
330
1F
100
AcDbEntity
  8
0
  6
Continuous
 62
     7
370
    25
100
AcDbCircle
 10
250.8108534523
 20
56.4841116641
 30
0.0
 40
3.5
  0
CIRCLE
  5
38A
330
1F
100
AcDbEntity
  8
0
  6
Continuous
 62
     7
370
    25
100
AcDbCircle
 10
243.5608534523
 20
24.2341116641
 30
0.0
 40
1.300000000000001
  0
CIRCLE
  5
38B
330
1F
100
AcDbEntity
  8
0
  6
Continuous
 62
     7
370
    25
100
AcDbCircle
 10
290.0608534523
 20
24.2341116641
 30
0.0
 40
1.300000000000001
  0
CIRCLE
  5
38C
330
1F
100
AcDbEntity
  8
0
  6
Continuous
 62
     7
370
    25
100
AcDbCircle
 10
290.3108534523
 20
66.9841116641
 30
0.0
 40
1.049999999999997
  0
CIRCLE
  5
38D
330
1F
100
AcDbEntity
  8
0
  6
Continuous
 62
     7
370
    25
100
AcDbCircle
 10
243.3108534523
 20
66.9841116641
 30
0.0
 40
1.049999999999997
  0
ARC
  5
38E
330
1F
100
AcDbEntity
  8
0
  6
Continuous
 62
     7
370
    25
100
AcDbCircle
 10
409.6021737971
 20
123.6951502312
 30
0.0
 40
0.2999999999999972
100
AcDbArc
 50
180.0
 51
270.0
  0
ARC
  5
38F
330
1F
100
AcDbEntity
  8
0
  6
Continuous
 62
     7
370
    25
100
AcDbCircle
 10
405.5021737971
 20
123.6951502312
 30
0.0
 40
0.3000000000000114
100
AcDbArc
 50
270.0
 51
0.0
  0
ARC
  5
390
330
1F
100
AcDbEntity
  8
0
  6
Continuous
 62
     7
370
    25
100
AcDbCircle
 10
366.6021737971
 20
123.6951502312
 30
0.0
 40
0.3000000000000114
100
AcDbArc
 50
180.0
 51
270.0
  0
ARC
  5
391
330
1F
100
AcDbEntity
  8
0
  6
Continuous
 62
     7
370
    25
100
AcDbCircle
 10
363.0021737971
 20
123.6951502312
 30
0.0
 40
0.2999999999999972
100
AcDbArc
 50
270.0
 51
0.0
  0
LINE
  5
392
330
1F
100
AcDbEntity
  8
0
  6
Continuous
 62
     7
370
    25
100
AcDbLine
 10
409.3021738418
 20
123.6951502822
 30
0.0
 11
409.3021738418
 21
124.3951502573
 31
0.0
  0
LINE
  5
393
330
1F
100
AcDbEntity
  8
0
  6
Continuous
 62
     7
370
    25
100
AcDbLine
 10
405.8021741994
 20
124.3951502573
 30
0.0
 11
405.8021741994
 21
123.6951502822
 31
0.0
  0
ARC
  5
394
330
1F
100
AcDbEntity
  8
0
  6
Continuous
 62
     7
370
    25
100
AcDbCircle
 10
406.1021737971
 20
124.3951502312
 30
0.0
 40
0.2999999999999972
100
AcDbArc
 50
90.0
 51
180.0
  0
ARC
  5
395
330
1F
100
AcDbEntity
  8
0
  6
Continuous
 62
     7
370
    25
100
AcDbCircle
 10
409.0021737971
 20
124.3951502312
 30
0.0
 40
0.3000000000000114
100
AcDbArc
 50
0.0
 51
90.0
  0
LINE
  5
396
330
1F
100
AcDbEntity
  8
0
  6
Continuous
 62
     7
370
    25
100
AcDbLine
 10
366.3021742441
 20
123.6951502822
 30
0.0
 11
366.3021742441
 21
124.3951502573
 31
0.0
  0
LINE
  5
397
330
1F
100
AcDbEntity
  8
0
  6
Continuous
 62
     7
370
    25
100
AcDbLine
 10
363.3021737524
 20
124.3951502573
 30
0.0
 11
363.3021737524
 21
123.6951502822
 31
0.0
  0
ARC
  5
398
330
1F
100
AcDbEntity
  8
0
  6
Continuous
 62
     7
370
    25
100
AcDbCircle
 10
363.6021737971
 20
124.3951502312
 30
0.0
 40
0.3000000000000114
100
AcDbArc
 50
90.0
 51
180.0
  0
ARC
  5
399
330
1F
100
AcDbEntity
  8
0
  6
Continuous
 62
     7
370
    25
100
AcDbCircle
 10
366.0021737971
 20
124.3951502312
 30
0.0
 40
0.2999999999999972
100
AcDbArc
 50
0.0
 51
90.0
  0
LINE
  5
39A
330
1F
100
AcDbEntity
  8
0
  6
Continuous
 62
     7
370
    25
100
AcDbLine
 10
412.2672627755
 20
123.3951503262
 30
0.0
 11
412.3021743335
 21
121.3951502312
 31
0.0
  0
LINE
  5
39B
330
1F
100
AcDbEntity
  8
0
  6
Continuous
 62
     7
370
    25
100
AcDbLine
 10
412.3021743335
 20
121.3951502312
 30
0.0
 11
409.3021738418
 21
121.3951502312
 31
0.0
  0
LINE
  5
39C
330
1F
100
AcDbEntity
  8
0
  6
Continuous
 62
     7
370
    25
100
AcDbLine
 10
409.3021738418
 20
121.3951502312
 30
0.0
 11
409.3021738418
 21
123.3951503262
 31
0.0
  0
LINE
  5
39D
330
1F
100
AcDbEntity
  8
0
  6
Continuous
 62
     7
370
    25
100
AcDbLine
 10
409.3021738418
 20
123.3951503262
 30
0.0
 11
412.2672627755
 21
123.3951503262
 31
0.0
  0
LINE
  5
39E
330
1F
100
AcDbEntity
  8
0
  6
Continuous
 62
     7
370
    25
100
AcDbLine
 10
363.3021737524
 20
123.3951503262
 30
0.0
 11
363.3021737524
 21
121.3951502312
 31
0.0
  0
LINE
  5
39F
330
1F
100
AcDbEntity
  8
0
  6
Continuous
 62
     7
370
    25
100
AcDbLine
 10
363.3021737524
 20
123.3951503262
 30
0.0
 11
409.3021738418
 21
123.3951503262
 31
0.0
  0
LINE
  5
3A0
330
1F
100
AcDbEntity
  8
0
  6
Continuous
 62
     7
370
    25
100
AcDbLine
 10
363.3021737524
 20
121.3951502312
 30
0.0
 11
409.3021738418
 21
121.3951502312
 31
0.0
  0
LINE
  5
3A1
330
1F
100
AcDbEntity
  8
0
  6
Continuous
 62
     7
370
    25
100
AcDbLine
 10
360.3021732606
 20
121.3951502312
 30
0.0
 11
360.3370848187
 21
123.3951503262
 31
0.0
  0
LINE
  5
3A2
330
1F
100
AcDbEntity
  8
0
  6
Continuous
 62
     7
370
    25
100
AcDbLine
 10
360.3370848187
 20
123.3951503262
 30
0.0
 11
363.3021737524
 21
123.3951503262
 31
0.0
  0
LINE
  5
3A3
330
1F
100
AcDbEntity
  8
0
  6
Continuous
 62
     7
370
    25
100
AcDbLine
 10
363.3021737524
 20
121.3951502312
 30
0.0
 11
360.3021732606
 21
121.3951502312
 31
0.0
  0
LINE
  5
3A4
330
1F
100
AcDbEntity
  8
0
  6
Continuous
 62
     7
370
    25
100
AcDbLine
 10
406.1021736898
 20
124.6951502133
 30
0.0
 11
409.0021743514
 21
124.6951502133
 31
0.0
  0
LINE
  5
3A5
330
1F
100
AcDbEntity
  8
0
  6
Continuous
 62
     7
370
    25
100
AcDbLine
 10
363.6021732428
 20
124.6951502133
 30
0.0
 11
366.0021728911
 21
124.6951502133
 31
0.0
  0
LINE
  5
3A6
330
1F
100
AcDbEntity
  8
0
  6
Continuous
 62
     8
370
    25
100
AcDbLine
 10
405.8021741994
 20
123.6951502822
 30
0.0
 11
409.3021738418
 21
123.6951502822
 31
0.0
  0
LINE
  5
3A7
330
1F
100
AcDbEntity
  8
0
  6
Continuous
 62
     8
370
    25
100
AcDbLine
 10
363.3021737524
 20
123.6951502822
 30
0.0
 11
366.3021742441
 21
123.6951502822
 31
0.0
  0
LINE
  5
3A8
330
1F
100
AcDbEntity
  8
0
  6
Continuous
 62
     8
370
    25
100
AcDbLine
 10
409.3021738418
 20
124.3951502573
 30
0.0
 11
405.8021741994
 21
124.3951502573
 31
0.0
  0
LINE
  5
3A9
330
1F
100
AcDbEntity
  8
0
  6
Continuous
 62
     8
370
    25
100
AcDbLine
 10
366.3021742441
 20
124.3951502573
 30
0.0
 11
363.3021737524
 21
124.3951502573
 31
0.0
  0
ARC
  5
3AA
330
1F
100
AcDbEntity
  8
0
  6
Continuous
 62
     7
370
    25
100
AcDbCircle
 10
29.6843526379
 20
123.6951502312
 30
0.0
 40
0.3000000000000007
100
AcDbArc
 50
180.0
 51
270.0
  0
ARC
  5
3AB
330
1F
100
AcDbEntity
  8
0
  6
Continuous
 62
     7
370
    25
100
AcDbCircle
 10
25.5843526379
 20
123.6951502312
 30
0.0
 40
0.3000000000000043
100
AcDbArc
 50
270.0
 51
0.0
  0
ARC
  5
3AC
330
1F
100
AcDbEntity
  8
0
  6
Continuous
 62
     7
370
    25
100
AcDbCircle
 10
76.1843526379
 20
123.6951502312
 30
0.0
 40
0.3000000000000114
100
AcDbArc
 50
180.0
 51
270.0
  0
ARC
  5
3AD
330
1F
100
AcDbEntity
  8
0
  6
Continuous
 62
     7
370
    25
100
AcDbCircle
 10
72.0843526379
 20
123.6951502312
 30
0.0
 40
0.3000000000000114
100
AcDbArc
 50
270.0
 51
0.0
  0
LINE
  5
3AE
330
1F
100
AcDbEntity
  8
0
  6
Continuous
 62
     7
370
    25
100
AcDbLine
 10
29.3843519077
 20
123.6951502822
 30
0.0
 11
29.3843519077
 21
124.3951502573
 31
0.0
  0
LINE
  5
3AF
330
1F
100
AcDbEntity
  8
0
  6
Continuous
 62
     7
370
    25
100
AcDbLine
 10
25.8843522654
 20
124.3951502573
 30
0.0
 11
25.8843522654
 21
123.6951502822
 31
0.0
  0
ARC
  5
3B0
330
1F
100
AcDbEntity
  8
0
  6
Continuous
 62
     7
370
    25
100
AcDbCircle
 10
26.1843526379
 20
124.3951502312
 30
0.0
 40
0.3000000000000007
100
AcDbArc
 50
90.0
 51
180.0
  0
ARC
  5
3B1
330
1F
100
AcDbEntity
  8
0
  6
Continuous
 62
     7
370
    25
100
AcDbCircle
 10
29.0843526379
 20
124.3951502312
 30
0.0
 40
0.3000000000000043
100
AcDbArc
 50
0.0
 51
90.0
  0
ARC
  5
3B2
330
1F
100
AcDbEntity
  8
0
  6
Continuous
 62
     7
370
    25
100
AcDbCircle
 10
72.6843526379
 20
124.3951502312
 30
0.0
 40
0.2999999999999972
100
AcDbArc
 50
90.0
 51
180.0
  0
ARC
  5
3B3
330
1F
100
AcDbEntity
  8
0
  6
Continuous
 62
     7
370
    25
100
AcDbCircle
 10
75.5843526379
 20
124.3951502312
 30
0.0
 40
0.2999999999999972
100
AcDbArc
 50
0.0
 51
90.0
  0
LINE
  5
3B4
330
1F
100
AcDbEntity
  8
0
  6
Continuous
 62
     7
370
    25
100
AcDbLine
 10
75.8843530104
 20
123.6951502822
 30
0.0
 11
75.8843530104
 21
124.3951502573
 31
0.0
  0
LINE
  5
3B5
330
1F
100
AcDbEntity
  8
0
  6
Continuous
 62
     7
370
    25
100
AcDbLine
 10
72.384353368
 20
124.3951502573
 30
0.0
 11
72.384353368
 21
123.6951502822
 31
0.0
  0
LINE
  5
3B6
330
1F
100
AcDbEntity
  8
0
  6
Continuous
 62
     7
370
    25
100
AcDbLine
 10
25.8843522654
 20
123.3951503262
 30
0.0
 11
25.8843522654
 21
121.3951502312
 31
0.0
  0
LINE
  5
3B7
330
1F
100
AcDbEntity
  8
0
  6
Continuous
 62
     7
370
    25
100
AcDbLine
 10
22.8843517736
 20
121.3951502312
 30
0.0
 11
22.9192633316
 21
123.3951503262
 31
0.0
  0
LINE
  5
3B8
330
1F
100
AcDbEntity
  8
0
  6
Continuous
 62
     7
370
    25
100
AcDbLine
 10
22.9192633316
 20
123.3951503262
 30
0.0
 11
25.8843522654
 21
123.3951503262
 31
0.0
  0
LINE
  5
3B9
330
1F
100
AcDbEntity
  8
0
  6
Continuous
 62
     7
370
    25
100
AcDbLine
 10
25.8843522654
 20
121.3951502312
 30
0.0
 11
22.8843517736
 21
121.3951502312
 31
0.0
  0
LINE
  5
3BA
330
1F
100
AcDbEntity
  8
0
  6
Continuous
 62
     7
370
    25
100
AcDbLine
 10
25.8843522654
 20
123.3951503262
 30
0.0
 11
44.3494423427
 21
123.3951503262
 31
0.0
  0
LINE
  5
3BB
330
1F
100
AcDbEntity
  8
0
  6
Continuous
 62
     7
370
    25
100
AcDbLine
 10
44.3494423427
 20
123.3951503262
 30
0.0
 11
44.3843525038
 21
121.3951502312
 31
0.0
  0
LINE
  5
3BC
330
1F
100
AcDbEntity
  8
0
  6
Continuous
 62
     7
370
    25
100
AcDbLine
 10
25.8843522654
 20
121.3951502312
 30
0.0
 11
44.3843525038
 21
121.3951502312
 31
0.0
  0
LINE
  5
3BD
330
1F
100
AcDbEntity
  8
0
  6
Continuous
 62
     7
370
    25
100
AcDbLine
 10
75.8843530104
 20
121.3951502312
 30
0.0
 11
75.8843530104
 21
123.3951503262
 31
0.0
  0
LINE
  5
3BE
330
1F
100
AcDbEntity
  8
0
  6
Continuous
 62
     7
370
    25
100
AcDbLine
 10
57.384352772
 20
121.3951502312
 30
0.0
 11
57.419262933
 21
123.3951503262
 31
0.0
  0
LINE
  5
3BF
330
1F
100
AcDbEntity
  8
0
  6
Continuous
 62
     7
370
    25
100
AcDbLine
 10
57.419262933
 20
123.3951503262
 30
0.0
 11
75.8843530104
 21
123.3951503262
 31
0.0
  0
LINE
  5
3C0
330
1F
100
AcDbEntity
  8
0
  6
Continuous
 62
     7
370
    25
100
AcDbLine
 10
57.384352772
 20
121.3951502312
 30
0.0
 11
75.8843530104
 21
121.3951502312
 31
0.0
  0
LINE
  5
3C1
330
1F
100
AcDbEntity
  8
0
  6
Continuous
 62
     7
370
    25
100
AcDbLine
 10
78.8494419441
 20
123.3951503262
 30
0.0
 11
78.8843535021
 21
121.3951502312
 31
0.0
  0
LINE
  5
3C2
330
1F
100
AcDbEntity
  8
0
  6
Continuous
 62
     7
370
    25
100
AcDbLine
 10
75.8843530104
 20
123.3951503262
 30
0.0
 11
78.8494419441
 21
123.3951503262
 31
0.0
  0
LINE
  5
3C3
330
1F
100
AcDbEntity
  8
0
  6
Continuous
 62
     7
370
    25
100
AcDbLine
 10
78.8843535021
 20
121.3951502312
 30
0.0
 11
75.8843530104
 21
121.3951502312
 31
0.0
  0
LINE
  5
3C4
330
1F
100
AcDbEntity
  8
0
  6
Continuous
 62
     7
370
    25
100
AcDbLine
 10
57.419262933
 20
123.3951503262
 30
0.0
 11
44.3494423427
 21
123.3951503262
 31
0.0
  0
LINE
  5
3C5
330
1F
100
AcDbEntity
  8
0
  6
Continuous
 62
     7
370
    25
100
AcDbLine
 10
44.3843525038
 20
121.3951502312
 30
0.0
 11
57.384352772
 21
121.3951502312
 31
0.0
  0
LINE
  5
3C6
330
1F
100
AcDbEntity
  8
0
  6
Continuous
 62
     7
370
    25
100
AcDbLine
 10
26.1843517557
 20
124.6951502133
 30
0.0
 11
29.0843524173
 21
124.6951502133
 31
0.0
  0
LINE
  5
3C7
330
1F
100
AcDbEntity
  8
0
  6
Continuous
 62
     7
370
    25
100
AcDbLine
 10
72.6843528584
 20
124.6951502133
 30
0.0
 11
75.58435352
 21
124.6951502133
 31
0.0
  0
LINE
  5
3C8
330
1F
100
AcDbEntity
  8
0
  6
Continuous
 62
     8
370
    25
100
AcDbLine
 10
27.6343520865
 20
123.6951502822
 30
0.0
 11
29.3843519077
 21
123.6951502822
 31
0.0
  0
LINE
  5
3C9
330
1F
100
AcDbEntity
  8
0
  6
Continuous
 62
     8
370
    25
100
AcDbLine
 10
25.8843522654
 20
123.6951502822
 30
0.0
 11
27.6343520865
 21
123.6951502822
 31
0.0
  0
LINE
  5
3CA
330
1F
100
AcDbEntity
  8
0
  6
Continuous
 62
     8
370
    25
100
AcDbLine
 10
74.1343531892
 20
123.6951502822
 30
0.0
 11
75.8843530104
 21
123.6951502822
 31
0.0
  0
LINE
  5
3CB
330
1F
100
AcDbEntity
  8
0
  6
Continuous
 62
     8
370
    25
100
AcDbLine
 10
72.384353368
 20
123.6951502822
 30
0.0
 11
74.1343531892
 21
123.6951502822
 31
0.0
  0
LINE
  5
3CC
330
1F
100
AcDbEntity
  8
0
  6
Continuous
 62
     8
370
    25
100
AcDbLine
 10
29.3843519077
 20
124.3951502573
 30
0.0
 11
25.8843522654
 21
124.3951502573
 31
0.0
  0
LINE
  5
3CD
330
1F
100
AcDbEntity
  8
0
  6
Continuous
 62
     8
370
    25
100
AcDbLine
 10
75.8843530104
 20
124.3951502573
 30
0.0
 11
72.384353368
 21
124.3951502573
 31
0.0
  0
ENDSEC
  0
SECTION
  2
OBJECTS
  0
DICTIONARY
  5
C
330
0
100
AcDbDictionary
281
     1
  3
ACAD_GROUP
350
D
  3
ACAD_LAYOUT
350
1A
  3
ACAD_MLINESTYLE
350
17
  3
ACAD_PLOTSETTINGS
350
19
  3
ACAD_PLOTSTYLENAME
350
E
  3
ACAD_SCALELIST
350
47
  0
DICTIONARY
  5
D
102
{ACAD_REACTORS
330
C
102
}
330
C
100
AcDbDictionary
281
     1
  0
DICTIONARY
  5
1A
102
{ACAD_REACTORS
330
C
102
}
330
C
100
AcDbDictionary
281
     1
  3
Layout1
350
1E
  3
Layout2
350
26
  3
Model
350
22
  0
DICTIONARY
  5
17
102
{ACAD_REACTORS
330
C
102
}
330
C
100
AcDbDictionary
281
     1
  3
Standard
350
18
  0
DICTIONARY
  5
19
102
{ACAD_REACTORS
330
C
102
}
330
C
100
AcDbDictionary
281
     1
  0
ACDBDICTIONARYWDFLT
  5
E
102
{ACAD_REACTORS
330
C
102
}
330
C
100
AcDbDictionary
281
     1
  3
Normal
350
F
100
AcDbDictionaryWithDefault
340
F
  0
DICTIONARY
  5
47
102
{ACAD_REACTORS
330
C
102
}
330
C
100
AcDbDictionary
281
     1
  3
A0
350
48
  3
A1
350
49
  3
A2
350
4A
  3
A3
350
4B
  3
A4
350
4C
  3
A5
350
4D
  3
A6
350
4E
  3
A7
350
4F
  3
A8
350
50
  3
A9
350
51
  3
B0
350
52
  3
B1
350
53
  3
B2
350
54
  3
B3
350
55
  3
B4
350
56
  3
B5
350
57
  3
B6
350
58
  3
B7
350
59
  3
B8
350
5A
  3
B9
350
5B
  3
C0
350
5C
  3
C1
350
5D
  3
C2
350
5E
  3
C3
350
5F
  3
C4
350
60
  3
C5
350
61
  3
C6
350
62
  3
C7
350
63
  3
C8
350
64
  3
C9
350
65
  3
D0
350
66
  3
D1
350
67
  3
D2
350
68
  0
LAYOUT
  5
1E
102
{ACAD_REACTORS
330
1A
102
}
330
1A
100
AcDbPlotSettings
  1

  2
none_device
  4

  6

 40
0.0
 41
0.0
 42
0.0
 43
0.0
 44
0.0
 45
0.0
 46
0.0
 47
0.0
 48
0.0
 49
0.0
140
0.0
141
0.0
142
1.0
143
1.0
 70
   688
 72
     1
 73
     0
 74
     5
  7

 75
    16
147
1.0
148
0.0
149
0.0
100
AcDbLayout
  1
Layout1
 70
     1
 71
     1
 10
0.0
 20
0.0
 11
420.0
 21
297.0
 12
0.0
 22
0.0
 32
0.0
 14
1.0000000000E+20
 24
1.0000000000E+20
 34
1.0000000000E+20
 15
-1.0000000000E+20
 25
-1.0000000000E+20
 35
-1.0000000000E+20
146
0.0
 13
0.0
 23
0.0
 33
0.0
 16
1.0
 26
0.0
 36
0.0
 17
0.0
 27
1.0
 37
0.0
 76
     0
330
1B
  0
LAYOUT
  5
26
102
{ACAD_REACTORS
330
1A
102
}
330
1A
100
AcDbPlotSettings
  1

  2
none_device
  4

  6

 40
0.0
 41
0.0
 42
0.0
 43
0.0
 44
0.0
 45
0.0
 46
0.0
 47
0.0
 48
0.0
 49
0.0
140
0.0
141
0.0
142
1.0
143
1.0
 70
   688
 72
     1
 73
     0
 74
     5
  7

 75
    16
147
1.0
148
0.0
149
0.0
100
AcDbLayout
  1
Layout2
 70
     1
 71
     2
 10
0.0
 20
0.0
 11
0.0
 21
0.0
 12
0.0
 22
0.0
 32
0.0
 14
0.0
 24
0.0
 34
0.0
 15
0.0
 25
0.0
 35
0.0
146
0.0
 13
0.0
 23
0.0
 33
0.0
 16
1.0
 26
0.0
 36
0.0
 17
0.0
 27
1.0
 37
0.0
 76
     0
330
23
  0
LAYOUT
  5
22
102
{ACAD_REACTORS
330
1A
102
}
330
1A
100
AcDbPlotSettings
  1

  2
none_device
  4
Letter_(8.50_x_11.00_Inches)
  6

 40
6.35
 41
6.35
 42
6.35000508
 43
6.35000508
 44
215.9
 45
279.4
 46
0.0
 47
0.0
 48
0.0
 49
0.0
140
0.0
141
0.0
142
1.0
143
1.0
 70
  1712
 72
     1
 73
     0
 74
     0
  7

 75
     0
147
1.0
148
0.0
149
0.0
100
AcDbLayout
  1
Model
 70
     1
 71
     0
 10
0.0
 20
0.0
 11
1189.0
 21
841.0
 12
0.0
 22
0.0
 32
0.0
 14
0.0
 24
0.0
 34
0.0
 15
1189.0
 25
841.0
 35
0.0
146
0.0
 13
0.0
 23
0.0
 33
0.0
 16
1.0
 26
0.0
 36
0.0
 17
0.0
 27
1.0
 37
0.0
 76
     0
330
1F
331
29
  0
MLINESTYLE
  5
18
102
{ACAD_REACTORS
330
17
102
}
330
17
100
AcDbMlineStyle
  2
Standard
 70
     0
  3

 62
   256
 51
90.0
 52
90.0
 71
     2
 49
0.5
 62
   256
  6
BYLAYER
 49
-0.5
 62
   256
  6
BYLAYER
  0
ACDBPLACEHOLDER
  5
F
102
{ACAD_REACTORS
330
E
102
}
330
E
  0
SCALE
  5
48
102
{ACAD_REACTORS
330
47
102
}
330
47
100
AcDbScale
 70
     0
300
1:1
140
1.0
141
1.0
290
     1
  0
SCALE
  5
49
102
{ACAD_REACTORS
330
47
102
}
330
47
100
AcDbScale
 70
     0
300
1:2
140
1.0
141
2.0
290
     0
  0
SCALE
  5
4A
102
{ACAD_REACTORS
330
47
102
}
330
47
100
AcDbScale
 70
     0
300
1:4
140
1.0
141
4.0
290
     0
  0
SCALE
  5
4B
102
{ACAD_REACTORS
330
47
102
}
330
47
100
AcDbScale
 70
     0
300
1:5
140
1.0
141
5.0
290
     0
  0
SCALE
  5
4C
102
{ACAD_REACTORS
330
47
102
}
330
47
100
AcDbScale
 70
     0
300
1:8
140
1.0
141
8.0
290
     0
  0
SCALE
  5
4D
102
{ACAD_REACTORS
330
47
102
}
330
47
100
AcDbScale
 70
     0
300
1:10
140
1.0
141
10.0
290
     0
  0
SCALE
  5
4E
102
{ACAD_REACTORS
330
47
102
}
330
47
100
AcDbScale
 70
     0
300
1:16
140
1.0
141
16.0
290
     0
  0
SCALE
  5
4F
102
{ACAD_REACTORS
330
47
102
}
330
47
100
AcDbScale
 70
     0
300
1:20
140
1.0
141
20.0
290
     0
  0
SCALE
  5
50
102
{ACAD_REACTORS
330
47
102
}
330
47
100
AcDbScale
 70
     0
300
1:30
140
1.0
141
30.0
290
     0
  0
SCALE
  5
51
102
{ACAD_REACTORS
330
47
102
}
330
47
100
AcDbScale
 70
     0
300
1:40
140
1.0
141
40.0
290
     0
  0
SCALE
  5
52
102
{ACAD_REACTORS
330
47
102
}
330
47
100
AcDbScale
 70
     0
300
1:50
140
1.0
141
50.0
290
     0
  0
SCALE
  5
53
102
{ACAD_REACTORS
330
47
102
}
330
47
100
AcDbScale
 70
     0
300
1:100
140
1.0
141
100.0
290
     0
  0
SCALE
  5
54
102
{ACAD_REACTORS
330
47
102
}
330
47
100
AcDbScale
 70
     0
300
2:1
140
2.0
141
1.0
290
     0
  0
SCALE
  5
55
102
{ACAD_REACTORS
330
47
102
}
330
47
100
AcDbScale
 70
     0
300
4:1
140
4.0
141
1.0
290
     0
  0
SCALE
  5
56
102
{ACAD_REACTORS
330
47
102
}
330
47
100
AcDbScale
 70
     0
300
8:1
140
8.0
141
1.0
290
     0
  0
SCALE
  5
57
102
{ACAD_REACTORS
330
47
102
}
330
47
100
AcDbScale
 70
     0
300
10:1
140
10.0
141
1.0
290
     0
  0
SCALE
  5
58
102
{ACAD_REACTORS
330
47
102
}
330
47
100
AcDbScale
 70
     0
300
100:1
140
100.0
141
1.0
290
     0
  0
SCALE
  5
59
102
{ACAD_REACTORS
330
47
102
}
330
47
100
AcDbScale
 70
     0
300
1/128" = 1'-0"
140
0.0078125
141
12.0
290
     0
  0
SCALE
  5
5A
102
{ACAD_REACTORS
330
47
102
}
330
47
100
AcDbScale
 70
     0
300
1/64" = 1'-0"
140
0.015625
141
12.0
290
     0
  0
SCALE
  5
5B
102
{ACAD_REACTORS
330
47
102
}
330
47
100
AcDbScale
 70
     0
300
1/32" = 1'-0"
140
0.03125
141
12.0
290
     0
  0
SCALE
  5
5C
102
{ACAD_REACTORS
330
47
102
}
330
47
100
AcDbScale
 70
     0
300
1/16" = 1'-0"
140
0.0625
141
12.0
290
     0
  0
SCALE
  5
5D
102
{ACAD_REACTORS
330
47
102
}
330
47
100
AcDbScale
 70
     0
300
3/32" = 1'-0"
140
0.09375
141
12.0
290
     0
  0
SCALE
  5
5E
102
{ACAD_REACTORS
330
47
102
}
330
47
100
AcDbScale
 70
     0
300
1/8" = 1'-0"
140
0.125
141
12.0
290
     0
  0
SCALE
  5
5F
102
{ACAD_REACTORS
330
47
102
}
330
47
100
AcDbScale
 70
     0
300
3/16" = 1'-0"
140
0.1875
141
12.0
290
     0
  0
SCALE
  5
60
102
{ACAD_REACTORS
330
47
102
}
330
47
100
AcDbScale
 70
     0
300
1/4" = 1'-0"
140
0.25
141
12.0
290
     0
  0
SCALE
  5
61
102
{ACAD_REACTORS
330
47
102
}
330
47
100
AcDbScale
 70
     0
300
3/8" = 1'-0"
140
0.375
141
12.0
290
     0
  0
SCALE
  5
62
102
{ACAD_REACTORS
330
47
102
}
330
47
100
AcDbScale
 70
     0
300
1/2" = 1'-0"
140
0.5
141
12.0
290
     0
  0
SCALE
  5
63
102
{ACAD_REACTORS
330
47
102
}
330
47
100
AcDbScale
 70
     0
300
3/4" = 1'-0"
140
0.75
141
12.0
290
     0
  0
SCALE
  5
64
102
{ACAD_REACTORS
330
47
102
}
330
47
100
AcDbScale
 70
     0
300
1" = 1'-0"
140
1.0
141
12.0
290
     0
  0
SCALE
  5
65
102
{ACAD_REACTORS
330
47
102
}
330
47
100
AcDbScale
 70
     0
300
1-1/2" = 1'-0"
140
1.5
141
12.0
290
     0
  0
SCALE
  5
66
102
{ACAD_REACTORS
330
47
102
}
330
47
100
AcDbScale
 70
     0
300
3" = 1'-0"
140
3.0
141
12.0
290
     0
  0
SCALE
  5
67
102
{ACAD_REACTORS
330
47
102
}
330
47
100
AcDbScale
 70
     0
300
6" = 1'-0"
140
6.0
141
12.0
290
     0
  0
SCALE
  5
68
102
{ACAD_REACTORS
330
47
102
}
330
47
100
AcDbScale
 70
     0
300
1'-0" = 1'-0"
140
12.0
141
12.0
290
     0
  0
ENDSEC
  0
EOF
