  0
SECTION
  2
HEADER
  9
$ACADVER
  1
AC1015
  9
$ACADMAINTVER
 70
     6
  9
$DWGCODEPAGE
  3
DOS932
  9
$INSBASE
 10
0.0
 20
0.0
 30
0.0
  9
$EXTMIN
 10
0.0
 20
0.0
 30
0.0
  9
$EXTMAX
 10
1189.0
 20
841.0
 30
0.0
  9
$LIMMIN
 10
0.0
 20
0.0
  9
$LIMMAX
 10
1189.0
 20
841.0
  9
$ORTHOMODE
 70
     0
  9
$REGENMODE
 70
     1
  9
$FILLMODE
 70
     1
  9
$QTEXTMODE
 70
     0
  9
$MIRRTEXT
 70
     1
  9
$LTSCALE
 40
1.0
  9
$ATTMODE
 70
     1
  9
$TEXTSIZE
 40
4.0
  9
$TRACEWID
 40
1.0
  9
$TEXTSTYLE
  7
Standard
  9
$CLAYER
  8
0
  9
$CELTYPE
  6
ByLayer
  9
$CECOLOR
 62
   256
  9
$CELTSCALE
 40
1.0
  9
$DISPSILH
 70
     0
  9
$DIMSCALE
 40
1.0
  9
$DIMASZ
 40
3.0
  9
$DIMEXO
 40
0.0
  9
$DIMDLI
 40
3.75
  9
$DIMRND
 40
0.0
  9
$DIMDLE
 40
0.0
  9
$DIMEXE
 40
1.0
  9
$DIMTP
 40
0.0
  9
$DIMTM
 40
0.0
  9
$DIMTXT
 40
4.0
  9
$DIMCEN
 40
2.5
  9
$DIMTSZ
 40
0.0
  9
$DIMTOL
 70
     0
  9
$DIMLIM
 70
     0
  9
$DIMTIH
 70
     1
  9
$DIMTOH
 70
     1
  9
$DIMSE1
 70
     0
  9
$DIMSE2
 70
     0
  9
$DIMTAD
 70
     1
  9
$DIMZIN
 70
     0
  9
$DIMBLK
  1

  9
$DIMASO
 70
     1
  9
$DIMSHO
 70
     1
  9
$DIMPOST
  1

  9
$DIMAPOST
  1

  9
$DIMALT
 70
     0
  9
$DIMALTD
 70
     3
  9
$DIMALTF
 40
0.0393700787
  9
$DIMLFAC
 40
1.0
  9
$DIMTOFL
 70
     1
  9
$DIMTVP
 40
0.0
  9
$DIMTIX
 70
     0
  9
$DIMSOXD
 70
     0
  9
$DIMSAH
 70
     0
  9
$DIMBLK1
  1

  9
$DIMBLK2
  1

  9
$DIMSTYLE
  2
ISO-25
  9
$DIMCLRD
 70
     0
  9
$DIMCLRE
 70
     0
  9
$DIMCLRT
 70
     0
  9
$DIMTFAC
 40
1.0
  9
$DIMGAP
 40
1.0
  9
$DIMJUST
 70
     0
  9
$DIMSD1
 70
     0
  9
$DIMSD2
 70
     0
  9
$DIMTOLJ
 70
     0
  9
$DIMTZIN
 70
     0
  9
$DIMALTZ
 70
     0
  9
$DIMALTTZ
 70
     0
  9
$DIMUPT
 70
     0
  9
$DIMDEC
 70
     2
  9
$DIMTDEC
 70
     2
  9
$DIMALTU
 70
     2
  9
$DIMALTTD
 70
     3
  9
$DIMTXSTY
  7
Standard
  9
$DIMAUNIT
 70
     0
  9
$DIMADEC
 70
     2
  9
$DIMALTRND
 40
0.0
  9
$DIMAZIN
 70
     0
  9
$DIMDSEP
 70
    44
  9
$DIMATFIT
 70
     3
  9
$DIMFRAC
 70
     0
  9
$DIMLDRBLK
  1

  9
$DIMLUNIT
 70
     2
  9
$DIMLWD
 70
    -2
  9
$DIMLWE
 70
    -2
  9
$DIMTMOVE
 70
     0
  9
$LUNITS
 70
     2
  9
$LUPREC
 70
     2
  9
$SKETCHINC
 40
1.0
  9
$FILLETRAD
 40
10.0
  9
$AUNITS
 70
     0
  9
$AUPREC
 70
     2
  9
$MENU
  1
.
  9
$ELEVATION
 40
0.0
  9
$PELEVATION
 40
0.0
  9
$THICKNESS
 40
0.0
  9
$LIMCHECK
 70
     0
  9
$CHAMFERA
 40
0.0
  9
$CHAMFERB
 40
0.0
  9
$CHAMFERC
 40
0.0
  9
$CHAMFERD
 40
0.0
  9
$SKPOLY
 70
     0
  9
$TDCREATE
 40
2458827.420943958
  9
$TDUCREATE
 40
2458827.045943958
  9
$TDUPDATE
 40
2458827.420945174
  9
$TDUUPDATE
 40
2458827.045945174
  9
$TDINDWG
 40
0.0000000116
  9
$TDUSRTIMER
 40
0.0000000116
  9
$USRTIMER
 70
     1
  9
$ANGBASE
 50
0.0
  9
$ANGDIR
 70
     0
  9
$PDMODE
 70
     0
  9
$PDSIZE
 40
-1.0
  9
$PLINEWID
 40
0.0
  9
$SPLFRAME
 70
     0
  9
$SPLINETYPE
 70
     6
  9
$SPLINESEGS
 70
     8
  9
$HANDSEED
  5
3B1
  9
$SURFTAB1
 70
     6
  9
$SURFTAB2
 70
     6
  9
$SURFTYPE
 70
     6
  9
$SURFU
 70
     6
  9
$SURFV
 70
     6
  9
$UCSBASE
  2

  9
$UCSNAME
  2

  9
$UCSORG
 10
0.0
 20
0.0
 30
0.0
  9
$UCSXDIR
 10
1.0
 20
0.0
 30
0.0
  9
$UCSYDIR
 10
0.0
 20
1.0
 30
0.0
  9
$UCSORTHOREF
  2

  9
$UCSORTHOVIEW
 70
     0
  9
$UCSORGTOP
 10
0.0
 20
0.0
 30
0.0
  9
$UCSORGBOTTOM
 10
0.0
 20
0.0
 30
0.0
  9
$UCSORGLEFT
 10
0.0
 20
0.0
 30
0.0
  9
$UCSORGRIGHT
 10
0.0
 20
0.0
 30
0.0
  9
$UCSORGFRONT
 10
0.0
 20
0.0
 30
0.0
  9
$UCSORGBACK
 10
0.0
 20
0.0
 30
0.0
  9
$PUCSBASE
  2

  9
$PUCSNAME
  2

  9
$PUCSORG
 10
0.0
 20
0.0
 30
0.0
  9
$PUCSXDIR
 10
1.0
 20
0.0
 30
0.0
  9
$PUCSYDIR
 10
0.0
 20
1.0
 30
0.0
  9
$PUCSORTHOREF
  2

  9
$PUCSORTHOVIEW
 70
     0
  9
$PUCSORGTOP
 10
0.0
 20
0.0
 30
0.0
  9
$PUCSORGBOTTOM
 10
0.0
 20
0.0
 30
0.0
  9
$PUCSORGLEFT
 10
0.0
 20
0.0
 30
0.0
  9
$PUCSORGRIGHT
 10
0.0
 20
0.0
 30
0.0
  9
$PUCSORGFRONT
 10
0.0
 20
0.0
 30
0.0
  9
$PUCSORGBACK
 10
0.0
 20
0.0
 30
0.0
  9
$USERI1
 70
     0
  9
$USERI2
 70
     0
  9
$USERI3
 70
     0
  9
$USERI4
 70
     0
  9
$USERI5
 70
     0
  9
$USERR1
 40
0.0
  9
$USERR2
 40
0.0
  9
$USERR3
 40
0.0
  9
$USERR4
 40
0.0
  9
$USERR5
 40
0.0
  9
$WORLDVIEW
 70
     1
  9
$SHADEDGE
 70
     3
  9
$SHADEDIF
 70
    70
  9
$TILEMODE
 70
     1
  9
$MAXACTVP
 70
    64
  9
$PINSBASE
 10
0.0
 20
0.0
 30
0.0
  9
$PLIMCHECK
 70
     0
  9
$PEXTMIN
 10
1.0000000000E+20
 20
1.0000000000E+20
 30
1.0000000000E+20
  9
$PEXTMAX
 10
-1.0000000000E+20
 20
-1.0000000000E+20
 30
-1.0000000000E+20
  9
$PLIMMIN
 10
0.0
 20
0.0
  9
$PLIMMAX
 10
420.0
 20
297.0
  9
$UNITMODE
 70
     0
  9
$VISRETAIN
 70
     1
  9
$PLINEGEN
 70
     0
  9
$PSLTSCALE
 70
     1
  9
$TREEDEPTH
 70
  3020
  9
$CMLSTYLE
  2
Standard
  9
$CMLJUST
 70
     0
  9
$CMLSCALE
 40
20.0
  9
$PROXYGRAPHICS
 70
     1
  9
$MEASUREMENT
 70
     1
  9
$CELWEIGHT
370
    -1
  9
$ENDCAPS
280
     0
  9
$JOINSTYLE
280
     0
  9
$LWDISPLAY
290
     1
  9
$INSUNITS
 70
     4
  9
$HYPERLINKBASE
  1

  9
$STYLESHEET
  1

  9
$XEDIT
290
     1
  9
$CEPSNTYPE
380
     0
  9
$PSTYLEMODE
290
     1
  9
$FINGERPRINTGUID
  2
{DB9A4D78-F90D-431E-BAF8-4AEBC9E3C505}
  9
$VERSIONGUID
  2
{FAEB1C32-E019-11D5-929B-00C0DF256EC4}
  9
$EXTNAMES
290
     1
  9
$PSVPSCALE
 40
0.0
  9
$OLESTARTUP
290
     0
  0
ENDSEC
  0
SECTION
  2
CLASSES
  0
CLASS
  1
ACDBDICTIONARYWDFLT
  2
AcDbDictionaryWithDefault
  3
ObjectDBX Classes
 90
        0
280
     0
281
     0
  0
CLASS
  1
VISUALSTYLE
  2
AcDbVisualStyle
  3
ObjectDBX Classes
 90
     4095
280
     0
281
     0
  0
CLASS
  1
MATERIAL
  2
AcDbMaterial
  3
ObjectDBX Classes
 90
     1153
280
     0
281
     0
  0
CLASS
  1
SCALE
  2
AcDbScale
  3
ObjectDBX Classes
 90
     1153
280
     0
281
     0
  0
CLASS
  1
TABLESTYLE
  2
AcDbTableStyle
  3
ObjectDBX Classes
 90
     4095
280
     0
281
     0
  0
CLASS
  1
MLEADERSTYLE
  2
AcDbMLeaderStyle
  3
ACDB_MLEADERSTYLE_CLASS
 90
     4095
280
     0
281
     0
  0
CLASS
  1
SUN
  2
AcDbSun
  3
SCENEOE
 90
     1153
280
     0
281
     0
  0
CLASS
  1
ACDBPLACEHOLDER
  2
AcDbPlaceHolder
  3
ObjectDBX Classes
 90
        0
280
     0
281
     0
  0
CLASS
  1
LAYOUT
  2
AcDbLayout
  3
ObjectDBX Classes
 90
        0
280
     0
281
     0
  0
ENDSEC
  0
SECTION
  2
TABLES
  0
TABLE
  2
VPORT
  5
8
330
0
100
AcDbSymbolTable
 70
     1
  0
VPORT
  5
29
330
8
100
AcDbSymbolTableRecord
100
AcDbViewportTableRecord
  2
*Active
 70
     0
 10
0.0
 20
0.0
 11
1.0
 21
1.0
 12
594.5
 22
420.5
 13
0.0
 23
0.0
 14
10.0
 24
10.0
 15
10.0
 25
10.0
 16
0.0
 26
0.0
 36
1.0
 17
0.0
 27
0.0
 37
0.0
 40
841.0
 41
1.4137931034
 42
50.0
 43
0.0
 44
0.0
 50
0.0
 51
0.0
 71
     0
 72
  2000
 73
     1
 74
     3
 75
     0
 76
     0
 77
     0
 78
     0
281
     0
 65
     1
110
0.0
120
0.0
130
0.0
111
1.0
121
0.0
131
0.0
112
0.0
122
1.0
132
0.0
 79
     0
146
0.0
  0
ENDTAB
  0
TABLE
  2
LTYPE
  5
5
330
0
100
AcDbSymbolTable
 70
     6
  0
LTYPE
  5
14
330
5
100
AcDbSymbolTableRecord
100
AcDbLinetypeTableRecord
  2
ByBlock
 70
     0
  3

 72
    65
 73
     0
 40
0.0
  0
LTYPE
  5
15
330
5
100
AcDbSymbolTableRecord
100
AcDbLinetypeTableRecord
  2
ByLayer
 70
     0
  3

 72
    65
 73
     0
 40
0.0
  0
LTYPE
  5
16
330
5
100
AcDbSymbolTableRecord
100
AcDbLinetypeTableRecord
  2
Continuous
 70
     0
  3
Solid line
 72
    65
 73
     0
 40
0.0
  0
LTYPE
  5
6E
330
5
100
AcDbSymbolTableRecord
100
AcDbLinetypeTableRecord
  2
HIDDEN
 70
     0
  3
Hidden __ __ __ __ __ __ __ __ __ __ __ __ __ __
 72
    65
 73
     2
 40
1.905
 49
1.27
 74
     0
 49
-0.635
 74
     0
  0
LTYPE
  5
6F
330
5
100
AcDbSymbolTableRecord
100
AcDbLinetypeTableRecord
  2
PHANTOM
 70
     0
  3
Phantom ______  __  __  ______  __  __  ______
 72
    65
 73
     6
 40
12.7
 49
6.35
 74
     0
 49
-1.27
 74
     0
 49
1.27
 74
     0
 49
-1.27
 74
     0
 49
1.27
 74
     0
 49
-1.27
 74
     0
  0
LTYPE
  5
70
330
5
100
AcDbSymbolTableRecord
100
AcDbLinetypeTableRecord
  2
CENTER
 70
     0
  3
Center ____ _ ____ _ ____ _ ____ _ ____ _ ____
 72
    65
 73
     4
 40
10.16
 49
6.35
 74
     0
 49
-1.27
 74
     0
 49
1.27
 74
     0
 49
-1.27
 74
     0
  0
LTYPE
  5
71
330
5
100
AcDbSymbolTableRecord
100
AcDbLinetypeTableRecord
  2
CENTERX2
 70
     0
  3
Center (2x) ________  __  ________  __  _____
 72
    65
 73
     4
 40
20.32
 49
12.7
 74
     0
 49
-2.54
 74
     0
 49
2.54
 74
     0
 49
-2.54
 74
     0
  0
LTYPE
  5
72
330
5
100
AcDbSymbolTableRecord
100
AcDbLinetypeTableRecord
  2
DOT2
 70
     0
  3
Dot (.5x) ........................................
 72
    65
 73
     2
 40
0.635
 49
0.0
 74
     0
 49
-0.635
 74
     0
  0
ENDTAB
  0
TABLE
  2
LAYER
  5
2
330
0
100
AcDbSymbolTable
 70
     6
  0
LAYER
  5
10
330
2
100
AcDbSymbolTableRecord
100
AcDbLayerTableRecord
  2
0
 70
     0
 62
     7
  6
Continuous
370
    -3
390
F
  0
LAYER
  5
73
330
2
100
AcDbSymbolTableRecord
100
AcDbLayerTableRecord
  2
SLD-0
 70
     0
 62
     7
  6
Continuous
370
    -3
390
F
  0
LAYER
  5
74
330
2
100
AcDbSymbolTableRecord
100
AcDbLayerTableRecord
  2
8
 70
     0
 62
     7
  6
Continuous
370
    25
390
F
  0
LAYER
  5
75
330
2
100
AcDbSymbolTableRecord
100
AcDbLayerTableRecord
  2
9
 70
     0
 62
     7
  6
Continuous
370
    -3
390
F
  0
LAYER
  5
76
330
2
100
AcDbSymbolTableRecord
100
AcDbLayerTableRecord
  2
10
 70
     0
 62
     1
  6
Continuous
370
    -3
390
F
  0
LAYER
  5
77
330
2
100
AcDbSymbolTableRecord
100
AcDbLayerTableRecord
  2
11
 70
     0
 62
     7
  6
Continuous
370
    -3
390
F
  0
ENDTAB
  0
TABLE
  2
STYLE
  5
3
330
0
100
AcDbSymbolTable
 70
     2
  0
STYLE
  5
11
330
3
100
AcDbSymbolTableRecord
100
AcDbTextStyleTableRecord
  2
Standard
 70
     0
 40
0.0
 41
1.0
 50
0.0
 71
     0
 42
4.0
  3
txt
  4
bigfont
  0
STYLE
  5
82
330
3
100
AcDbSymbolTableRecord
100
AcDbTextStyleTableRecord
  2
SLDTEXTSTYLE0
 70
     0
 40
0.0
 41
0.7
 50
0.0
 71
     0
 42
4.0
  3
TXT
  4
bigfont
  0
ENDTAB
  0
TABLE
  2
VIEW
  5
6
330
0
100
AcDbSymbolTable
 70
     0
  0
ENDTAB
  0
TABLE
  2
UCS
  5
7
330
0
100
AcDbSymbolTable
 70
     0
  0
ENDTAB
  0
TABLE
  2
APPID
  5
9
330
0
100
AcDbSymbolTable
 70
     1
  0
APPID
  5
12
330
9
100
AcDbSymbolTableRecord
100
AcDbRegAppTableRecord
  2
ACAD
 70
     0
  0
ENDTAB
  0
TABLE
  2
DIMSTYLE
  5
A
330
0
100
AcDbSymbolTable
 70
     1
100
AcDbDimStyleTable
  0
DIMSTYLE
105
27
330
A
100
AcDbSymbolTableRecord
100
AcDbDimStyleTableRecord
  2
ISO-25
 70
     0
 41
2.5
 42
0.625
 43
3.75
 44
1.25
 73
     0
 74
     0
 77
     1
 78
     8
140
2.5
141
2.5
143
0.0393700787
147
0.625
171
     3
172
     1
178
     0
271
     2
272
     2
274
     3
278
    44
283
     0
284
     8
340
11
  0
ENDTAB
  0
TABLE
  2
BLOCK_RECORD
  5
1
330
0
100
AcDbSymbolTable
 70
     4
  0
BLOCK_RECORD
  5
1F
330
1
100
AcDbSymbolTableRecord
100
AcDbBlockTableRecord
  2
*Model_Space
340
22
  0
BLOCK_RECORD
  5
1B
330
1
100
AcDbSymbolTableRecord
100
AcDbBlockTableRecord
  2
*Paper_Space
340
1E
  0
BLOCK_RECORD
  5
23
330
1
100
AcDbSymbolTableRecord
100
AcDbBlockTableRecord
  2
*Paper_Space0
340
26
  0
BLOCK_RECORD
  5
78
330
1
100
AcDbSymbolTableRecord
100
AcDbBlockTableRecord
  2
ﾌﾞﾛｯｸ2
340
0
102
{BLKREFS
331
176
102
}
  0
BLOCK_RECORD
  5
8A
330
1
100
AcDbSymbolTableRecord
100
AcDbBlockTableRecord
  2
新SUGATSUNEロゴ
340
0
102
{BLKREFS
331
174
102
}
  0
BLOCK_RECORD
  5
168
330
1
100
AcDbSymbolTableRecord
100
AcDbBlockTableRecord
  2
ﾌﾞﾛｯｸ1
340
0
102
{BLKREFS
331
175
102
}
  0
ENDTAB
  0
ENDSEC
  0
SECTION
  2
BLOCKS
  0
BLOCK
  5
20
330
1F
100
AcDbEntity
  8
0
100
AcDbBlockBegin
  2
*Model_Space
 70
     0
 10
0.0
 20
0.0
 30
0.0
  3
*Model_Space
  1

  0
ENDBLK
  5
21
330
1F
100
AcDbEntity
  8
0
100
AcDbBlockEnd
  0
BLOCK
  5
1C
330
1B
100
AcDbEntity
 67
     1
  8
0
100
AcDbBlockBegin
  2
*Paper_Space
 70
     0
 10
0.0
 20
0.0
 30
0.0
  3
*Paper_Space
  1

  0
ENDBLK
  5
1D
330
1B
100
AcDbEntity
 67
     1
  8
0
100
AcDbBlockEnd
  0
BLOCK
  5
24
330
23
100
AcDbEntity
  8
0
100
AcDbBlockBegin
  2
*Paper_Space0
 70
     0
 10
0.0
 20
0.0
 30
0.0
  3
*Paper_Space0
  1

  0
ENDBLK
  5
25
330
23
100
AcDbEntity
  8
0
100
AcDbBlockEnd
  0
BLOCK
  5
79
330
78
100
AcDbEntity
  8
0
100
AcDbBlockBegin
  2
ﾌﾞﾛｯｸ2
 70
     2
 10
0.0
 20
0.0
 30
0.0
  3
ﾌﾞﾛｯｸ2
  1

  0
LINE
  5
7B
330
78
100
AcDbEntity
  8
8
100
AcDbLine
 10
0.0
 20
21.0
 30
0.0
 11
135.0
 21
21.0
 31
0.0
  0
LINE
  5
7C
330
78
100
AcDbEntity
  8
8
100
AcDbLine
 10
0.0
 20
0.0
 30
0.0
 11
135.0
 21
0.0
 31
0.0
  0
LINE
  5
7D
330
78
100
AcDbEntity
  8
8
100
AcDbLine
 10
135.0
 20
21.0
 30
0.0
 11
135.0
 21
0.0
 31
0.0
  0
LINE
  5
7E
330
78
100
AcDbEntity
  8
9
100
AcDbLine
 10
36.0
 20
7.0
 30
0.0
 11
135.0
 21
7.0
 31
0.0
  0
LINE
  5
7F
330
78
100
AcDbEntity
  8
9
100
AcDbLine
 10
36.0
 20
0.0
 30
0.0
 11
36.0
 21
21.0
 31
0.0
  0
LINE
  5
80
330
78
100
AcDbEntity
  8
9
100
AcDbLine
 10
65.0
 20
21.0
 30
0.0
 11
65.0
 21
0.0
 31
0.0
  0
LINE
  5
81
330
78
100
AcDbEntity
  8
8
  6
Continuous
 62
     7
100
AcDbLine
 10
0.0
 20
21.0
 30
0.0
 11
0.0
 21
0.0
 31
0.0
  0
ATTDEF
  5
83
330
78
100
AcDbEntity
  8
SLD-0
 62
     7
100
AcDbText
 10
78.3050930978
 20
15.9259892778
 30
0.0
 40
4.0
  1
J95CC-GR,J95CC-NI
 41
0.7
  7
SLDTEXTSTYLE0
 11
78.3050930978
 21
14.5129490301
 31
0.0
100
AcDbAttributeDefinition
  3

  2
AUTOATTR0
 70
     0
 74
     1
  0
ATTDEF
  5
84
330
78
100
AcDbEntity
  8
SLD-0
 62
     7
100
AcDbText
 10
78.3050930978
 20
9.8784312972
 30
0.0
 40
4.0
  1
J95CC-BC
 41
0.7
  7
SLDTEXTSTYLE0
 11
78.3050930978
 21
8.4653910495
 31
0.0
100
AcDbAttributeDefinition
  3

  2
AUTOATTR0
 70
     0
 74
     1
  0
ATTDEF
  5
85
330
78
100
AcDbEntity
  8
SLD-0
 62
     7
100
AcDbText
 10
66.9646413579
 20
16.8429035566
 30
0.0
 40
2.38125
  1
Title
 41
0.7
  7
SLDTEXTSTYLE0
 11
66.9646413579
 21
16.0017030342
 31
0.0
100
AcDbAttributeDefinition
  3

  2
AUTOATTR0
 70
     0
 74
     1
  0
ATTDEF
  5
86
330
78
100
AcDbEntity
  8
SLD-0
 62
     7
100
AcDbText
 10
66.9646413579
 20
2.4516379051
 30
0.0
 40
2.38125
  1
Date
 41
0.7
  7
SLDTEXTSTYLE0
 11
66.9646413579
 21
1.6104373826
 31
0.0
100
AcDbAttributeDefinition
  3

  2
AUTOATTR0
 70
     0
 74
     1
  0
ATTDEF
  5
87
330
78
100
AcDbEntity
  8
SLD-0
 62
     7
100
AcDbText
 10
51.857512217
 20
2.0282473934
 30
0.0
 40
4.0
  1
1:1
 41
0.7
  7
SLDTEXTSTYLE0
 11
51.857512217
 21
0.6152071457
 31
0.0
100
AcDbAttributeDefinition
  3

  2
AUTOATTR0
 70
     0
 74
     1
  0
ATTDEF
  5
88
330
78
100
AcDbEntity
  8
SLD-0
 62
     7
100
AcDbText
 10
38.4275608796
 20
2.4516379051
 30
0.0
 40
2.38125
  1
Scale
 41
0.7
  7
SLDTEXTSTYLE0
 11
38.4275608796
 21
1.6104373826
 31
0.0
100
AcDbAttributeDefinition
  3

  2
AUTOATTR0
 70
     0
 74
     1
  0
ATTDEF
  5
89
330
78
100
AcDbEntity
  8
SLD-0
 62
     7
100
AcDbText
 10
0.0
 20
0.0
 30
0.0
 40
1.0
  1

100
AcDbAttributeDefinition
  3

  2
AUTOATTR0
 70
     0
  0
INSERT
  5
174
330
78
100
AcDbEntity
  8
0
  6
Continuous
 62
     7
100
AcDbBlockReference
  2
新SUGATSUNEロゴ
 10
0.0273220162
 20
-1.67308293
 30
0.0
  0
INSERT
  5
175
330
78
100
AcDbEntity
  8
0
  6
Continuous
 62
     7
100
AcDbBlockReference
  2
ﾌﾞﾛｯｸ1
 10
39.5300077037
 20
10.3519919558
 30
0.0
  0
ENDBLK
  5
7A
330
78
100
AcDbEntity
  8
0
100
AcDbBlockEnd
  0
BLOCK
  5
8B
330
8A
100
AcDbEntity
  8
0
100
AcDbBlockBegin
  2
新SUGATSUNEロゴ
 70
     0
 10
0.0
 20
0.0
 30
0.0
  3
新SUGATSUNEロゴ
  1

  0
LINE
  5
8D
330
8A
100
AcDbEntity
  8
0
100
AcDbLine
 10
32.7336985468
 20
9.4483046908
 30
0.0
 11
31.5209513067
 21
9.4483046908
 31
0.0
  0
LINE
  5
8E
330
8A
100
AcDbEntity
  8
0
100
AcDbLine
 10
31.5209513067
 20
9.4483046908
 30
0.0
 11
31.5209513067
 21
11.8677744187
 31
0.0
  0
LINE
  5
8F
330
8A
100
AcDbEntity
  8
0
100
AcDbLine
 10
31.5209513067
 20
11.8677744187
 30
0.0
 11
32.484911708
 21
11.8677744187
 31
0.0
  0
LINE
  5
90
330
8A
100
AcDbEntity
  8
0
100
AcDbLine
 10
32.484911708
 20
11.8677744187
 30
0.0
 11
32.484911708
 21
12.7076957977
 31
0.0
  0
LINE
  5
91
330
8A
100
AcDbEntity
  8
0
100
AcDbLine
 10
32.484911708
 20
12.7076957977
 30
0.0
 11
31.5209513067
 21
12.7076957977
 31
0.0
  0
LINE
  5
92
330
8A
100
AcDbEntity
  8
0
100
AcDbLine
 10
31.5209513067
 20
12.7076957977
 30
0.0
 11
31.5209513067
 21
14.492440129
 31
0.0
  0
LINE
  5
93
330
8A
100
AcDbEntity
  8
0
100
AcDbLine
 10
31.5209513067
 20
14.492440129
 30
0.0
 11
32.5596186391
 21
14.492440129
 31
0.0
  0
LINE
  5
94
330
8A
100
AcDbEntity
  8
0
100
AcDbLine
 10
32.5596186391
 20
14.492440129
 30
0.0
 11
32.5596186391
 21
15.3325032669
 31
0.0
  0
LINE
  5
95
330
8A
100
AcDbEntity
  8
0
100
AcDbLine
 10
32.5596186391
 20
15.3325032669
 30
0.0
 11
30.6808881687
 21
15.3325032669
 31
0.0
  0
LINE
  5
96
330
8A
100
AcDbEntity
  8
0
100
AcDbLine
 10
30.6808881687
 20
15.3325032669
 30
0.0
 11
30.6808881687
 21
8.5904508131
 31
0.0
  0
LINE
  5
97
330
8A
100
AcDbEntity
  8
0
100
AcDbLine
 10
30.6808881687
 20
8.5904508131
 30
0.0
 11
32.7336985468
 21
8.5896002598
 31
0.0
  0
LINE
  5
98
330
8A
100
AcDbEntity
  8
0
100
AcDbLine
 10
32.7336985468
 20
8.5896002598
 30
0.0
 11
32.7336985468
 21
9.4483046908
 31
0.0
  0
LINE
  5
99
330
8A
100
AcDbEntity
  8
0
100
AcDbLine
 10
21.049364412
 20
15.3325032669
 30
0.0
 11
18.7355759311
 21
15.3325032669
 31
0.0
  0
LINE
  5
9A
330
8A
100
AcDbEntity
  8
0
100
AcDbLine
 10
18.7355759311
 20
15.3325032669
 30
0.0
 11
18.7355759311
 21
14.492440129
 31
0.0
  0
LINE
  5
9B
330
8A
100
AcDbEntity
  8
0
100
AcDbLine
 10
18.7355759311
 20
14.492440129
 30
0.0
 11
19.4922848461
 21
14.492440129
 31
0.0
  0
LINE
  5
9C
330
8A
100
AcDbEntity
  8
0
100
AcDbLine
 10
19.4922848461
 20
14.492440129
 30
0.0
 11
19.4922848461
 21
8.5904508131
 31
0.0
  0
LINE
  5
9D
330
8A
100
AcDbEntity
  8
0
100
AcDbLine
 10
19.4922848461
 20
8.5904508131
 30
0.0
 11
20.3323479841
 21
8.5904508131
 31
0.0
  0
LINE
  5
9E
330
8A
100
AcDbEntity
  8
0
100
AcDbLine
 10
20.3323479841
 20
8.5904508131
 30
0.0
 11
20.3323479841
 21
14.492440129
 31
0.0
  0
LINE
  5
9F
330
8A
100
AcDbEntity
  8
0
100
AcDbLine
 10
20.3323479841
 20
14.492440129
 30
0.0
 11
21.049364412
 21
14.492440129
 31
0.0
  0
LINE
  5
A0
330
8A
100
AcDbEntity
  8
0
100
AcDbLine
 10
21.049364412
 20
14.492440129
 30
0.0
 11
21.049364412
 21
15.3325032669
 31
0.0
  0
LINE
  5
A1
330
8A
100
AcDbEntity
  8
0
100
AcDbLine
 10
29.175550595
 20
15.3418593532
 30
0.0
 11
29.175550595
 21
10.4115562977
 31
0.0
  0
LINE
  5
A2
330
8A
100
AcDbEntity
  8
0
100
AcDbLine
 10
29.175550595
 20
10.4115562977
 30
0.0
 11
28.3179093556
 21
15.3418593532
 31
0.0
  0
LINE
  5
A3
330
8A
100
AcDbEntity
  8
0
100
AcDbLine
 10
28.3179093556
 20
15.3418593532
 30
0.0
 11
26.9115194818
 21
15.3418593532
 31
0.0
  0
LINE
  5
A4
330
8A
100
AcDbEntity
  8
0
100
AcDbLine
 10
26.9115194818
 20
15.3418593532
 30
0.0
 11
26.9115194818
 21
8.5904508131
 31
0.0
  0
LINE
  5
A5
330
8A
100
AcDbEntity
  8
0
100
AcDbLine
 10
26.9115194818
 20
8.5904508131
 30
0.0
 11
27.7517243787
 21
8.5904508131
 31
0.0
  0
LINE
  5
A6
330
8A
100
AcDbEntity
  8
0
100
AcDbLine
 10
27.7517243787
 20
8.5904508131
 30
0.0
 11
27.7517243787
 21
13.7348097812
 31
0.0
  0
LINE
  5
A7
330
8A
100
AcDbEntity
  8
0
100
AcDbLine
 10
27.7517243787
 20
13.7348097812
 30
0.0
 11
28.6387097068
 21
8.5883244299
 31
0.0
  0
LINE
  5
A8
330
8A
100
AcDbEntity
  8
0
100
AcDbLine
 10
28.6387097068
 20
8.5883244299
 30
0.0
 11
30.0157554918
 21
8.5904508131
 31
0.0
  0
LINE
  5
A9
330
8A
100
AcDbEntity
  8
0
100
AcDbLine
 10
30.0157554918
 20
8.5904508131
 30
0.0
 11
30.0157554918
 21
15.3418593532
 31
0.0
  0
LINE
  5
AA
330
8A
100
AcDbEntity
  8
0
100
AcDbLine
 10
30.0157554918
 20
15.3418593532
 30
0.0
 11
29.175550595
 21
15.3418593532
 31
0.0
  0
LINE
  5
AB
330
8A
100
AcDbEntity
  8
0
100
AcDbLine
 10
3.3854988525
 20
9.4534080106
 30
0.0
 11
3.292575905
 21
9.4549673583
 31
0.0
  0
LINE
  5
AC
330
8A
100
AcDbEntity
  8
0
100
AcDbLine
 10
3.292575905
 20
9.4549673583
 30
0.0
 11
3.292575905
 21
8.5959794095
 31
0.0
  0
LINE
  5
AD
330
8A
100
AcDbEntity
  8
0
100
AcDbLine
 10
3.292575905
 20
8.5959794095
 30
0.0
 11
3.4568035704
 21
8.5959794095
 31
0.0
  0
LINE
  5
AE
330
8A
100
AcDbEntity
  8
0
100
AcDbLine
 10
4.9498790008
 20
9.2970479632
 30
0.0
 11
4.9498790008
 21
9.2973314809
 31
0.0
  0
LINE
  5
AF
330
8A
100
AcDbEntity
  8
0
100
AcDbLine
 10
4.9498790008
 20
14.5159721035
 30
0.0
 11
4.9498790008
 21
15.3285340182
 31
0.0
  0
LINE
  5
B0
330
8A
100
AcDbEntity
  8
0
100
AcDbLine
 10
4.9498790008
 20
15.3285340182
 30
0.0
 11
4.6043417246
 21
15.3285340182
 31
0.0
  0
LINE
  5
B1
330
8A
100
AcDbEntity
  8
0
100
AcDbLine
 10
21.230390505
 20
9.4534080106
 30
0.0
 11
21.1375384369
 21
9.4549673583
 31
0.0
  0
LINE
  5
B2
330
8A
100
AcDbEntity
  8
0
100
AcDbLine
 10
21.1375384369
 20
9.4549673583
 30
0.0
 11
21.1375384369
 21
8.5959794095
 31
0.0
  0
LINE
  5
B3
330
8A
100
AcDbEntity
  8
0
100
AcDbLine
 10
21.1375384369
 20
8.5959794095
 30
0.0
 11
21.301553464
 21
8.5959794095
 31
0.0
  0
LINE
  5
B4
330
8A
100
AcDbEntity
  8
0
100
AcDbLine
 10
22.7946997739
 20
9.2970479632
 30
0.0
 11
22.7946997739
 21
9.2973314809
 31
0.0
  0
LINE
  5
B5
330
8A
100
AcDbEntity
  8
0
100
AcDbLine
 10
22.7946997739
 20
14.5159721035
 30
0.0
 11
22.7946997739
 21
15.3285340182
 31
0.0
  0
LINE
  5
B6
330
8A
100
AcDbEntity
  8
0
100
AcDbLine
 10
22.7946997739
 20
15.3285340182
 30
0.0
 11
22.4490916182
 21
15.3285340182
 31
0.0
  0
LINE
  5
B7
330
8A
100
AcDbEntity
  8
0
 62
     1
100
AcDbLine
 10
12.1710764777
 20
17.9278248886
 30
0.0
 11
9.7662787942
 21
17.9278248886
 31
0.0
  0
LINE
  5
B8
330
8A
100
AcDbEntity
  8
0
 62
     1
100
AcDbLine
 10
9.7662787942
 20
17.9278248886
 30
0.0
 11
9.7662787942
 21
20.3329060898
 31
0.0
  0
LINE
  5
B9
330
8A
100
AcDbEntity
  8
0
 62
     1
100
AcDbLine
 10
9.7662787942
 20
20.3329060898
 30
0.0
 11
12.1710764777
 21
20.3329060898
 31
0.0
  0
LINE
  5
BA
330
8A
100
AcDbEntity
  8
0
 62
     1
100
AcDbLine
 10
12.1710764777
 20
20.3329060898
 30
0.0
 11
12.1710764777
 21
17.9278248886
 31
0.0
  0
LINE
  5
BB
330
8A
100
AcDbEntity
  8
0
 62
     1
100
AcDbLine
 10
12.1710764777
 20
3.67
 30
0.0
 11
9.7662787942
 21
3.67
 31
0.0
  0
LINE
  5
BC
330
8A
100
AcDbEntity
  8
0
 62
     1
100
AcDbLine
 10
9.7662787942
 20
3.67
 30
0.0
 11
9.7662787942
 21
6.0749394424
 31
0.0
  0
LINE
  5
BD
330
8A
100
AcDbEntity
  8
0
 62
     1
100
AcDbLine
 10
9.7662787942
 20
6.0749394424
 30
0.0
 11
12.1710764777
 21
6.0749394424
 31
0.0
  0
LINE
  5
BE
330
8A
100
AcDbEntity
  8
0
 62
     1
100
AcDbLine
 10
12.1710764777
 20
6.0749394424
 30
0.0
 11
12.1710764777
 21
3.67
 31
0.0
  0
LINE
  5
BF
330
8A
100
AcDbEntity
  8
0
 62
     1
100
AcDbLine
 10
25.8269222715
 20
17.9278248886
 30
0.0
 11
23.422124588
 21
17.9278248886
 31
0.0
  0
LINE
  5
C0
330
8A
100
AcDbEntity
  8
0
 62
     1
100
AcDbLine
 10
23.422124588
 20
17.9278248886
 30
0.0
 11
23.422124588
 21
20.3329060898
 31
0.0
  0
LINE
  5
C1
330
8A
100
AcDbEntity
  8
0
 62
     1
100
AcDbLine
 10
23.422124588
 20
20.3329060898
 30
0.0
 11
25.8269222715
 21
20.3329060898
 31
0.0
  0
LINE
  5
C2
330
8A
100
AcDbEntity
  8
0
 62
     1
100
AcDbLine
 10
25.8269222715
 20
20.3329060898
 30
0.0
 11
25.8269222715
 21
17.9278248886
 31
0.0
  0
LINE
  5
C3
330
8A
100
AcDbEntity
  8
0
 62
     1
100
AcDbLine
 10
25.8269222715
 20
3.67
 30
0.0
 11
23.422124588
 21
3.67
 31
0.0
  0
LINE
  5
C4
330
8A
100
AcDbEntity
  8
0
 62
     1
100
AcDbLine
 10
23.422124588
 20
3.67
 30
0.0
 11
23.422124588
 21
6.0749394424
 31
0.0
  0
LINE
  5
C5
330
8A
100
AcDbEntity
  8
0
 62
     1
100
AcDbLine
 10
23.422124588
 20
6.0749394424
 30
0.0
 11
25.8269222715
 21
6.0749394424
 31
0.0
  0
LINE
  5
C6
330
8A
100
AcDbEntity
  8
0
 62
     1
100
AcDbLine
 10
25.8269222715
 20
6.0749394424
 30
0.0
 11
25.8269222715
 21
3.67
 31
0.0
  0
LINE
  5
C7
330
8A
100
AcDbEntity
  8
0
100
AcDbLine
 10
8.2465526938
 20
15.3418593532
 30
0.0
 11
7.4064186764
 21
15.3418593532
 31
0.0
  0
LINE
  5
C8
330
8A
100
AcDbEntity
  8
0
100
AcDbLine
 10
7.4064186764
 20
15.3418593532
 30
0.0
 11
7.4025203072
 21
9.7790281638
 31
0.0
  0
LINE
  5
C9
330
8A
100
AcDbEntity
  8
0
100
AcDbLine
 10
6.5577791261
 20
9.7866831435
 30
0.0
 11
6.554873069
 21
15.3418593532
 31
0.0
  0
LINE
  5
CA
330
8A
100
AcDbEntity
  8
0
100
AcDbLine
 10
6.554873069
 20
15.3418593532
 30
0.0
 11
5.7147390516
 21
15.3418593532
 31
0.0
  0
LINE
  5
CB
330
8A
100
AcDbEntity
  8
0
100
AcDbLine
 10
26.1769249525
 20
15.3418593532
 30
0.0
 11
25.3368618145
 21
15.3418593532
 31
0.0
  0
LINE
  5
CC
330
8A
100
AcDbEntity
  8
0
100
AcDbLine
 10
25.3368618145
 20
15.3418593532
 30
0.0
 11
25.3327508069
 21
9.7790281638
 31
0.0
  0
LINE
  5
CD
330
8A
100
AcDbEntity
  8
0
100
AcDbLine
 10
24.4880096259
 20
9.7866831435
 30
0.0
 11
24.4851744482
 21
15.3418593532
 31
0.0
  0
LINE
  5
CE
330
8A
100
AcDbEntity
  8
0
100
AcDbLine
 10
24.4851744482
 20
15.3418593532
 30
0.0
 11
23.6451113103
 21
15.3418593532
 31
0.0
  0
LINE
  5
CF
330
8A
100
AcDbEntity
  8
0
100
AcDbLine
 10
12.9538690271
 20
12.6636087853
 30
0.0
 11
11.909956616
 21
11.8235456473
 31
0.0
  0
LINE
  5
D0
330
8A
100
AcDbEntity
  8
0
100
AcDbLine
 10
11.909956616
 20
11.8235456473
 30
0.0
 11
14.4506301884
 21
11.8235456473
 31
0.0
  0
LINE
  5
D1
330
8A
100
AcDbEntity
  8
0
100
AcDbLine
 10
14.4506301884
 20
11.8235456473
 30
0.0
 11
14.4506301884
 21
10.4153837876
 31
0.0
  0
LINE
  5
D2
330
8A
100
AcDbEntity
  8
0
100
AcDbLine
 10
14.5099562808
 20
13.5421594598
 30
0.0
 11
15.2200265234
 21
14.0836783912
 31
0.0
  0
LINE
  5
D3
330
8A
100
AcDbEntity
  8
0
100
AcDbLine
 10
15.2916856385
 20
10.0266809316
 30
0.0
 11
15.2905515675
 21
12.6636087853
 31
0.0
  0
LINE
  5
D4
330
8A
100
AcDbEntity
  8
0
100
AcDbLine
 10
15.2905515675
 20
12.6636087853
 30
0.0
 11
12.9538690271
 21
12.6636087853
 31
0.0
  0
LINE
  5
D5
330
8A
100
AcDbEntity
  8
0
100
AcDbLine
 10
17.7875634041
 20
15.3342043735
 30
0.0
 11
16.3643042233
 21
15.3342043735
 31
0.0
  0
LINE
  5
D6
330
8A
100
AcDbEntity
  8
0
100
AcDbLine
 10
16.3643042233
 20
15.3342043735
 30
0.0
 11
15.5117663037
 21
8.5904508131
 31
0.0
  0
LINE
  5
D7
330
8A
100
AcDbEntity
  8
0
100
AcDbLine
 10
15.5117663037
 20
8.5904508131
 30
0.0
 11
16.3519003211
 21
8.5904508131
 31
0.0
  0
LINE
  5
D8
330
8A
100
AcDbEntity
  8
0
100
AcDbLine
 10
16.3519003211
 20
8.5904508131
 30
0.0
 11
16.5956547196
 21
10.5190095307
 31
0.0
  0
LINE
  5
D9
330
8A
100
AcDbEntity
  8
0
100
AcDbLine
 10
16.5956547196
 20
10.5190095307
 30
0.0
 11
17.5561420283
 21
10.5190095307
 31
0.0
  0
LINE
  5
DA
330
8A
100
AcDbEntity
  8
0
100
AcDbLine
 10
17.5561420283
 20
10.5190095307
 30
0.0
 11
17.8000381857
 21
8.5904508131
 31
0.0
  0
LINE
  5
DB
330
8A
100
AcDbEntity
  8
0
100
AcDbLine
 10
17.8000381857
 20
8.5904508131
 30
0.0
 11
18.6401722031
 21
8.5904508131
 31
0.0
  0
LINE
  5
DC
330
8A
100
AcDbEntity
  8
0
100
AcDbLine
 10
18.6401722031
 20
8.5904508131
 30
0.0
 11
17.7875634041
 21
15.3342043735
 31
0.0
  0
LINE
  5
DD
330
8A
100
AcDbEntity
  8
0
100
AcDbLine
 10
16.7253640972
 20
11.5449894431
 30
0.0
 11
17.0745162249
 21
14.306594234
 31
0.0
  0
LINE
  5
DE
330
8A
100
AcDbEntity
  8
0
100
AcDbLine
 10
17.0745162249
 20
14.306594234
 30
0.0
 11
17.4265035302
 21
11.5449894431
 31
0.0
  0
LINE
  5
DF
330
8A
100
AcDbEntity
  8
0
100
AcDbLine
 10
17.4265035302
 20
11.5449894431
 30
0.0
 11
16.7253640972
 21
11.5449894431
 31
0.0
  0
LINE
  5
E0
330
8A
100
AcDbEntity
  8
0
370
    18
100
AcDbLine
 10
32.7336985468
 20
9.4483046908
 30
0.0
 11
31.5209513067
 21
9.4483046908
 31
0.0
  0
LINE
  5
E1
330
8A
100
AcDbEntity
  8
0
370
    18
100
AcDbLine
 10
31.5209513067
 20
9.4483046908
 30
0.0
 11
31.5209513067
 21
11.8677744187
 31
0.0
  0
LINE
  5
E2
330
8A
100
AcDbEntity
  8
0
370
    18
100
AcDbLine
 10
31.5209513067
 20
11.8677744187
 30
0.0
 11
32.484911708
 21
11.8677744187
 31
0.0
  0
LINE
  5
E3
330
8A
100
AcDbEntity
  8
0
370
    18
100
AcDbLine
 10
32.484911708
 20
11.8677744187
 30
0.0
 11
32.484911708
 21
12.7076957977
 31
0.0
  0
LINE
  5
E4
330
8A
100
AcDbEntity
  8
0
370
    18
100
AcDbLine
 10
32.484911708
 20
12.7076957977
 30
0.0
 11
31.5209513067
 21
12.7076957977
 31
0.0
  0
LINE
  5
E5
330
8A
100
AcDbEntity
  8
0
370
    18
100
AcDbLine
 10
31.5209513067
 20
12.7076957977
 30
0.0
 11
31.5209513067
 21
14.492440129
 31
0.0
  0
LINE
  5
E6
330
8A
100
AcDbEntity
  8
0
370
    18
100
AcDbLine
 10
31.5209513067
 20
14.492440129
 30
0.0
 11
32.5596186391
 21
14.492440129
 31
0.0
  0
LINE
  5
E7
330
8A
100
AcDbEntity
  8
0
370
    18
100
AcDbLine
 10
32.5596186391
 20
14.492440129
 30
0.0
 11
32.5596186391
 21
15.3325032669
 31
0.0
  0
LINE
  5
E8
330
8A
100
AcDbEntity
  8
0
370
    18
100
AcDbLine
 10
32.5596186391
 20
15.3325032669
 30
0.0
 11
30.6808881687
 21
15.3325032669
 31
0.0
  0
LINE
  5
E9
330
8A
100
AcDbEntity
  8
0
370
    18
100
AcDbLine
 10
30.6808881687
 20
15.3325032669
 30
0.0
 11
30.6808881687
 21
8.5904508131
 31
0.0
  0
LINE
  5
EA
330
8A
100
AcDbEntity
  8
0
370
    18
100
AcDbLine
 10
30.6808881687
 20
8.5904508131
 30
0.0
 11
32.7336985468
 21
8.5896002598
 31
0.0
  0
LINE
  5
EB
330
8A
100
AcDbEntity
  8
0
370
    18
100
AcDbLine
 10
32.7336985468
 20
8.5896002598
 30
0.0
 11
32.7336985468
 21
9.4483046908
 31
0.0
  0
LINE
  5
EC
330
8A
100
AcDbEntity
  8
0
370
    18
100
AcDbLine
 10
21.049364412
 20
15.3325032669
 30
0.0
 11
18.7355759311
 21
15.3325032669
 31
0.0
  0
LINE
  5
ED
330
8A
100
AcDbEntity
  8
0
370
    18
100
AcDbLine
 10
18.7355759311
 20
15.3325032669
 30
0.0
 11
18.7355759311
 21
14.492440129
 31
0.0
  0
LINE
  5
EE
330
8A
100
AcDbEntity
  8
0
370
    18
100
AcDbLine
 10
18.7355759311
 20
14.492440129
 30
0.0
 11
19.4922848461
 21
14.492440129
 31
0.0
  0
LINE
  5
EF
330
8A
100
AcDbEntity
  8
0
370
    18
100
AcDbLine
 10
19.4922848461
 20
14.492440129
 30
0.0
 11
19.4922848461
 21
8.5904508131
 31
0.0
  0
LINE
  5
F0
330
8A
100
AcDbEntity
  8
0
370
    18
100
AcDbLine
 10
19.4922848461
 20
8.5904508131
 30
0.0
 11
20.3323479841
 21
8.5904508131
 31
0.0
  0
LINE
  5
F1
330
8A
100
AcDbEntity
  8
0
370
    18
100
AcDbLine
 10
20.3323479841
 20
8.5904508131
 30
0.0
 11
20.3323479841
 21
14.492440129
 31
0.0
  0
LINE
  5
F2
330
8A
100
AcDbEntity
  8
0
370
    18
100
AcDbLine
 10
20.3323479841
 20
14.492440129
 30
0.0
 11
21.049364412
 21
14.492440129
 31
0.0
  0
LINE
  5
F3
330
8A
100
AcDbEntity
  8
0
370
    18
100
AcDbLine
 10
21.049364412
 20
14.492440129
 30
0.0
 11
21.049364412
 21
15.3325032669
 31
0.0
  0
LINE
  5
F4
330
8A
100
AcDbEntity
  8
0
370
    18
100
AcDbLine
 10
29.175550595
 20
15.3418593532
 30
0.0
 11
29.175550595
 21
10.4115562977
 31
0.0
  0
LINE
  5
F5
330
8A
100
AcDbEntity
  8
0
370
    18
100
AcDbLine
 10
29.175550595
 20
10.4115562977
 30
0.0
 11
28.3179093556
 21
15.3418593532
 31
0.0
  0
LINE
  5
F6
330
8A
100
AcDbEntity
  8
0
370
    18
100
AcDbLine
 10
28.3179093556
 20
15.3418593532
 30
0.0
 11
26.9115194818
 21
15.3418593532
 31
0.0
  0
LINE
  5
F7
330
8A
100
AcDbEntity
  8
0
370
    18
100
AcDbLine
 10
26.9115194818
 20
15.3418593532
 30
0.0
 11
26.9115194818
 21
8.5904508131
 31
0.0
  0
LINE
  5
F8
330
8A
100
AcDbEntity
  8
0
370
    18
100
AcDbLine
 10
26.9115194818
 20
8.5904508131
 30
0.0
 11
27.7517243787
 21
8.5904508131
 31
0.0
  0
LINE
  5
F9
330
8A
100
AcDbEntity
  8
0
370
    18
100
AcDbLine
 10
27.7517243787
 20
8.5904508131
 30
0.0
 11
27.7517243787
 21
13.7348097812
 31
0.0
  0
LINE
  5
FA
330
8A
100
AcDbEntity
  8
0
370
    18
100
AcDbLine
 10
27.7517243787
 20
13.7348097812
 30
0.0
 11
28.6387097068
 21
8.5883244299
 31
0.0
  0
LINE
  5
FB
330
8A
100
AcDbEntity
  8
0
370
    18
100
AcDbLine
 10
28.6387097068
 20
8.5883244299
 30
0.0
 11
30.0157554918
 21
8.5904508131
 31
0.0
  0
LINE
  5
FC
330
8A
100
AcDbEntity
  8
0
370
    18
100
AcDbLine
 10
30.0157554918
 20
8.5904508131
 30
0.0
 11
30.0157554918
 21
15.3418593532
 31
0.0
  0
LINE
  5
FD
330
8A
100
AcDbEntity
  8
0
370
    18
100
AcDbLine
 10
30.0157554918
 20
15.3418593532
 30
0.0
 11
29.175550595
 21
15.3418593532
 31
0.0
  0
LINE
  5
FE
330
8A
100
AcDbEntity
  8
0
370
    18
100
AcDbLine
 10
3.3854988525
 20
9.4534080106
 30
0.0
 11
3.292575905
 21
9.4549673583
 31
0.0
  0
LINE
  5
FF
330
8A
100
AcDbEntity
  8
0
370
    18
100
AcDbLine
 10
3.292575905
 20
9.4549673583
 30
0.0
 11
3.292575905
 21
8.5959794095
 31
0.0
  0
LINE
  5
100
330
8A
100
AcDbEntity
  8
0
370
    18
100
AcDbLine
 10
3.292575905
 20
8.5959794095
 30
0.0
 11
3.4568035704
 21
8.5959794095
 31
0.0
  0
LINE
  5
101
330
8A
100
AcDbEntity
  8
0
370
    18
100
AcDbLine
 10
4.9498790008
 20
9.2970479632
 30
0.0
 11
4.9498790008
 21
9.2973314809
 31
0.0
  0
LINE
  5
102
330
8A
100
AcDbEntity
  8
0
370
    18
100
AcDbLine
 10
4.9498790008
 20
14.5159721035
 30
0.0
 11
4.9498790008
 21
15.3285340182
 31
0.0
  0
LINE
  5
103
330
8A
100
AcDbEntity
  8
0
370
    18
100
AcDbLine
 10
4.9498790008
 20
15.3285340182
 30
0.0
 11
4.6043417246
 21
15.3285340182
 31
0.0
  0
LINE
  5
104
330
8A
100
AcDbEntity
  8
0
370
    18
100
AcDbLine
 10
21.230390505
 20
9.4534080106
 30
0.0
 11
21.1375384369
 21
9.4549673583
 31
0.0
  0
LINE
  5
105
330
8A
100
AcDbEntity
  8
0
370
    18
100
AcDbLine
 10
21.1375384369
 20
9.4549673583
 30
0.0
 11
21.1375384369
 21
8.5959794095
 31
0.0
  0
LINE
  5
106
330
8A
100
AcDbEntity
  8
0
370
    18
100
AcDbLine
 10
21.1375384369
 20
8.5959794095
 30
0.0
 11
21.301553464
 21
8.5959794095
 31
0.0
  0
LINE
  5
107
330
8A
100
AcDbEntity
  8
0
370
    18
100
AcDbLine
 10
22.7946997739
 20
9.2970479632
 30
0.0
 11
22.7946997739
 21
9.2973314809
 31
0.0
  0
LINE
  5
108
330
8A
100
AcDbEntity
  8
0
370
    18
100
AcDbLine
 10
22.7946997739
 20
14.5159721035
 30
0.0
 11
22.7946997739
 21
15.3285340182
 31
0.0
  0
LINE
  5
109
330
8A
100
AcDbEntity
  8
0
370
    18
100
AcDbLine
 10
22.7946997739
 20
15.3285340182
 30
0.0
 11
22.4490916182
 21
15.3285340182
 31
0.0
  0
LINE
  5
10A
330
8A
100
AcDbEntity
  8
0
 62
     1
370
    18
100
AcDbLine
 10
12.1710764777
 20
17.9278248886
 30
0.0
 11
9.7662787942
 21
17.9278248886
 31
0.0
  0
LINE
  5
10B
330
8A
100
AcDbEntity
  8
0
 62
     1
370
    18
100
AcDbLine
 10
9.7662787942
 20
17.9278248886
 30
0.0
 11
9.7662787942
 21
20.3329060898
 31
0.0
  0
LINE
  5
10C
330
8A
100
AcDbEntity
  8
0
 62
     1
370
    18
100
AcDbLine
 10
9.7662787942
 20
20.3329060898
 30
0.0
 11
12.1710764777
 21
20.3329060898
 31
0.0
  0
LINE
  5
10D
330
8A
100
AcDbEntity
  8
0
 62
     1
370
    18
100
AcDbLine
 10
12.1710764777
 20
20.3329060898
 30
0.0
 11
12.1710764777
 21
17.9278248886
 31
0.0
  0
LINE
  5
10E
330
8A
100
AcDbEntity
  8
0
 62
     1
370
    18
100
AcDbLine
 10
12.1710764777
 20
3.67
 30
0.0
 11
9.7662787942
 21
3.67
 31
0.0
  0
LINE
  5
10F
330
8A
100
AcDbEntity
  8
0
 62
     1
370
    18
100
AcDbLine
 10
9.7662787942
 20
3.67
 30
0.0
 11
9.7662787942
 21
6.0749394424
 31
0.0
  0
LINE
  5
110
330
8A
100
AcDbEntity
  8
0
 62
     1
370
    18
100
AcDbLine
 10
9.7662787942
 20
6.0749394424
 30
0.0
 11
12.1710764777
 21
6.0749394424
 31
0.0
  0
LINE
  5
111
330
8A
100
AcDbEntity
  8
0
 62
     1
370
    18
100
AcDbLine
 10
12.1710764777
 20
6.0749394424
 30
0.0
 11
12.1710764777
 21
3.67
 31
0.0
  0
LINE
  5
112
330
8A
100
AcDbEntity
  8
0
 62
     1
370
    18
100
AcDbLine
 10
25.8269222715
 20
17.9278248886
 30
0.0
 11
23.422124588
 21
17.9278248886
 31
0.0
  0
LINE
  5
113
330
8A
100
AcDbEntity
  8
0
 62
     1
370
    18
100
AcDbLine
 10
23.422124588
 20
17.9278248886
 30
0.0
 11
23.422124588
 21
20.3329060898
 31
0.0
  0
LINE
  5
114
330
8A
100
AcDbEntity
  8
0
 62
     1
370
    18
100
AcDbLine
 10
23.422124588
 20
20.3329060898
 30
0.0
 11
25.8269222715
 21
20.3329060898
 31
0.0
  0
LINE
  5
115
330
8A
100
AcDbEntity
  8
0
 62
     1
370
    18
100
AcDbLine
 10
25.8269222715
 20
20.3329060898
 30
0.0
 11
25.8269222715
 21
17.9278248886
 31
0.0
  0
LINE
  5
116
330
8A
100
AcDbEntity
  8
0
 62
     1
370
    18
100
AcDbLine
 10
25.8269222715
 20
3.67
 30
0.0
 11
23.422124588
 21
3.67
 31
0.0
  0
LINE
  5
117
330
8A
100
AcDbEntity
  8
0
 62
     1
370
    18
100
AcDbLine
 10
23.422124588
 20
3.67
 30
0.0
 11
23.422124588
 21
6.0749394424
 31
0.0
  0
LINE
  5
118
330
8A
100
AcDbEntity
  8
0
 62
     1
370
    18
100
AcDbLine
 10
23.422124588
 20
6.0749394424
 30
0.0
 11
25.8269222715
 21
6.0749394424
 31
0.0
  0
LINE
  5
119
330
8A
100
AcDbEntity
  8
0
 62
     1
370
    18
100
AcDbLine
 10
25.8269222715
 20
6.0749394424
 30
0.0
 11
25.8269222715
 21
3.67
 31
0.0
  0
LINE
  5
11A
330
8A
100
AcDbEntity
  8
0
370
    18
100
AcDbLine
 10
8.2465526938
 20
15.3418593532
 30
0.0
 11
7.4064186764
 21
15.3418593532
 31
0.0
  0
LINE
  5
11B
330
8A
100
AcDbEntity
  8
0
370
    18
100
AcDbLine
 10
7.4064186764
 20
15.3418593532
 30
0.0
 11
7.4025203072
 21
9.7790281638
 31
0.0
  0
LINE
  5
11C
330
8A
100
AcDbEntity
  8
0
370
    18
100
AcDbLine
 10
6.5577791261
 20
9.7866831435
 30
0.0
 11
6.554873069
 21
15.3418593532
 31
0.0
  0
LINE
  5
11D
330
8A
100
AcDbEntity
  8
0
370
    18
100
AcDbLine
 10
6.554873069
 20
15.3418593532
 30
0.0
 11
5.7147390516
 21
15.3418593532
 31
0.0
  0
LINE
  5
11E
330
8A
100
AcDbEntity
  8
0
370
    18
100
AcDbLine
 10
26.1769249525
 20
15.3418593532
 30
0.0
 11
25.3368618145
 21
15.3418593532
 31
0.0
  0
LINE
  5
11F
330
8A
100
AcDbEntity
  8
0
370
    18
100
AcDbLine
 10
25.3368618145
 20
15.3418593532
 30
0.0
 11
25.3327508069
 21
9.7790281638
 31
0.0
  0
LINE
  5
120
330
8A
100
AcDbEntity
  8
0
370
    18
100
AcDbLine
 10
24.4880096259
 20
9.7866831435
 30
0.0
 11
24.4851744482
 21
15.3418593532
 31
0.0
  0
LINE
  5
121
330
8A
100
AcDbEntity
  8
0
370
    18
100
AcDbLine
 10
24.4851744482
 20
15.3418593532
 30
0.0
 11
23.6451113103
 21
15.3418593532
 31
0.0
  0
LINE
  5
122
330
8A
100
AcDbEntity
  8
0
370
    18
100
AcDbLine
 10
12.9538690271
 20
12.6636087853
 30
0.0
 11
11.909956616
 21
11.8235456473
 31
0.0
  0
LINE
  5
123
330
8A
100
AcDbEntity
  8
0
370
    18
100
AcDbLine
 10
11.909956616
 20
11.8235456473
 30
0.0
 11
14.4506301884
 21
11.8235456473
 31
0.0
  0
LINE
  5
124
330
8A
100
AcDbEntity
  8
0
370
    18
100
AcDbLine
 10
14.4506301884
 20
11.8235456473
 30
0.0
 11
14.4506301884
 21
10.4153837876
 31
0.0
  0
LINE
  5
125
330
8A
100
AcDbEntity
  8
0
370
    18
100
AcDbLine
 10
14.5099562808
 20
13.5421594598
 30
0.0
 11
15.2200265234
 21
14.0836783912
 31
0.0
  0
LINE
  5
126
330
8A
100
AcDbEntity
  8
0
370
    18
100
AcDbLine
 10
15.2916856385
 20
10.0266809316
 30
0.0
 11
15.2905515675
 21
12.6636087853
 31
0.0
  0
LINE
  5
127
330
8A
100
AcDbEntity
  8
0
370
    18
100
AcDbLine
 10
15.2905515675
 20
12.6636087853
 30
0.0
 11
12.9538690271
 21
12.6636087853
 31
0.0
  0
LINE
  5
128
330
8A
100
AcDbEntity
  8
0
370
    18
100
AcDbLine
 10
17.7875634041
 20
15.3342043735
 30
0.0
 11
16.3643042233
 21
15.3342043735
 31
0.0
  0
LINE
  5
129
330
8A
100
AcDbEntity
  8
0
370
    18
100
AcDbLine
 10
16.3643042233
 20
15.3342043735
 30
0.0
 11
15.5117663037
 21
8.5904508131
 31
0.0
  0
LINE
  5
12A
330
8A
100
AcDbEntity
  8
0
370
    18
100
AcDbLine
 10
15.5117663037
 20
8.5904508131
 30
0.0
 11
16.3519003211
 21
8.5904508131
 31
0.0
  0
LINE
  5
12B
330
8A
100
AcDbEntity
  8
0
370
    18
100
AcDbLine
 10
16.3519003211
 20
8.5904508131
 30
0.0
 11
16.5956547196
 21
10.5190095307
 31
0.0
  0
LINE
  5
12C
330
8A
100
AcDbEntity
  8
0
370
    18
100
AcDbLine
 10
16.5956547196
 20
10.5190095307
 30
0.0
 11
17.5561420283
 21
10.5190095307
 31
0.0
  0
LINE
  5
12D
330
8A
100
AcDbEntity
  8
0
370
    18
100
AcDbLine
 10
17.5561420283
 20
10.5190095307
 30
0.0
 11
17.8000381857
 21
8.5904508131
 31
0.0
  0
LINE
  5
12E
330
8A
100
AcDbEntity
  8
0
370
    18
100
AcDbLine
 10
17.8000381857
 20
8.5904508131
 30
0.0
 11
18.6401722031
 21
8.5904508131
 31
0.0
  0
LINE
  5
12F
330
8A
100
AcDbEntity
  8
0
370
    18
100
AcDbLine
 10
18.6401722031
 20
8.5904508131
 30
0.0
 11
17.7875634041
 21
15.3342043735
 31
0.0
  0
LINE
  5
130
330
8A
100
AcDbEntity
  8
0
370
    18
100
AcDbLine
 10
16.7253640972
 20
11.5449894431
 30
0.0
 11
17.0745162249
 21
14.306594234
 31
0.0
  0
LINE
  5
131
330
8A
100
AcDbEntity
  8
0
370
    18
100
AcDbLine
 10
17.0745162249
 20
14.306594234
 30
0.0
 11
17.4265035302
 21
11.5449894431
 31
0.0
  0
LINE
  5
132
330
8A
100
AcDbEntity
  8
0
370
    18
100
AcDbLine
 10
17.4265035302
 20
11.5449894431
 30
0.0
 11
16.7253640972
 21
11.5449894431
 31
0.0
  0
SPLINE
  5
133
330
8A
100
AcDbEntity
  8
0
370
    18
100
AcDbSpline
210
0.0
220
0.0
230
1.0
 70
     8
 71
     3
 72
     8
 73
     4
 74
     0
 42
0.000000001
 43
0.00000001
 40
0.0
 40
0.0
 40
0.0
 40
0.0
 40
1.0
 40
1.0
 40
1.0
 40
1.0
 10
3.610044922460022
 20
12.39688944776983
 30
0.0
 10
4.129095070897104
 20
11.47510231402356
 30
0.0
 10
4.338118543209125
 20
11.01807167669972
 30
0.0
 10
4.392341315782439
 20
10.69273504125985
 30
0.0
  0
SPLINE
  5
134
330
8A
100
AcDbEntity
  8
0
100
AcDbSpline
210
0.0
220
0.0
230
1.0
 70
     8
 71
     3
 72
     8
 73
     4
 74
     0
 42
0.000000001
 43
0.00000001
 40
0.0
 40
0.0
 40
0.0
 40
0.0
 40
1.0
 40
1.0
 40
1.0
 40
1.0
 10
3.456803570429299
 20
8.59597940954257
 30
0.0
 10
4.008670900175461
 20
8.625890533759485
 30
0.0
 10
4.525665544815639
 20
8.733627284493354
 30
0.0
 10
4.949879000830379
 20
9.297047963166914
 30
0.0
  0
SPLINE
  5
135
330
8A
100
AcDbEntity
  8
0
370
    18
100
AcDbSpline
210
0.0
220
0.0
230
1.0
 70
     8
 71
     3
 72
     8
 73
     4
 74
     0
 42
0.000000001
 43
0.00000001
 40
1.0
 40
1.0
 40
1.0
 40
1.0
 40
2.0
 40
2.0
 40
2.0
 40
2.0
 10
4.392341315782439
 20
10.69273504125985
 30
0.0
 10
4.44656408835575
 20
10.36732752637871
 30
0.0
 10
4.45662896901642
 20
9.982593919152642
 30
0.0
 10
4.129095070897104
 20
9.654989141592026
 30
0.0
  0
SPLINE
  5
136
330
8A
100
AcDbEntity
  8
0
100
AcDbSpline
210
0.0
220
0.0
230
1.0
 70
     8
 71
     3
 72
     8
 73
     4
 74
     0
 42
0.000000001
 43
0.00000001
 40
0.0
 40
0.0
 40
0.0
 40
0.0
 40
1.0
 40
1.0
 40
1.0
 40
1.0
 10
21.30155346402704
 20
8.59597940954257
 30
0.0
 10
21.85327903489065
 20
8.625890533759485
 30
0.0
 10
22.37041543841338
 20
8.733627284493354
 30
0.0
 10
22.79469977386939
 20
9.297047963166914
 30
0.0
  0
SPLINE
  5
137
330
8A
100
AcDbEntity
  8
0
370
    18
100
AcDbSpline
210
0.0
220
0.0
230
1.0
 70
     8
 71
     2
 72
     6
 73
     3
 74
     0
 42
0.000000001
 43
0.00000001
 40
2.0
 40
2.0
 40
2.0
 40
3.0
 40
3.0
 40
3.0
 10
4.129095070897104
 20
9.654989141592026
 30
0.0
 10
3.919858960261265
 20
9.445611272073664
 30
0.0
 10
3.385498852509362
 20
9.453408010613625
 30
0.0
  0
SPLINE
  5
138
330
8A
100
AcDbEntity
  8
0
370
    18
100
AcDbSpline
210
0.0
220
0.0
230
1.0
 70
     8
 71
     3
 72
     8
 73
     4
 74
     0
 42
0.000000001
 43
0.00000001
 40
6.0
 40
6.0
 40
6.0
 40
6.0
 40
7.0
 40
7.0
 40
7.0
 40
7.0
 10
3.456803570429299
 20
8.59597940954257
 30
0.0
 10
4.008670900175461
 20
8.625890533759485
 30
0.0
 10
4.525665544815639
 20
8.733627284493354
 30
0.0
 10
4.949879000830379
 20
9.297047963166914
 30
0.0
  0
SPLINE
  5
139
330
8A
100
AcDbEntity
  8
0
100
AcDbSpline
210
0.0
220
0.0
230
1.0
 70
     8
 71
     2
 72
     6
 73
     3
 74
     0
 42
0.000000001
 43
0.00000001
 40
0.0
 40
0.0
 40
0.0
 40
1.0
 40
1.0
 40
1.0
 10
14.45063018841125
 20
10.41538378756133
 30
0.0
 10
14.35969186525889
 20
10.27064796848328
 30
0.0
 10
14.18199710598922
 20
10.09600102518832
 30
0.0
  0
SPLINE
  5
13A
330
8A
100
AcDbEntity
  8
0
370
    18
100
AcDbSpline
210
0.0
220
0.0
230
1.0
 70
     8
 71
     3
 72
     8
 73
     4
 74
     0
 42
0.000000001
 43
0.00000001
 40
8.0
 40
8.0
 40
8.0
 40
8.0
 40
9.0
 40
9.0
 40
9.0
 40
9.0
 10
4.949879000830379
 20
9.297331480932005
 30
0.0
 10
5.118713829941009
 20
9.538605099022927
 30
0.0
 10
5.231270382681425
 20
9.822689899642315
 30
0.0
 10
5.267560656612845
 20
10.088629563296
 30
0.0
  0
SPLINE
  5
13B
330
8A
100
AcDbEntity
  8
0
370
    18
100
AcDbSpline
210
0.0
220
0.0
230
1.0
 70
     8
 71
     3
 72
     8
 73
     4
 74
     0
 42
0.000000001
 43
0.00000001
 40
9.0
 40
9.0
 40
9.0
 40
9.0
 40
10.0
 40
10.0
 40
10.0
 40
10.0
 10
5.267560656612845
 20
10.088629563296
 30
0.0
 10
5.314057570087478
 20
10.42941791693324
 30
0.0
 10
5.252038058974208
 20
10.71612525687973
 30
0.0
 10
5.182363568203539
 20
11.01041669704231
 30
0.0
  0
SPLINE
  5
13C
330
8A
100
AcDbEntity
  8
0
370
    18
100
AcDbSpline
210
0.0
220
0.0
230
1.0
 70
     8
 71
     3
 72
     8
 73
     4
 74
     0
 42
0.000000001
 43
0.00000001
 40
10.0
 40
10.0
 40
10.0
 40
10.0
 40
11.0
 40
11.0
 40
11.0
 40
11.0
 10
5.182363568203539
 20
11.01041669704231
 30
0.0
 10
5.137851279084528
 20
11.19796369864881
 30
0.0
 10
4.872478650961024
 20
11.82099398743238
 30
0.0
 10
4.833849355467621
 20
11.90122951495261
 30
0.0
  0
SPLINE
  5
13D
330
8A
100
AcDbEntity
  8
0
370
    18
100
AcDbSpline
210
0.0
220
0.0
230
1.0
 70
     8
 71
     3
 72
     8
 73
     4
 74
     0
 42
0.000000001
 43
0.00000001
 40
11.0
 40
11.0
 40
11.0
 40
11.0
 40
12.0
 40
12.0
 40
12.0
 40
12.0
 10
4.833849355467621
 20
11.90122951495261
 30
0.0
 10
4.648145219334186
 20
12.28582136329613
 30
0.0
 10
4.291692509175768
 20
12.88482352148837
 30
0.0
 10
4.175521104930461
 20
13.22568275456688
 30
0.0
  0
SPLINE
  5
13E
330
8A
100
AcDbEntity
  8
0
370
    18
100
AcDbSpline
210
0.0
220
0.0
230
1.0
 70
     8
 71
     3
 72
     8
 73
     4
 74
     0
 42
0.000000001
 43
0.00000001
 40
12.0
 40
12.0
 40
12.0
 40
12.0
 40
13.0
 40
13.0
 40
13.0
 40
13.0
 10
4.175521104930461
 20
13.22568275456688
 30
0.0
 10
4.059349700685156
 20
13.56640022876286
 30
0.0
 10
4.098049875619833
 20
13.97693395261202
 30
0.0
 10
4.160069386733099
 20
14.14711549110683
 30
0.0
  0
SPLINE
  5
13F
330
8A
100
AcDbEntity
  8
0
370
    18
100
AcDbSpline
210
0.0
220
0.0
230
1.0
 70
     8
 71
     3
 72
     8
 73
     4
 74
     0
 42
0.000000001
 43
0.00000001
 40
13.0
 40
13.0
 40
13.0
 40
13.0
 40
14.0
 40
14.0
 40
14.0
 40
14.0
 10
4.160069386733099
 20
14.14711549110683
 30
0.0
 10
4.222018018405095
 20
14.31750966792545
 30
0.0
 10
4.40006717488112
 20
14.46493890577188
 30
0.0
 10
4.578258090239689
 20
14.50349732182399
 30
0.0
  0
SPLINE
  5
140
330
8A
100
AcDbEntity
  8
0
370
    18
100
AcDbSpline
210
0.0
220
0.0
230
1.0
 70
     8
 71
     3
 72
     8
 73
     4
 74
     0
 42
0.000000001
 43
0.00000001
 40
14.0
 40
14.0
 40
14.0
 40
14.0
 40
15.0
 40
15.0
 40
15.0
 40
15.0
 10
4.578258090239689
 20
14.50349732182399
 30
0.0
 10
4.678694258522547
 20
14.52539906917713
 30
0.0
 10
4.815845977384454
 20
14.52242213264369
 30
0.0
 10
4.949879000830379
 20
14.51597210348793
 30
0.0
  0
SPLINE
  5
141
330
8A
100
AcDbEntity
  8
0
370
    18
100
AcDbSpline
210
0.0
220
0.0
230
1.0
 70
     8
 71
     3
 72
     8
 73
     4
 74
     0
 42
0.000000001
 43
0.00000001
 40
17.0
 40
17.0
 40
17.0
 40
17.0
 40
18.0
 40
18.0
 40
18.0
 40
18.0
 10
4.604341724627901
 20
15.3285340182336
 30
0.0
 10
4.293818892413936
 20
15.3285340182336
 30
0.0
 10
3.922056222940704
 20
15.17954543267921
 30
0.0
 10
3.648886856277244
 20
14.89078258893584
 30
0.0
  0
SPLINE
  5
142
330
8A
100
AcDbEntity
  8
0
370
    18
100
AcDbSpline
210
0.0
220
0.0
230
1.0
 70
     8
 71
     3
 72
     8
 73
     4
 74
     0
 42
0.000000001
 43
0.00000001
 40
18.0
 40
18.0
 40
18.0
 40
18.0
 40
19.0
 40
19.0
 40
19.0
 40
19.0
 10
3.648886856277244
 20
14.89078258893584
 30
0.0
 10
3.355091572203543
 20
14.5804723950457
 30
0.0
 10
3.176404500756066
 20
14.23252521783996
 30
0.0
 10
3.230627273329383
 20
13.57412608786154
 30
0.0
  0
SPLINE
  5
143
330
8A
100
AcDbEntity
  8
0
370
    18
100
AcDbSpline
210
0.0
220
0.0
230
1.0
 70
     8
 71
     3
 72
     8
 73
     4
 74
     0
 42
0.000000001
 43
0.00000001
 40
19.0
 40
19.0
 40
19.0
 40
19.0
 40
20.0
 40
20.0
 40
20.0
 40
20.0
 10
3.230627273329383
 20
13.57412608786154
 30
0.0
 10
3.261530709724104
 20
13.17124734366976
 30
0.0
 10
3.356792678794077
 20
12.84683214096644
 30
0.0
 10
3.610044922460022
 20
12.39688944776983
 30
0.0
  0
SPLINE
  5
144
330
8A
100
AcDbEntity
  8
0
370
    18
100
AcDbSpline
210
0.0
220
0.0
230
1.0
 70
     8
 71
     3
 72
     8
 73
     4
 74
     0
 42
0.000000001
 43
0.00000001
 40
0.0
 40
0.0
 40
0.0
 40
0.0
 40
1.0
 40
1.0
 40
1.0
 40
1.0
 10
21.45465305717521
 20
12.39688944776983
 30
0.0
 10
21.97377408505358
 20
11.47510231402356
 30
0.0
 10
22.18301019568941
 20
11.01807167669972
 30
0.0
 10
22.23716208882146
 20
10.69273504125985
 30
0.0
  0
SPLINE
  5
145
330
8A
100
AcDbEntity
  8
0
370
    18
100
AcDbSpline
210
0.0
220
0.0
230
1.0
 70
     8
 71
     3
 72
     8
 73
     4
 74
     0
 42
0.000000001
 43
0.00000001
 40
1.0
 40
1.0
 40
1.0
 40
1.0
 40
2.0
 40
2.0
 40
2.0
 40
2.0
 10
22.23716208882146
 20
10.69273504125985
 30
0.0
 10
22.29117222307095
 20
10.36732752637871
 30
0.0
 10
22.30137886261416
 20
9.982593919152642
 30
0.0
 10
21.97377408505358
 20
9.654989141592026
 30
0.0
  0
SPLINE
  5
146
330
8A
100
AcDbEntity
  8
0
370
    18
100
AcDbSpline
210
0.0
220
0.0
230
1.0
 70
     8
 71
     2
 72
     6
 73
     3
 74
     0
 42
0.000000001
 43
0.00000001
 40
2.0
 40
2.0
 40
2.0
 40
3.0
 40
3.0
 40
3.0
 10
21.97377408505358
 20
9.654989141592026
 30
0.0
 10
21.76453797441773
 20
9.445611272073664
 30
0.0
 10
21.23039050498965
 20
9.453408010613625
 30
0.0
  0
SPLINE
  5
147
330
8A
100
AcDbEntity
  8
0
370
    18
100
AcDbSpline
210
0.0
220
0.0
230
1.0
 70
     8
 71
     3
 72
     8
 73
     4
 74
     0
 42
0.000000001
 43
0.00000001
 40
6.0
 40
6.0
 40
6.0
 40
6.0
 40
7.0
 40
7.0
 40
7.0
 40
7.0
 10
21.30155346402704
 20
8.59597940954257
 30
0.0
 10
21.85327903489065
 20
8.625890533759485
 30
0.0
 10
22.37041543841338
 20
8.733627284493354
 30
0.0
 10
22.79469977386939
 20
9.297047963166914
 30
0.0
  0
SPLINE
  5
148
330
8A
100
AcDbEntity
  8
0
370
    18
100
AcDbSpline
210
0.0
220
0.0
230
1.0
 70
     8
 71
     3
 72
     8
 73
     4
 74
     0
 42
0.000000001
 43
0.00000001
 40
8.0
 40
8.0
 40
8.0
 40
8.0
 40
9.0
 40
9.0
 40
9.0
 40
9.0
 10
22.79469977386939
 20
9.297331480932005
 30
0.0
 10
22.96353460298002
 20
9.538605099022927
 30
0.0
 10
23.07609115572044
 20
9.822689899642315
 30
0.0
 10
23.11238142965186
 20
10.088629563296
 30
0.0
  0
SPLINE
  5
149
330
8A
100
AcDbEntity
  8
0
370
    18
100
AcDbSpline
210
0.0
220
0.0
230
1.0
 70
     8
 71
     3
 72
     8
 73
     4
 74
     0
 42
0.000000001
 43
0.00000001
 40
9.0
 40
9.0
 40
9.0
 40
9.0
 40
10.0
 40
10.0
 40
10.0
 40
10.0
 10
23.11238142965186
 20
10.088629563296
 30
0.0
 10
23.15887834312649
 20
10.42941791693324
 30
0.0
 10
23.09678795257196
 20
10.71612525687973
 30
0.0
 10
23.02704258236
 20
11.01041669704231
 30
0.0
  0
SPLINE
  5
14A
330
8A
100
AcDbEntity
  8
0
370
    18
100
AcDbSpline
210
0.0
220
0.0
230
1.0
 70
     8
 71
     3
 72
     8
 73
     4
 74
     0
 42
0.000000001
 43
0.00000001
 40
10.0
 40
10.0
 40
10.0
 40
10.0
 40
11.0
 40
11.0
 40
11.0
 40
11.0
 10
23.02704258236
 20
11.01041669704231
 30
0.0
 10
22.982530293241
 20
11.19796369864881
 30
0.0
 10
22.7171576651175
 20
11.82099398743238
 30
0.0
 10
22.67859924906536
 20
11.90122951495261
 30
0.0
  0
SPLINE
  5
14B
330
8A
100
AcDbEntity
  8
0
370
    18
100
AcDbSpline
210
0.0
220
0.0
230
1.0
 70
     8
 71
     3
 72
     8
 73
     4
 74
     0
 42
0.000000001
 43
0.00000001
 40
11.0
 40
11.0
 40
11.0
 40
11.0
 40
12.0
 40
12.0
 40
12.0
 40
12.0
 10
22.67859924906536
 20
11.90122951495261
 30
0.0
 10
22.49289511293193
 20
12.28582136329613
 30
0.0
 10
22.13651328221478
 20
12.88482352148837
 30
0.0
 10
22.02041275741075
 20
13.22568275456688
 30
0.0
  0
SPLINE
  5
14C
330
8A
100
AcDbEntity
  8
0
370
    18
100
AcDbSpline
210
0.0
220
0.0
230
1.0
 70
     8
 71
     3
 72
     8
 73
     4
 74
     0
 42
0.000000001
 43
0.00000001
 40
12.0
 40
12.0
 40
12.0
 40
12.0
 40
13.0
 40
13.0
 40
13.0
 40
13.0
 10
22.02041275741075
 20
13.22568275456688
 30
0.0
 10
21.90417047372417
 20
13.56640022876286
 30
0.0
 10
21.9427288897763
 20
13.97693395261202
 30
0.0
 10
22.00467752144829
 20
14.14711549110683
 30
0.0
  0
SPLINE
  5
14D
330
8A
100
AcDbEntity
  8
0
370
    18
100
AcDbSpline
210
0.0
220
0.0
230
1.0
 70
     8
 71
     3
 72
     8
 73
     4
 74
     0
 42
0.000000001
 43
0.00000001
 40
13.0
 40
13.0
 40
13.0
 40
13.0
 40
14.0
 40
14.0
 40
14.0
 40
14.0
 10
22.00467752144829
 20
14.14711549110683
 30
0.0
 10
22.06676791200283
 20
14.31750966792545
 30
0.0
 10
22.24481706847886
 20
14.46493890577188
 30
0.0
 10
22.42286622495489
 20
14.50349732182399
 30
0.0
  0
SPLINE
  5
14E
330
8A
100
AcDbEntity
  8
0
370
    18
100
AcDbSpline
210
0.0
220
0.0
230
1.0
 70
     8
 71
     3
 72
     8
 73
     4
 74
     0
 42
0.000000001
 43
0.00000001
 40
14.0
 40
14.0
 40
14.0
 40
14.0
 40
15.0
 40
15.0
 40
15.0
 40
15.0
 10
22.42286622495489
 20
14.50349732182399
 30
0.0
 10
22.52351503156157
 20
14.52539906917713
 30
0.0
 10
22.6605958709822
 20
14.52242213264369
 30
0.0
 10
22.79469977386939
 20
14.51597210348793
 30
0.0
  0
SPLINE
  5
14F
330
8A
100
AcDbEntity
  8
0
370
    18
100
AcDbSpline
210
0.0
220
0.0
230
1.0
 70
     8
 71
     3
 72
     8
 73
     4
 74
     0
 42
0.000000001
 43
0.00000001
 40
17.0
 40
17.0
 40
17.0
 40
17.0
 40
18.0
 40
18.0
 40
18.0
 40
18.0
 10
22.44909161822564
 20
15.3285340182336
 30
0.0
 10
22.13849790657041
 20
15.3285340182336
 30
0.0
 10
21.76680611653844
 20
15.17954543267921
 30
0.0
 10
21.49363674987499
 20
14.89078258893584
 30
0.0
  0
SPLINE
  5
150
330
8A
100
AcDbEntity
  8
0
370
    18
100
AcDbSpline
210
0.0
220
0.0
230
1.0
 70
     8
 71
     3
 72
     8
 73
     4
 74
     0
 42
0.000000001
 43
0.00000001
 40
18.0
 40
18.0
 40
18.0
 40
18.0
 40
19.0
 40
19.0
 40
19.0
 40
19.0
 10
21.49363674987499
 20
14.89078258893584
 30
0.0
 10
21.19977058636001
 20
14.5804723950457
 30
0.0
 10
21.02115439435381
 20
14.23252521783996
 30
0.0
 10
21.07530628748584
 20
13.57412608786154
 30
0.0
  0
SPLINE
  5
151
330
8A
100
AcDbEntity
  8
0
370
    18
100
AcDbSpline
210
0.0
220
0.0
230
1.0
 70
     8
 71
     3
 72
     8
 73
     4
 74
     0
 42
0.000000001
 43
0.00000001
 40
19.0
 40
19.0
 40
19.0
 40
19.0
 40
20.0
 40
20.0
 40
20.0
 40
20.0
 10
21.07530628748584
 20
13.57412608786154
 30
0.0
 10
21.10620972388057
 20
13.17124734366976
 30
0.0
 10
21.20147169295055
 20
12.84683214096644
 30
0.0
 10
21.45465305717521
 20
12.39688944776983
 30
0.0
  0
SPLINE
  5
152
330
8A
100
AcDbEntity
  8
0
370
    18
100
AcDbSpline
210
0.0
220
0.0
230
1.0
 70
     8
 71
     3
 72
     8
 73
     4
 74
     0
 42
0.000000001
 43
0.00000001
 40
2.0
 40
2.0
 40
2.0
 40
2.0
 40
3.0
 40
3.0
 40
3.0
 40
3.0
 10
7.402520307175909
 20
9.779028163818586
 30
0.0
 10
7.391392234896158
 20
9.555332647163173
 30
0.0
 10
7.206893049264348
 20
9.376999972922052
 30
0.0
 10
6.980291475516796
 20
9.376999972922052
 30
0.0
  0
SPLINE
  5
153
330
8A
100
AcDbEntity
  8
0
370
    18
100
AcDbSpline
210
0.0
220
0.0
230
1.0
 70
     8
 71
     3
 72
     8
 73
     4
 74
     0
 42
0.000000001
 43
0.00000001
 40
3.0
 40
3.0
 40
3.0
 40
3.0
 40
4.0
 40
4.0
 40
4.0
 40
4.0
 10
6.980291475516796
 20
9.376999972922052
 30
0.0
 10
6.751138241883437
 20
9.376999972922052
 30
0.0
 10
6.564937949661092
 20
9.559301895874432
 30
0.0
 10
6.557779126092594
 20
9.786683143475988
 30
0.0
  0
SPLINE
  5
154
330
8A
100
AcDbEntity
  8
0
370
    18
100
AcDbSpline
210
0.0
220
0.0
230
1.0
 70
     8
 71
     2
 72
     6
 73
     3
 74
     0
 42
0.000000001
 43
0.00000001
 40
6.0
 40
6.0
 40
6.0
 40
7.0
 40
7.0
 40
7.0
 10
5.714739051599811
 20
15.34185935319279
 30
0.0
 10
5.713888498304544
 20
9.698509118533215
 30
0.0
 10
5.713888498304544
 20
9.695815699764879
 30
0.0
  0
SPLINE
  5
155
330
8A
100
AcDbEntity
  8
0
370
    18
100
AcDbSpline
210
0.0
220
0.0
230
1.0
 70
     8
 71
     3
 72
     8
 73
     4
 74
     0
 42
0.000000001
 43
0.00000001
 40
7.0
 40
7.0
 40
7.0
 40
7.0
 40
8.0
 40
8.0
 40
8.0
 40
8.0
 10
5.713888498304544
 20
9.695815699764879
 30
0.0
 10
5.713888498304544
 20
8.997582323791436
 30
0.0
 10
6.279931716305157
 20
8.431680864673364
 30
0.0
 10
6.978094212837349
 20
8.431680864673364
 30
0.0
  0
SPLINE
  5
156
330
8A
100
AcDbEntity
  8
0
370
    18
100
AcDbSpline
210
0.0
220
0.0
230
1.0
 70
     8
 71
     3
 72
     8
 73
     4
 74
     0
 42
0.000000001
 43
0.00000001
 40
8.0
 40
8.0
 40
8.0
 40
8.0
 40
9.0
 40
9.0
 40
9.0
 40
9.0
 10
6.978094212837349
 20
8.431680864673364
 30
0.0
 10
7.676256709369548
 20
8.431680864673364
 30
0.0
 10
8.242299927370162
 20
8.997298806026343
 30
0.0
 10
8.242299927370162
 20
9.695815699764879
 30
0.0
  0
SPLINE
  5
157
330
8A
100
AcDbEntity
  8
0
370
    18
100
AcDbSpline
210
0.0
220
0.0
230
1.0
 70
     8
 71
     2
 72
     6
 73
     3
 74
     0
 42
0.000000001
 43
0.00000001
 40
9.0
 40
9.0
 40
9.0
 40
10.0
 40
10.0
 40
10.0
 10
8.242299927370162
 20
9.695815699764879
 30
0.0
 10
8.242299927370162
 20
9.701060778419045
 30
0.0
 10
8.246552693846501
 20
15.34185935319279
 30
0.0
  0
SPLINE
  5
158
330
8A
100
AcDbEntity
  8
0
370
    18
100
AcDbSpline
210
0.0
220
0.0
230
1.0
 70
     8
 71
     3
 72
     8
 73
     4
 74
     0
 42
0.000000001
 43
0.00000001
 40
2.0
 40
2.0
 40
2.0
 40
2.0
 40
3.0
 40
3.0
 40
3.0
 40
3.0
 10
25.33275080694805
 20
9.779028163818586
 30
0.0
 10
25.32155185522702
 20
9.555332647163173
 30
0.0
 10
25.13726530791903
 20
9.376999972922052
 30
0.0
 10
24.91073461361275
 20
9.376999972922052
 30
0.0
  0
SPLINE
  5
159
330
8A
100
AcDbEntity
  8
0
370
    18
100
AcDbSpline
210
0.0
220
0.0
230
1.0
 70
     8
 71
     3
 72
     8
 73
     4
 74
     0
 42
0.000000001
 43
0.00000001
 40
3.0
 40
3.0
 40
3.0
 40
3.0
 40
4.0
 40
4.0
 40
4.0
 40
4.0
 10
24.91073461361275
 20
9.376999972922052
 30
0.0
 10
24.68136874165558
 20
9.376999972922052
 30
0.0
 10
24.4952393288745
 20
9.559301895874432
 30
0.0
 10
24.48800962586473
 20
9.786683143475988
 30
0.0
  0
SPLINE
  5
15A
330
8A
100
AcDbEntity
  8
0
370
    18
100
AcDbSpline
210
0.0
220
0.0
230
1.0
 70
     8
 71
     2
 72
     6
 73
     3
 74
     0
 42
0.000000001
 43
0.00000001
 40
6.0
 40
6.0
 40
6.0
 40
7.0
 40
7.0
 40
7.0
 10
23.64511131025449
 20
15.34185935319279
 30
0.0
 10
23.64426075695922
 20
9.698509118533215
 30
0.0
 10
23.64426075695922
 20
9.695815699764879
 30
0.0
  0
SPLINE
  5
15B
330
8A
100
AcDbEntity
  8
0
370
    18
100
AcDbSpline
210
0.0
220
0.0
230
1.0
 70
     8
 71
     3
 72
     8
 73
     4
 74
     0
 42
0.000000001
 43
0.00000001
 40
7.0
 40
7.0
 40
7.0
 40
7.0
 40
8.0
 40
8.0
 40
8.0
 40
8.0
 10
23.64426075695922
 20
9.695815699764879
 30
0.0
 10
23.64426075695922
 20
8.997582323791436
 30
0.0
 10
24.2101622160773
 20
8.431680864673364
 30
0.0
 10
24.9083247126095
 20
8.431680864673364
 30
0.0
  0
SPLINE
  5
15C
330
8A
100
AcDbEntity
  8
0
370
    18
100
AcDbSpline
210
0.0
220
0.0
230
1.0
 70
     8
 71
     3
 72
     8
 73
     4
 74
     0
 42
0.000000001
 43
0.00000001
 40
8.0
 40
8.0
 40
8.0
 40
8.0
 40
9.0
 40
9.0
 40
9.0
 40
9.0
 10
24.9083247126095
 20
8.431680864673364
 30
0.0
 10
25.60648720914169
 20
8.431680864673364
 30
0.0
 10
26.17267218602484
 20
8.997298806026343
 30
0.0
 10
26.17267218602484
 20
9.695815699764879
 30
0.0
  0
SPLINE
  5
15D
330
8A
100
AcDbEntity
  8
0
370
    18
100
AcDbSpline
210
0.0
220
0.0
230
1.0
 70
     8
 71
     2
 72
     6
 73
     3
 74
     0
 42
0.000000001
 43
0.00000001
 40
9.0
 40
9.0
 40
9.0
 40
10.0
 40
10.0
 40
10.0
 10
26.17267218602484
 20
9.695815699764879
 30
0.0
 10
26.17267218602484
 20
9.701060778419045
 30
0.0
 10
26.17692495250119
 20
15.34185935319279
 30
0.0
  0
SPLINE
  5
15E
330
8A
100
AcDbEntity
  8
0
370
    18
100
AcDbSpline
210
0.0
220
0.0
230
1.0
 70
     8
 71
     2
 72
     6
 73
     3
 74
     0
 42
0.000000001
 43
0.00000001
 40
3.0
 40
3.0
 40
3.0
 40
4.0
 40
4.0
 40
4.0
 10
14.45063018841125
 20
10.41538378756133
 30
0.0
 10
14.35969186525889
 20
10.27064796848328
 30
0.0
 10
14.18199710598922
 20
10.09600102518832
 30
0.0
  0
SPLINE
  5
15F
330
8A
100
AcDbEntity
  8
0
370
    18
100
AcDbSpline
210
0.0
220
0.0
230
1.0
 70
     8
 71
     3
 72
     8
 73
     4
 74
     0
 42
0.000000001
 43
0.00000001
 40
4.0
 40
4.0
 40
4.0
 40
4.0
 40
5.0
 40
5.0
 40
5.0
 40
5.0
 10
14.18199710598922
 20
10.09600102518832
 30
0.0
 10
13.69647293327394
 20
9.605231773818897
 30
0.0
 10
13.01900723359326
 20
9.300450176347976
 30
0.0
 10
12.26938626269738
 20
9.300450176347976
 30
0.0
  0
SPLINE
  5
160
330
8A
100
AcDbEntity
  8
0
370
    18
100
AcDbSpline
210
0.0
220
0.0
230
1.0
 70
     8
 71
     3
 72
     8
 73
     4
 74
     0
 42
0.000000001
 43
0.00000001
 40
5.0
 40
5.0
 40
5.0
 40
5.0
 40
6.0
 40
6.0
 40
6.0
 40
6.0
 10
12.26938626269738
 20
9.300450176347976
 30
0.0
 10
10.79254222434765
 20
9.300450176347976
 30
0.0
 10
9.595246702375896
 20
10.48300277453512
 30
0.0
 10
9.595246702375896
 20
11.94219783200801
 30
0.0
  0
SPLINE
  5
161
330
8A
100
AcDbEntity
  8
0
370
    18
100
AcDbSpline
210
0.0
220
0.0
230
1.0
 70
     8
 71
     3
 72
     8
 73
     4
 74
     0
 42
0.000000001
 43
0.00000001
 40
6.0
 40
6.0
 40
6.0
 40
6.0
 40
7.0
 40
7.0
 40
7.0
 40
7.0
 10
9.595246702375896
 20
11.94219783200801
 30
0.0
 10
9.595246702375896
 20
13.40096761283331
 30
0.0
 10
10.79254222434765
 20
14.58366196990294
 30
0.0
 10
12.26938626269738
 20
14.58366196990294
 30
0.0
  0
SPLINE
  5
162
330
8A
100
AcDbEntity
  8
0
370
    18
100
AcDbSpline
210
0.0
220
0.0
230
1.0
 70
     8
 71
     3
 72
     8
 73
     4
 74
     0
 42
0.000000001
 43
0.00000001
 40
7.0
 40
7.0
 40
7.0
 40
7.0
 40
8.0
 40
8.0
 40
8.0
 40
8.0
 10
12.26938626269738
 20
14.58366196990294
 30
0.0
 10
13.16296337881731
 20
14.58366196990294
 30
0.0
 10
13.95355266676859
 20
14.15037594540535
 30
0.0
 10
14.50995628075617
 20
13.54215945984774
 30
0.0
  0
SPLINE
  5
163
330
8A
100
AcDbEntity
  8
0
370
    18
100
AcDbSpline
210
0.0
220
0.0
230
1.0
 70
     8
 71
     3
 72
     8
 73
     4
 74
     0
 42
0.000000001
 43
0.00000001
 40
9.0
 40
9.0
 40
9.0
 40
9.0
 40
10.0
 40
10.0
 40
10.0
 40
10.0
 10
15.22002652342211
 20
14.08367839116812
 30
0.0
 10
14.4993952440066
 20
14.90127274624418
 30
0.0
 10
13.45172622256067
 20
15.46922970915913
 30
0.0
 10
12.26938626269738
 20
15.46922970915913
 30
0.0
  0
SPLINE
  5
164
330
8A
100
AcDbEntity
  8
0
370
    18
100
AcDbSpline
210
0.0
220
0.0
230
1.0
 70
     8
 71
     3
 72
     8
 73
     4
 74
     0
 42
0.000000001
 43
0.00000001
 40
10.0
 40
10.0
 40
10.0
 40
10.0
 40
11.0
 40
11.0
 40
11.0
 40
11.0
 10
12.26938626269738
 20
15.46922970915913
 30
0.0
 10
10.2974493270606
 20
15.46922970915913
 30
0.0
 10
8.698692649722526
 20
13.89010663705348
 30
0.0
 10
8.698692649722526
 20
11.94219783200801
 30
0.0
  0
SPLINE
  5
165
330
8A
100
AcDbEntity
  8
0
370
    18
100
AcDbSpline
210
0.0
220
0.0
230
1.0
 70
     8
 71
     3
 72
     8
 73
     4
 74
     0
 42
0.000000001
 43
0.00000001
 40
11.0
 40
11.0
 40
11.0
 40
11.0
 40
12.0
 40
12.0
 40
12.0
 40
12.0
 10
8.698692649722526
 20
11.94219783200801
 30
0.0
 10
8.698692649722526
 20
9.993934629756218
 30
0.0
 10
10.2974493270606
 20
8.414811557650523
 30
0.0
 10
12.26938626269738
 20
8.414811557650523
 30
0.0
  0
SPLINE
  5
166
330
8A
100
AcDbEntity
  8
0
370
    18
100
AcDbSpline
210
0.0
220
0.0
230
1.0
 70
     8
 71
     3
 72
     8
 73
     4
 74
     0
 42
0.000000001
 43
0.00000001
 40
12.0
 40
12.0
 40
12.0
 40
12.0
 40
13.0
 40
13.0
 40
13.0
 40
13.0
 10
12.26938626269738
 20
8.414811557650523
 30
0.0
 10
13.33966582590916
 20
8.414811557650523
 30
0.0
 10
14.33247415981032
 20
8.880489486809598
 30
0.0
 10
14.98683316163622
 20
9.61742303771775
 30
0.0
  0
SPLINE
  5
167
330
8A
100
AcDbEntity
  8
0
370
    18
100
AcDbSpline
210
0.0
220
0.0
230
1.0
 70
     8
 71
     2
 72
     6
 73
     3
 74
     0
 42
0.000000001
 43
0.00000001
 40
13.0
 40
13.0
 40
13.0
 40
14.0
 40
14.0
 40
14.0
 10
14.98683316163622
 20
9.61742303771775
 30
0.0
 10
15.15226577756578
 20
9.800291996200263
 30
0.0
 10
15.29168563854841
 20
10.02668093162401
 30
0.0
  0
ENDBLK
  5
8C
330
8A
100
AcDbEntity
  8
0
100
AcDbBlockEnd
  0
BLOCK
  5
169
330
168
100
AcDbEntity
  8
0
100
AcDbBlockBegin
  2
ﾌﾞﾛｯｸ1
 70
     0
 10
0.0
 20
0.0
 30
0.0
  3
ﾌﾞﾛｯｸ1
  1

  0
CIRCLE
  5
16B
330
168
100
AcDbEntity
  8
9
  6
Continuous
 62
   179
100
AcDbCircle
 10
4.437888
 20
3.2320596145
 30
0.0
 40
1.109472
  0
CIRCLE
  5
16C
330
168
100
AcDbEntity
  8
9
  6
Continuous
 62
   179
100
AcDbCircle
 10
4.437888
 20
3.2320596145
 30
0.0
 40
2.218944
  0
LINE
  5
16D
330
168
100
AcDbEntity
  8
9
  6
CENTER
 62
   179
100
AcDbLine
 10
4.437888
 20
6.1328113459
 30
0.0
 11
4.437888
 21
0.0
 31
0.0
  0
LINE
  5
16E
330
168
100
AcDbEntity
  8
9
  6
CENTER
 62
   179
100
AcDbLine
 10
0.0
 20
3.2320596145
 30
0.0
 11
19.970496
 21
3.2320596145
 31
0.0
  0
LINE
  5
16F
330
168
100
AcDbEntity
  8
9
  6
Continuous
 62
   179
100
AcDbLine
 10
9.985248
 20
2.1225876145
 30
0.0
 11
17.751552
 21
1.0131156145
 31
0.0
  0
LINE
  5
170
330
168
100
AcDbEntity
  8
9
  6
Continuous
 62
   179
100
AcDbLine
 10
17.751552
 20
1.0131156145
 30
0.0
 11
17.751552
 21
3.2320596145
 31
0.0
  0
LINE
  5
171
330
168
100
AcDbEntity
  8
9
  6
Continuous
 62
   179
100
AcDbLine
 10
9.985248
 20
4.3415316145
 30
0.0
 11
9.985248
 21
2.1225876145
 31
0.0
  0
LINE
  5
172
330
168
100
AcDbEntity
  8
9
  6
Continuous
 62
   179
100
AcDbLine
 10
17.751552
 20
3.2320596145
 30
0.0
 11
17.751552
 21
5.4510036145
 31
0.0
  0
LINE
  5
173
330
168
100
AcDbEntity
  8
9
  6
Continuous
 62
   179
100
AcDbLine
 10
17.751552
 20
5.4510036145
 30
0.0
 11
9.985248
 21
4.3415316145
 31
0.0
  0
ENDBLK
  5
16A
330
168
100
AcDbEntity
  8
0
100
AcDbBlockEnd
  0
ENDSEC
  0
SECTION
  2
ENTITIES
  0
INSERT
  5
176
330
1F
100
AcDbEntity
  8
0
  6
Continuous
 62
     7
100
AcDbBlockReference
 66
     1
  2
ﾌﾞﾛｯｸ2
 10
0.0
 20
0.0
 30
0.0
  0
ATTRIB
  5
177
330
176
100
AcDbEntity
  8
SLD-0
 62
     7
100
AcDbText
 10
78.3050930978
 20
15.9259892778
 30
0.0
 40
4.0
  1
J95CC-GR,J95CC-NI
 41
0.7
  7
SLDTEXTSTYLE0
 11
78.3050930978
 21
14.5129490301
 31
0.0
100
AcDbAttribute
  2
AUTOATTR0
 70
     0
 74
     1
  0
ATTRIB
  5
178
330
176
100
AcDbEntity
  8
SLD-0
 62
     7
100
AcDbText
 10
78.3050930978
 20
9.8784312972
 30
0.0
 40
4.0
  1
J95CC-BC
 41
0.7
  7
SLDTEXTSTYLE0
 11
78.3050930978
 21
8.4653910495
 31
0.0
100
AcDbAttribute
  2
AUTOATTR0
 70
     0
 74
     1
  0
ATTRIB
  5
179
330
176
100
AcDbEntity
  8
SLD-0
 62
     7
100
AcDbText
 10
66.9646413579
 20
16.8429035566
 30
0.0
 40
2.38125
  1
Title
 41
0.7
  7
SLDTEXTSTYLE0
 11
66.9646413579
 21
16.0017030342
 31
0.0
100
AcDbAttribute
  2
AUTOATTR0
 70
     0
 74
     1
  0
ATTRIB
  5
17A
330
176
100
AcDbEntity
  8
SLD-0
 62
     7
100
AcDbText
 10
66.9646413579
 20
2.4516379051
 30
0.0
 40
2.38125
  1
Date
 41
0.7
  7
SLDTEXTSTYLE0
 11
66.9646413579
 21
1.6104373826
 31
0.0
100
AcDbAttribute
  2
AUTOATTR0
 70
     0
 74
     1
  0
ATTRIB
  5
17B
330
176
100
AcDbEntity
  8
SLD-0
 62
     7
100
AcDbText
 10
51.857512217
 20
2.0282473934
 30
0.0
 40
4.0
  1
1:1
 41
0.7
  7
SLDTEXTSTYLE0
 11
51.857512217
 21
0.6152071457
 31
0.0
100
AcDbAttribute
  2
AUTOATTR0
 70
     0
 74
     1
  0
ATTRIB
  5
17C
330
176
100
AcDbEntity
  8
SLD-0
 62
     7
100
AcDbText
 10
38.4275608796
 20
2.4516379051
 30
0.0
 40
2.38125
  1
Scale
 41
0.7
  7
SLDTEXTSTYLE0
 11
38.4275608796
 21
1.6104373826
 31
0.0
100
AcDbAttribute
  2
AUTOATTR0
 70
     0
 74
     1
  0
ATTRIB
  5
17D
330
176
100
AcDbEntity
  8
SLD-0
 62
     7
100
AcDbText
 10
78.3050930978
 20
2.0282474516
 30
0.0
 40
4.0
  1

 41
0.7
  7
SLDTEXTSTYLE0
 11
78.3050930978
 21
0.6152072039
 31
0.0
100
AcDbAttribute
  2
AUTOATTR0
 70
     0
 74
     1
  0
SEQEND
  5
17E
330
176
100
AcDbEntity
  8
0
  6
Continuous
 62
     7
  0
MTEXT
  5
17F
330
1F
100
AcDbEntity
  8
9
 62
     7
100
AcDbMText
 10
78.6379707735
 20
6.2885691218
 30
0.0
 40
4.0
 41
0.0
 71
     1
 72
     1
  1
2019/12/09
  7
SLDTEXTSTYLE0
 73
     1
 44
1.0
  0
LINE
  5
180
330
1F
100
AcDbEntity
  8
0
  6
Continuous
 62
     7
370
    25
100
AcDbLine
 10
192.2043828724
 20
109.0780904037
 30
0.0
 11
173.4718835411
 21
109.0780904037
 31
0.0
  0
LINE
  5
181
330
1F
100
AcDbEntity
  8
0
  6
Continuous
 62
     7
370
    25
100
AcDbLine
 10
237.9956772981
 20
109.0780904037
 30
0.0
 11
219.2631779668
 21
109.0780904037
 31
0.0
  0
ARC
  5
182
330
1F
100
AcDbEntity
  8
0
  6
Continuous
 62
     7
370
    25
100
AcDbCircle
 10
237.9956781958
 20
107.5780904788
 30
0.0
 40
1.500000000000026
100
AcDbArc
 50
2.0
 51
89.8012094547
  0
ARC
  5
183
330
1F
100
AcDbEntity
  8
0
  6
Continuous
 62
     7
370
    25
100
AcDbCircle
 10
173.4718826434
 20
107.5780904788
 30
0.0
 40
1.500000000000026
100
AcDbArc
 50
90.1177677602
 51
178.0
  0
LINE
  5
184
330
1F
100
AcDbEntity
  8
0
  6
Continuous
 62
     7
370
    25
100
AcDbLine
 10
213.7337807996
 20
108.3054807954
 30
0.0
 11
197.7337800396
 21
108.3054807954
 31
0.0
  0
LINE
  5
185
330
1F
100
AcDbEntity
  8
0
  6
Continuous
 62
     7
370
    25
100
AcDbLine
 10
217.5712619407
 20
108.5328147733
 30
0.0
 11
217.5168773589
 21
108.5260256645
 31
0.0
  0
SPLINE
  5
186
330
1F
100
AcDbEntity
  8
0
  6
Continuous
 62
     7
370
    25
100
AcDbSpline
210
0.0
220
0.0
230
1.0
 70
     8
 71
     3
 72
    13
 73
     9
 74
     0
 42
0.000000001
 43
0.00000001
 40
0.0
 40
0.0
 40
0.0
 40
0.0
 40
0.1614800435617324
 40
0.350273758762619
 40
0.5518888287902732
 40
0.7590159413313431
 40
0.9679168572802019
 40
1.0
 40
1.0
 40
1.0
 40
1.0
 10
218.9768102449916
 20
108.7997537092289
 30
0.0
 10
218.9411553001065
 20
108.7880531654547
 30
0.0
 10
218.8638145260522
 20
108.7626729800339
 30
0.0
 10
218.673946646057
 20
108.7152505216569
 30
0.0
 10
218.419019936866
 20
108.6619134546657
 30
0.0
 10
218.0928304852288
 20
108.6058592990292
 30
0.0
 10
217.8314840741381
 20
108.5650683170805
 30
0.0
 10
217.6667709140695
 20
108.5447106967913
 30
0.0
 10
217.6448420120023
 20
108.542000407817
 30
0.0
  0
SPLINE
  5
187
330
1F
100
AcDbEntity
  8
0
  6
Continuous
 62
     7
370
    25
100
AcDbSpline
210
0.0
220
0.0
230
1.0
 70
     8
 71
     3
 72
    13
 73
     9
 74
     0
 42
0.000000001
 43
0.00000001
 40
0.0
 40
0.0
 40
0.0
 40
0.0
 40
0.0966758396723948
 40
0.3094970375305294
 40
0.5213814037028498
 40
0.729890563235386
 40
0.9359927161425201
 40
1.0
 40
1.0
 40
1.0
 40
1.0
 10
193.8152123672507
 20
108.5435412810167
 30
0.0
 10
193.7512421776207
 20
108.5518099240342
 30
0.0
 10
193.5464486713232
 20
108.5782810726374
 30
0.0
 10
193.2538296283959
 20
108.6255291310068
 30
0.0
 10
192.9421070216834
 20
108.682841450576
 30
0.0
 10
192.7010623835216
 20
108.7370709829829
 30
0.0
 10
192.5516511399892
 20
108.7778800531728
 30
0.0
 10
192.5067187719487
 20
108.7946824354601
 30
0.0
 10
192.4960712400816
 20
108.7986640618166
 30
0.0
  0
LINE
  5
188
330
1F
100
AcDbEntity
  8
0
  6
Continuous
 62
     7
370
    25
100
AcDbLine
 10
193.9489754347
 20
108.5258650114
 30
0.0
 11
193.8152123673
 21
108.543541281
 31
0.0
  0
SPLINE
  5
189
330
1F
100
AcDbEntity
  8
0
  6
Continuous
 62
     7
370
    25
100
AcDbSpline
210
0.0
220
0.0
230
1.0
 70
     8
 71
     3
 72
     9
 73
     5
 74
     0
 42
0.000000001
 43
0.00000001
 40
0.0
 40
0.0
 40
0.0
 40
0.0
 40
0.7088522419696468
 40
1.0
 40
1.0
 40
1.0
 40
1.0
 10
192.4961001110814
 20
108.7987385676226
 30
0.0
 10
192.4806305195508
 20
108.8038031718318
 30
0.0
 10
192.4588070835586
 20
108.8109479671917
 30
0.0
 10
192.4478525524561
 20
108.8157546264772
 30
0.0
 10
192.4446631652854
 20
108.8171540745517
 30
0.0
  0
SPLINE
  5
18A
330
1F
100
AcDbEntity
  8
0
  6
Continuous
 62
     7
370
    25
100
AcDbSpline
210
0.0
220
0.0
230
1.0
 70
     8
 71
     3
 72
     9
 73
     5
 74
     0
 42
0.000000001
 43
0.00000001
 40
0.0
 40
0.0
 40
0.0
 40
0.0
 40
0.4382894276070991
 40
1.0
 40
1.0
 40
1.0
 40
1.0
 10
219.022516762986
 20
108.8170472052863
 30
0.0
 10
219.0177734048547
 20
108.8149395392507
 30
0.0
 10
219.0069509714751
 20
108.8101306939927
 30
0.0
 10
218.984364086851
 20
108.8028929988243
 30
0.0
 10
218.9716767949603
 20
108.7988275089285
 30
0.0
  0
SPLINE
  5
18B
330
1F
100
AcDbEntity
  8
0
  6
Continuous
 62
     7
370
    25
100
AcDbSpline
210
0.0
220
0.0
230
1.0
 70
     8
 71
     3
 72
     9
 73
     5
 74
     0
 42
0.000000001
 43
0.00000001
 40
0.0
 40
0.0
 40
0.0
 40
0.0
 40
0.4342260808527734
 40
1.0
 40
1.0
 40
1.0
 40
1.0
 10
219.0489700493954
 20
108.8290724423697
 30
0.0
 10
219.0495790625332
 20
108.8293085291707
 30
0.0
 10
219.0509815880027
 20
108.8298522247508
 30
0.0
 10
219.0303706483855
 20
108.8209828414018
 30
0.0
 10
219.018709516301
 20
108.815964775624
 30
0.0
  0
SPLINE
  5
18C
330
1F
100
AcDbEntity
  8
0
  6
Continuous
 62
     7
370
    25
100
AcDbSpline
210
0.0
220
0.0
230
1.0
 70
     8
 71
     3
 72
    10
 73
     6
 74
     0
 42
0.000000001
 43
0.00000001
 40
0.0
 40
0.0
 40
0.0
 40
0.0
 40
0.114374054417714
 40
0.9864689840808685
 40
1.0
 40
1.0
 40
1.0
 40
1.0
 10
192.4469458369158
 20
108.816678867208
 30
0.0
 10
192.4440498222525
 20
108.8177247984347
 30
0.0
 10
192.4190718789833
 20
108.8267458890993
 30
0.0
 10
192.4081287357358
 20
108.8365276915771
 30
0.0
 10
192.4151016900931
 20
108.8310917154405
 30
0.0
 10
192.415208226218
 20
108.8310086620024
 30
0.0
  0
ARC
  5
18D
330
1F
100
AcDbEntity
  8
0
  6
Continuous
 62
     7
370
    25
100
AcDbCircle
 10
192.2043828167
 20
108.7780904788
 30
0.0
 40
0.3000000000000106
100
AcDbArc
 50
2.0
 51
89.9793905398
  0
ARC
  5
18E
330
1F
100
AcDbEntity
  8
0
  6
Continuous
 62
     7
370
    25
100
AcDbCircle
 10
219.2631780225
 20
108.7780904788
 30
0.0
 40
0.3000000000000125
100
AcDbArc
 50
90.4285724888
 51
178.0
  0
LINE
  5
18F
330
1F
100
AcDbEntity
  8
0
  6
Continuous
 62
     7
370
    25
100
AcDbLine
 10
239.6845115779
 20
102.196784223
 30
0.0
 11
236.9861571548
 21
102.196784223
 31
0.0
  0
LINE
  5
190
330
1F
100
AcDbEntity
  8
0
  6
Continuous
 62
     7
370
    25
100
AcDbLine
 10
239.534512764
 20
106.4921577112
 30
0.0
 11
239.6845115779
 21
102.196784223
 31
0.0
  0
LINE
  5
191
330
1F
100
AcDbEntity
  8
0
  6
Continuous
 62
     7
370
    25
100
AcDbLine
 10
174.4814036844
 20
102.196784223
 30
0.0
 11
171.7830492613
 21
102.196784223
 31
0.0
  0
LINE
  5
192
330
1F
100
AcDbEntity
  8
0
  6
Continuous
 62
     7
370
    25
100
AcDbLine
 10
171.7830492613
 20
102.196784223
 30
0.0
 11
171.9330480752
 21
106.4921577112
 31
0.0
  0
LINE
  5
193
330
1F
100
AcDbEntity
  8
0
  6
Continuous
 62
     7
370
    25
100
AcDbLine
 10
174.4814036844
 20
102.196784223
 30
0.0
 11
236.9861571548
 21
102.196784223
 31
0.0
  0
SPLINE
  5
194
330
1F
100
AcDbEntity
  8
0
  6
Continuous
 62
     7
370
    25
100
AcDbSpline
210
0.0
220
0.0
230
1.0
 70
     8
 71
     3
 72
    16
 73
    12
 74
     0
 42
0.000000001
 43
0.00000001
 40
0.0
 40
0.0
 40
0.0
 40
0.0
 40
0.2500000000000013
 40
0.2500000000000013
 40
0.3750000000000011
 40
0.3750000000000011
 40
0.5000000000000009
 40
0.5000000000000009
 40
0.7500000000000004
 40
0.7500000000000004
 40
1.0
 40
1.0
 40
1.0
 40
1.0
 10
197.7337804196022
 20
108.3016747949771
 30
0.0
 10
197.3790782852353
 20
108.3016747949771
 30
0.0
 10
197.0301532511504
 20
108.3070599538724
 30
0.0
 10
196.5150571093181
 20
108.3226306824741
 30
0.0
 10
196.3447497819969
 20
108.3290738741054
 30
0.0
 10
196.0069673875471
 20
108.3444131511032
 30
0.0
 10
195.8386905030735
 20
108.3533658167969
 30
0.0
 10
195.3476289053034
 20
108.3832506321111
 30
0.0
 10
195.0365055287993
 20
108.4072317836919
 30
0.0
 10
194.4460041308988
 20
108.4617654139396
 30
0.0
 10
194.1651374894921
 20
108.4925468012844
 30
0.0
 10
193.9073852137189
 20
108.5252187772279
 30
0.0
  0
SPLINE
  5
195
330
1F
100
AcDbEntity
  8
0
  6
Continuous
 62
     7
370
    25
100
AcDbSpline
210
0.0
220
0.0
230
1.0
 70
     8
 71
     3
 72
    16
 73
    12
 74
     0
 42
0.000000001
 43
0.00000001
 40
0.0
 40
0.0
 40
0.0
 40
0.0
 40
0.2500000000000008
 40
0.2500000000000008
 40
0.3750000000000011
 40
0.3750000000000011
 40
0.5000000000000013
 40
0.5000000000000013
 40
0.7500000000000007
 40
0.7500000000000007
 40
1.0
 40
1.0
 40
1.0
 40
1.0
 10
217.5601756254826
 20
108.5252187772278
 30
0.0
 10
217.3024017843838
 20
108.4925440677225
 30
0.0
 10
217.0258818631721
 20
108.4622194373946
 30
0.0
 10
216.5840486906422
 20
108.4213343335216
 30
0.0
 10
216.432230863322
 20
108.4084751525813
 30
0.0
 10
216.1193221724973
 20
108.3845124975183
 30
0.0
 10
215.9573627779718
 20
108.3733626896078
 30
0.0
 10
215.4661975041287
 20
108.3434547568295
 30
0.0
 10
215.1304904354463
 20
108.3280704978074
 30
0.0
 10
214.4428241466141
 20
108.307165199736
 30
0.0
 10
214.0885148486895
 20
108.3016747949771
 30
0.0
 10
213.7337804196022
 20
108.3016747949771
 30
0.0
  0
LWPOLYLINE
  5
196
330
1F
100
AcDbEntity
  8
0
  6
Continuous
 62
     7
370
    25
100
AcDbPolyline
 90
        7
 70
   128
 43
0.0
 10
239.4947639165
 20
107.6304396833
 10
239.4950954673
 20
107.6210025917
 10
239.4977292476
 20
107.5455237865
 10
239.5029968081
 20
107.3946616366
 10
239.5108906982
 20
107.1686068885
 10
239.5214034674
 20
106.8676454001
 10
239.534512764
 20
106.4921577112
  0
LWPOLYLINE
  5
197
330
1F
100
AcDbEntity
  8
0
  6
Continuous
 62
     7
370
    25
100
AcDbPolyline
 90
        7
 70
   128
 43
0.0
 10
171.9330480752
 20
106.4921577112
 10
171.9461573718
 20
106.8676454001
 10
171.956670141
 20
107.1686068885
 10
171.9645640311
 20
107.3946616366
 10
171.9698315916
 20
107.5455237865
 10
171.9724653719
 20
107.6210025917
 10
171.9727969227
 20
107.6304396833
  0
LINE
  5
198
330
1F
100
AcDbEntity
  8
0
  6
Continuous
 62
     7
370
    25
100
AcDbLine
 10
213.7337807996
 20
108.3016748293
 30
0.0
 11
213.7337807996
 21
108.3054807954
 31
0.0
  0
LWPOLYLINE
  5
199
330
1F
100
AcDbEntity
  8
0
  6
Continuous
 62
     7
370
    25
100
AcDbPolyline
 90
        3
 70
   128
 43
0.0
 10
217.5601754767
 20
108.5252186735
 10
217.5238967372
 20
108.5257241488
 10
217.5170328898
 20
108.5247474243
  0
LWPOLYLINE
  5
19A
330
1F
100
AcDbEntity
  8
0
  6
Continuous
 62
     7
370
    25
100
AcDbPolyline
 90
        3
 70
   128
 43
0.0
 10
193.9073853625
 20
108.5252186735
 10
193.943664102
 20
108.5257241488
 10
193.9488385303
 20
108.5250205346
  0
LINE
  5
19B
330
1F
100
AcDbEntity
  8
0
  6
Continuous
 62
     7
370
    25
100
AcDbLine
 10
197.7337800396
 20
108.3016748293
 30
0.0
 11
197.7337800396
 21
108.3054807954
 31
0.0
  0
SPLINE
  5
19C
330
1F
100
AcDbEntity
  8
0
  6
PHANTOM
 62
     8
370
    18
100
AcDbSpline
210
0.0
220
0.0
230
1.0
 70
     8
 71
     3
 72
    14
 73
    10
 74
     0
 42
0.000000001
 43
0.00000001
 40
0.0
 40
0.0
 40
0.0
 40
0.0
 40
0.25
 40
0.25
 40
0.5
 40
0.5
 40
0.75
 40
0.75
 40
1.0
 40
1.0
 40
1.0
 40
1.0
 10
236.8449712257456
 20
107.6525155429806
 30
0.0
 10
237.0075045791594
 20
107.6525155429806
 30
0.0
 10
237.168496419106
 20
107.6601640349415
 30
0.0
 10
237.4603108442963
 20
107.6882382721153
 30
0.0
 10
237.5931773359753
 20
107.7088683547614
 30
0.0
 10
237.8100333235147
 20
107.7582856525348
 30
0.0
 10
237.8947925994506
 20
107.7870419312127
 30
0.0
 10
238.0082993423324
 20
107.8480525634934
 30
0.0
 10
238.0365021779979
 20
107.8796715709244
 30
0.0
 10
238.0354278794598
 20
107.9112084178964
 30
0.0
  0
ARC
  5
19D
330
1F
100
AcDbEntity
  8
0
  6
PHANTOM
 62
     8
370
    18
100
AcDbCircle
 10
238.051233228
 20
106.4265633559
 30
0.0
 40
1.484729201349708
100
AcDbArc
 50
2.532113849
 51
90.610007683
  0
SPLINE
  5
19E
330
1F
100
AcDbEntity
  8
0
  6
PHANTOM
 62
     8
370
    18
100
AcDbSpline
210
0.0
220
0.0
230
1.0
 70
     8
 71
     3
 72
    20
 73
    16
 74
     0
 42
0.000000001
 43
0.00000001
 40
0.0
 40
0.0
 40
0.0
 40
0.0
 40
0.1249999999999994
 40
0.1249999999999994
 40
0.2499999999999989
 40
0.2499999999999989
 40
0.3749999999999983
 40
0.3749999999999983
 40
0.4999999999999978
 40
0.4999999999999978
 40
0.6249999999999972
 40
0.6249999999999972
 40
0.7499999999999967
 40
0.7499999999999967
 40
1.0
 40
1.0
 40
1.0
 40
1.0
 10
239.5345141199885
 20
106.4921577134616
 30
0.0
 10
239.5349443569554
 20
106.4798373387063
 30
0.0
 10
239.5180148467649
 20
106.4672189493097
 30
0.0
 10
239.4508753488741
 20
106.4414285801786
 30
0.0
 10
239.3998986890302
 20
106.4281158806127
 30
0.0
 10
239.2660475955871
 20
106.4016710367132
 30
0.0
 10
239.1840427146033
 20
106.3886335005069
 30
0.0
 10
238.990275713609
 20
106.3630026284354
 30
0.0
 10
238.8771073452342
 20
106.3502987821935
 30
0.0
 10
238.6293094334172
 20
106.3264805606423
 30
0.0
 10
238.4941762241608
 20
106.3152581161231
 30
0.0
 10
238.2011187677614
 20
106.294302765158
 30
0.0
 10
238.0434369414452
 20
106.2846311959934
 30
0.0
 10
237.5565756125468
 20
106.2592974674284
 30
0.0
 10
237.202169960165
 20
106.2467229733396
 30
0.0
 10
236.8449712257456
 20
106.2398053501859
 30
0.0
  0
LINE
  5
19F
330
1F
100
AcDbEntity
  8
0
  6
PHANTOM
 62
     8
370
    18
100
AcDbLine
 10
236.8449705151
 20
107.6525155208
 30
0.0
 11
236.8449705151
 21
106.2398053459
 31
0.0
  0
LINE
  5
1A0
330
1F
100
AcDbEntity
  8
0
  6
PHANTOM
 62
     8
370
    18
100
AcDbLine
 10
236.9861571548
 20
102.196784223
 30
0.0
 11
236.8449705151
 21
106.2398053459
 31
0.0
  0
SPLINE
  5
1A1
330
1F
100
AcDbEntity
  8
0
  6
PHANTOM
 62
     8
370
    18
100
AcDbSpline
210
0.0
220
0.0
230
1.0
 70
     8
 71
     3
 72
    16
 73
    12
 74
     0
 42
0.000000001
 43
0.00000001
 40
0.0
 40
0.0
 40
0.0
 40
0.0
 40
0.2500000000000019
 40
0.2500000000000019
 40
0.5000000000000038
 40
0.5000000000000038
 40
0.7500000000000057
 40
0.7500000000000057
 40
0.8750000000000028
 40
0.8750000000000028
 40
1.0
 40
1.0
 40
1.0
 40
1.0
 10
173.4321329597446
 20
107.9112084178964
 30
0.0
 10
173.4310590345828
 20
107.8796825316673
 30
0.0
 10
173.4599148476979
 20
107.8476270365653
 30
0.0
 10
173.5728805685209
 20
107.7870564064326
 30
0.0
 10
173.6583639344159
 20
107.7580593513119
 30
0.0
 10
173.8747885734119
 20
107.7088119500425
 30
0.0
 10
174.0075402439835
 20
107.688176490243
 30
0.0
 10
174.2274147298722
 20
107.6670742470104
 30
0.0
 10
174.3051126697466
 20
107.6615966154659
 30
0.0
 10
174.4616504281395
 20
107.6543686091804
 30
0.0
 10
174.5413641570477
 20
107.6525155429806
 30
0.0
 10
174.6225896134588
 20
107.6525155429806
 30
0.0
  0
LINE
  5
1A2
330
1F
100
AcDbEntity
  8
0
  6
PHANTOM
 62
     8
370
    18
100
AcDbLine
 10
174.6225903241
 20
107.6525155208
 30
0.0
 11
174.6225903241
 21
106.2398053459
 31
0.0
  0
SPLINE
  5
1A3
330
1F
100
AcDbEntity
  8
0
  6
PHANTOM
 62
     8
370
    18
100
AcDbSpline
210
0.0
220
0.0
230
1.0
 70
     8
 71
     3
 72
    20
 73
    16
 74
     0
 42
0.000000001
 43
0.00000001
 40
0.0
 40
0.0
 40
0.0
 40
0.0
 40
0.1249999999999991
 40
0.1249999999999991
 40
0.2499999999999983
 40
0.2499999999999983
 40
0.3749999999999974
 40
0.3749999999999974
 40
0.4999999999999966
 40
0.4999999999999966
 40
0.7499999999999982
 40
0.7499999999999982
 40
0.8749999999999991
 40
0.8749999999999991
 40
1.0
 40
1.0
 40
1.0
 40
1.0
 10
174.6225896134588
 20
106.2398053501859
 30
0.0
 10
174.4440911436215
 20
106.2432622077525
 30
0.0
 10
174.2685690876358
 20
106.2480504181698
 30
0.0
 10
173.92324852893
 20
106.2601680873074
 30
0.0
 10
173.7516634414941
 20
106.2676005011125
 30
0.0
 10
173.4254247558085
 20
106.2845509143444
 30
0.0
 10
173.2705926691522
 20
106.2940357973304
 30
0.0
 10
172.9774583853641
 20
106.3149378183957
 30
0.0
 10
172.8394628708609
 20
106.3263769906392
 30
0.0
 10
172.4681430785257
 20
106.3620296598561
 30
0.0
 10
172.2686643489173
 20
106.3884587456544
 30
0.0
 10
172.0688440009463
 20
106.427855301417
 30
0.0
 10
172.0174708658831
 20
106.4411745280974
 30
0.0
 10
171.9495280917365
 20
106.4671787264973
 30
0.0
 10
171.9326167159293
 20
106.479844030434
 30
0.0
 10
171.9330467192159
 20
106.4921577134616
 30
0.0
  0
ARC
  5
1A4
330
1F
100
AcDbEntity
  8
0
  6
PHANTOM
 62
     8
370
    18
100
AcDbCircle
 10
173.4163276112
 20
106.4265633559
 30
0.0
 40
1.484729201349708
100
AcDbArc
 50
89.389992317
 51
177.467886151
  0
LINE
  5
1A5
330
1F
100
AcDbEntity
  8
0
  6
PHANTOM
 62
     8
370
    18
100
AcDbLine
 10
174.6225903241
 20
106.2398053459
 30
0.0
 11
174.4814036844
 21
102.196784223
 31
0.0
  0
LINE
  5
1A6
330
1F
100
AcDbEntity
  8
0
  6
PHANTOM
 62
     8
370
    18
100
AcDbLine
 10
236.8449705151
 20
106.2398053459
 30
0.0
 11
174.6225903241
 21
106.2398053459
 31
0.0
  0
LINE
  5
1A7
330
1F
100
AcDbEntity
  8
0
  6
PHANTOM
 62
     8
370
    18
100
AcDbLine
 10
174.6225903241
 20
107.6525155208
 30
0.0
 11
236.8449705151
 21
107.6525155208
 31
0.0
  0
SPLINE
  5
1A8
330
1F
100
AcDbEntity
  8
0
  6
PHANTOM
 62
     8
370
    18
100
AcDbSpline
210
0.0
220
0.0
230
1.0
 70
     8
 71
     3
 72
     8
 73
     4
 74
     0
 42
0.000000001
 43
0.00000001
 40
0.0
 40
0.0
 40
0.0
 40
0.0
 40
0.0002747181008004
 40
0.0002747181008004
 40
0.0002747181008004
 40
0.0002747181008004
 10
192.3903897123694
 20
108.8155246408657
 30
0.0
 10
192.3671862045406
 20
108.8237215146024
 30
0.0
 10
192.3461894940112
 20
108.8317830418941
 30
0.0
 10
192.3274976991104
 20
108.8396879367306
 30
0.0
  0
SPLINE
  5
1A9
330
1F
100
AcDbEntity
  8
0
  6
PHANTOM
 62
     8
370
    18
100
AcDbSpline
210
0.0
220
0.0
230
1.0
 70
     8
 71
     3
 72
    10
 73
     6
 74
     0
 42
0.000000001
 43
0.00000001
 40
0.0
 40
0.0
 40
0.0
 40
0.0
 40
0.5
 40
0.5
 40
1.0
 40
1.0
 40
1.0
 40
1.0
 10
193.9073852137201
 20
108.525218777228
 30
0.0
 10
193.5396983769369
 20
108.5718257584857
 30
0.0
 10
193.2269189312263
 20
108.6214096427388
 30
0.0
 10
192.7115310262613
 20
108.7215636117486
 30
0.0
 10
192.5185864266637
 20
108.7702378554244
 30
0.0
 10
192.3903897123694
 20
108.8155246408657
 30
0.0
  0
LINE
  5
1AA
330
1F
100
AcDbEntity
  8
0
  6
PHANTOM
 62
     8
370
    18
100
AcDbLine
 10
213.7337807996
 20
108.3016748293
 30
0.0
 11
197.7337800396
 21
108.3016748293
 31
0.0
  0
SPLINE
  5
1AB
330
1F
100
AcDbEntity
  8
0
  6
PHANTOM
 62
     8
370
    18
100
AcDbSpline
210
0.0
220
0.0
230
1.0
 70
     8
 71
     3
 72
    10
 73
     6
 74
     0
 42
0.000000001
 43
0.00000001
 40
0.0
 40
0.0
 40
0.0
 40
0.0
 40
0.5
 40
0.5
 40
1.0
 40
1.0
 40
1.0
 40
1.0
 10
219.0771711268349
 20
108.8155246408657
 30
0.0
 10
218.9489744125406
 20
108.7702378554244
 30
0.0
 10
218.7560298129428
 20
108.7215636117485
 30
0.0
 10
218.2406419079772
 20
108.6214096427386
 30
0.0
 10
217.9278624622663
 20
108.5718257584855
 30
0.0
 10
217.5601756254826
 20
108.5252187772278
 30
0.0
  0
SPLINE
  5
1AC
330
1F
100
AcDbEntity
  8
0
  6
PHANTOM
 62
     8
370
    18
100
AcDbSpline
210
0.0
220
0.0
230
1.0
 70
     8
 71
     3
 72
     8
 73
     4
 74
     0
 42
0.000000001
 43
0.00000001
 40
0.0
 40
0.0
 40
0.0
 40
0.0
 40
0.0002747181007894
 40
0.0002747181007894
 40
0.0002747181007894
 40
0.0002747181007894
 10
219.1400631400918
 20
108.8396879367296
 30
0.0
 10
219.1213713451915
 20
108.8317830418935
 30
0.0
 10
219.1003746346628
 20
108.823721514602
 30
0.0
 10
219.0771711268349
 20
108.8155246408657
 30
0.0
  0
SPLINE
  5
1AD
330
1F
100
AcDbEntity
  8
0
  6
PHANTOM
 62
     8
370
    18
100
AcDbSpline
210
0.0
220
0.0
230
1.0
 70
     8
 71
     3
 72
     8
 73
     4
 74
     0
 42
0.000000001
 43
0.00000001
 40
0.0
 40
0.0
 40
0.0
 40
0.0
 40
1.0
 40
1.0
 40
1.0
 40
1.0
 10
219.257993077988
 20
108.9288816777379
 30
0.0
 10
219.257070507272
 20
108.9023325663377
 30
0.0
 10
219.2177162205664
 20
108.8725279843618
 30
0.0
 10
219.1400631400918
 20
108.8396879367296
 30
0.0
  0
LWPOLYLINE
  5
1AE
330
1F
100
AcDbEntity
  8
0
  6
PHANTOM
 62
     8
370
    18
100
AcDbPolyline
 90
        3
 70
   128
 43
0.0
 10
219.2631779668
 20
109.0780904037
 10
219.2619430331
 20
109.0425534626
 10
219.2579932941
 20
108.9288815842
  0
LWPOLYLINE
  5
1AF
330
1F
100
AcDbEntity
  8
0
  6
PHANTOM
 62
     8
370
    18
100
AcDbPolyline
 90
        7
 70
   128
 43
0.0
 10
238.0354261456
 20
107.9112084103
 10
238.022316849
 20
108.2961304332
 10
238.0118040798
 20
108.604653737
 10
238.0039101896
 20
108.8363884469
 10
237.9986426292
 20
108.9910410796
 10
237.9960088489
 20
109.0684162904
 10
237.9956772981
 20
109.0780904037
  0
LWPOLYLINE
  5
1B0
330
1F
100
AcDbEntity
  8
0
  6
PHANTOM
 62
     8
370
    18
100
AcDbPolyline
 90
        7
 70
   128
 43
0.0
 10
173.4718835411
 20
109.0780904037
 10
173.4715519903
 20
109.0684162904
 10
173.46891821
 20
108.9910410796
 10
173.4636506496
 20
108.8363884469
 10
173.4557567594
 20
108.604653737
 10
173.4452439902
 20
108.2961304332
 10
173.4321346936
 20
107.9112084103
  0
LWPOLYLINE
  5
1B1
330
1F
100
AcDbEntity
  8
0
  6
PHANTOM
 62
     8
370
    18
100
AcDbPolyline
 90
        3
 70
   128
 43
0.0
 10
192.2095675451
 20
108.9288815842
 10
192.2056178061
 20
109.0425534626
 10
192.2043828724
 20
109.0780904037
  0
SPLINE
  5
1B2
330
1F
100
AcDbEntity
  8
0
  6
PHANTOM
 62
     8
370
    18
100
AcDbSpline
210
0.0
220
0.0
230
1.0
 70
     8
 71
     3
 72
     8
 73
     4
 74
     0
 42
0.000000001
 43
0.00000001
 40
0.0
 40
0.0
 40
0.0
 40
0.0
 40
1.0
 40
1.0
 40
1.0
 40
1.0
 10
192.3274976991104
 20
108.8396879367306
 30
0.0
 10
192.2498446186373
 20
108.8725279843624
 30
0.0
 10
192.2104903319324
 20
108.902332566338
 30
0.0
 10
192.2095677612163
 20
108.9288816777379
 30
0.0
  0
LWPOLYLINE
  5
1B3
330
1F
100
AcDbEntity
  8
0
  6
PHANTOM
 62
     8
370
    18
100
AcDbPolyline
 90
        3
 70
   128
 43
0.0
 10
219.0771714283
 20
108.8155247257
 10
219.0216357318
 20
108.8113533319
 10
218.9767282886
 20
108.7994971299
  0
LWPOLYLINE
  5
1B4
330
1F
100
AcDbEntity
  8
0
  6
PHANTOM
 62
     8
370
    18
100
AcDbPolyline
 90
        3
 70
   128
 43
0.0
 10
192.3903894109
 20
108.8155247257
 10
192.4459251074
 20
108.8113533319
 10
192.4959604127
 20
108.7976167896
  0
ARC
  5
1B5
330
1F
100
AcDbEntity
  8
0
  6
PHANTOM
 62
     8
370
    18
100
AcDbCircle
 10
192.3329784342
 20
108.5537545195
 30
0.0
 40
0.2859858844129261
100
AcDbArc
 50
67.0340889791
 51
91.0980177951
  0
ARC
  5
1B6
330
1F
100
AcDbEntity
  8
0
  6
PHANTOM
 62
     8
370
    18
100
AcDbCircle
 10
219.1345841045
 20
108.5537453982
 30
0.0
 40
0.2859949714606923
100
AcDbArc
 50
88.9023576327
 51
113.0413183561
  0
ARC
  5
1B7
330
1F
100
AcDbEntity
  8
0
  6
PHANTOM
 62
     8
370
    18
100
AcDbCircle
 10
219.2578278754
 20
108.6286947303
 30
0.0
 40
0.3001868994549033
100
AcDbArc
 50
89.9684270342
 51
139.5046195589
  0
ARC
  5
1B8
330
1F
100
AcDbEntity
  8
0
  6
PHANTOM
 62
     8
370
    18
100
AcDbCircle
 10
192.2097326601
 20
108.6286942515
 30
0.0
 40
0.3001873781242029
100
AcDbArc
 50
40.3440634706
 51
90.0315149504
  0
LINE
  5
1B9
330
1F
100
AcDbEntity
  8
0
  6
Continuous
 62
     7
370
    25
100
AcDbLine
 10
116.1629676478
 20
104.1967840851
 30
0.0
 11
114.2328092371
 21
104.1967840851
 31
0.0
  0
LINE
  5
1BA
330
1F
100
AcDbEntity
  8
0
  6
Continuous
 62
     7
370
    25
100
AcDbLine
 10
114.2328092371
 20
104.1967840851
 30
0.0
 11
114.3041530865
 21
106.2398053459
 31
0.0
  0
LINE
  5
1BB
330
1F
100
AcDbEntity
  8
0
  6
Continuous
 62
     7
370
    25
100
AcDbLine
 10
116.861322849
 20
102.196784223
 30
0.0
 11
116.1629676478
 21
102.196784223
 31
0.0
  0
LINE
  5
1BC
330
1F
100
AcDbEntity
  8
0
  6
Continuous
 62
     7
370
    25
100
AcDbLine
 10
116.1629676478
 20
102.196784223
 30
0.0
 11
116.1629676478
 21
104.1967840851
 31
0.0
  0
SPLINE
  5
1BD
330
1F
100
AcDbEntity
  8
0
  6
Continuous
 62
     7
370
    25
100
AcDbSpline
210
0.0
220
0.0
230
1.0
 70
     8
 71
     3
 72
    14
 73
    10
 74
     0
 42
0.000000001
 43
0.00000001
 40
0.0
 40
0.0
 40
0.0
 40
0.0
 40
0.25
 40
0.25
 40
0.5
 40
0.5
 40
0.75
 40
0.75
 40
1.0
 40
1.0
 40
1.0
 40
1.0
 10
115.4813684577163
 20
107.6525155429806
 30
0.0
 10
115.4813684577163
 20
107.6525155429806
 30
0.0
 10
115.5160647400438
 20
107.6601640349415
 30
0.0
 10
115.6448685651287
 20
107.6882382721153
 30
0.0
 10
115.7400023582263
 20
107.7088683547614
 30
0.0
 10
115.9718529136332
 20
107.7582856525348
 30
0.0
 10
116.1084857584412
 20
107.7870419312127
 30
0.0
 10
116.4044209719072
 20
107.8480525634934
 30
0.0
 10
116.5606248551706
 20
107.8796715709244
 30
0.0
 10
116.7198035911376
 20
107.9112084178964
 30
0.0
  0
ARC
  5
1BE
330
1F
100
AcDbEntity
  8
0
  6
Continuous
 62
     7
370
    25
100
AcDbCircle
 10
115.8032393069
 20
106.1874561051
 30
0.0
 40
1.500000000000012
100
AcDbArc
 50
102.3909212133
 51
178.0
  0
LINE
  5
1BF
330
1F
100
AcDbEntity
  8
0
  6
Continuous
 62
     7
370
    25
100
AcDbLine
 10
116.861322849
 20
102.196784223
 30
0.0
 11
140.3660762132
 21
102.196784223
 31
0.0
  0
LINE
  5
1C0
330
1F
100
AcDbEntity
  8
0
  6
Continuous
 62
     7
370
    25
100
AcDbLine
 10
142.9232458593
 20
106.2398053459
 30
0.0
 11
143.0644306363
 21
102.196784223
 31
0.0
  0
LINE
  5
1C1
330
1F
100
AcDbEntity
  8
0
  6
Continuous
 62
     7
370
    25
100
AcDbLine
 10
143.0644306363
 20
102.196784223
 30
0.0
 11
140.3660762132
 21
102.196784223
 31
0.0
  0
SPLINE
  5
1C2
330
1F
100
AcDbEntity
  8
0
  6
Continuous
 62
     7
370
    25
100
AcDbSpline
210
0.0
220
0.0
230
1.0
 70
     8
 71
     3
 72
    16
 73
    12
 74
     0
 42
0.000000001
 43
0.00000001
 40
0.0
 40
0.0
 40
0.0
 40
0.0
 40
0.2500000000000019
 40
0.2500000000000019
 40
0.5000000000000038
 40
0.5000000000000038
 40
0.7500000000000057
 40
0.7500000000000057
 40
0.8750000000000028
 40
0.8750000000000028
 40
1.0
 40
1.0
 40
1.0
 40
1.0
 10
140.507594619848
 20
107.9112084178964
 30
0.0
 10
140.666718032681
 20
107.8796825316673
 30
0.0
 10
140.8250535907592
 20
107.8476270365653
 30
0.0
 10
141.1188298445032
 20
107.7870564064326
 30
0.0
 10
141.2566132918542
 20
107.7580593513119
 30
0.0
 10
141.4876541903649
 20
107.7088119500425
 30
0.0
 10
141.582815301265
 20
107.688176490243
 30
0.0
 10
141.6796284968715
 20
107.6670742470104
 30
0.0
 10
141.7046379083846
 20
107.6615966154659
 30
0.0
 10
141.7376031592888
 20
107.6543686091804
 30
0.0
 10
141.7460297532693
 20
107.6525155429806
 30
0.0
 10
141.7460297532693
 20
107.6525155429806
 30
0.0
  0
ARC
  5
1C3
330
1F
100
AcDbEntity
  8
0
  6
Continuous
 62
     7
370
    25
100
AcDbCircle
 10
141.4241589041
 20
106.1874561051
 30
0.0
 40
1.499999999999997
100
AcDbArc
 50
2.0
 51
77.6090787867
  0
ARC
  5
1C4
330
1F
100
AcDbEntity
  8
0
  6
Continuous
 62
     7
370
    25
100
AcDbCircle
 10
128.6136991055
 20
47.8780904788
 30
0.0
 40
61.2
100
AcDbArc
 50
78.7935547796
 51
101.2064452204
  0
SPLINE
  5
1C5
330
1F
100
AcDbEntity
  8
0
  6
PHANTOM
 62
     8
370
    18
100
AcDbSpline
210
0.0
220
0.0
230
1.0
 70
     8
 71
     3
 72
    20
 73
    16
 74
     0
 42
0.000000001
 43
0.00000001
 40
0.0
 40
0.0
 40
0.0
 40
0.0
 40
0.1250000000000001
 40
0.1250000000000001
 40
0.2500000000000001
 40
0.2500000000000001
 40
0.3750000000000001
 40
0.3750000000000001
 40
0.5000000000000001
 40
0.5000000000000001
 40
0.6250000000000001
 40
0.6250000000000001
 40
0.7500000000000001
 40
0.7500000000000001
 40
1.0
 40
1.0
 40
1.0
 40
1.0
 10
117.0113206380581
 20
106.4921577134616
 30
0.0
 10
116.8331445485713
 20
106.4798373387063
 30
0.0
 10
116.657953901634
 20
106.4672189493097
 30
0.0
 10
116.3132947034409
 20
106.4414285801786
 30
0.0
 10
116.1421092091163
 20
106.4281158806127
 30
0.0
 10
115.8147129126491
 20
106.4016710367132
 30
0.0
 10
115.6595133452091
 20
106.3886335005069
 30
0.0
 10
115.3658784003716
 20
106.3630026284354
 30
0.0
 10
115.2263704051258
 20
106.3502987821935
 30
0.0
 10
114.9760054918789
 20
106.3264805606423
 30
0.0
 10
114.8638085604401
 20
106.3152581161231
 30
0.0
 10
114.6657490167043
 20
106.294302765158
 30
0.0
 10
114.5806280149822
 20
106.2846311959934
 30
0.0
 10
114.3767322930193
 20
106.2592974674284
 30
0.0
 10
114.3043946351215
 20
106.2467229733396
 30
0.0
 10
114.3041530663979
 20
106.2398053501859
 30
0.0
  0
LINE
  5
1C6
330
1F
100
AcDbEntity
  8
0
  6
PHANTOM
 62
     8
370
    18
100
AcDbLine
 10
117.0113206151
 20
106.4921577112
 30
0.0
 11
116.861322849
 21
102.196784223
 31
0.0
  0
ARC
  5
1C7
330
1F
100
AcDbEntity
  8
0
  6
PHANTOM
 62
     8
370
    18
100
AcDbCircle
 10
65.2165505889
 20
96.5913749665
 30
0.0
 40
52.73256774543694
100
AcDbArc
 50
10.8217747768
 51
12.3958707673
  0
ARC
  5
1C8
330
1F
100
AcDbEntity
  8
0
  6
PHANTOM
 62
     8
370
    18
100
AcDbCircle
 10
128.6136991055
 20
47.9304397238
 30
0.0
 40
59.69999999999995
100
AcDbArc
 50
78.7935547796
 51
101.2064452204
  0
LINE
  5
1C9
330
1F
100
AcDbEntity
  8
0
  6
PHANTOM
 62
     8
370
    18
100
AcDbLine
 10
140.3660762132
 20
102.196784223
 30
0.0
 11
140.2160773994
 21
106.4921577112
 31
0.0
  0
SPLINE
  5
1CA
330
1F
100
AcDbEntity
  8
0
  6
PHANTOM
 62
     8
370
    18
100
AcDbSpline
210
0.0
220
0.0
230
1.0
 70
     8
 71
     3
 72
    20
 73
    16
 74
     0
 42
0.000000001
 43
0.00000001
 40
0.0
 40
0.0
 40
0.0
 40
0.0
 40
0.1249999999999991
 40
0.1249999999999991
 40
0.2499999999999983
 40
0.2499999999999983
 40
0.3749999999999974
 40
0.3749999999999974
 40
0.4999999999999966
 40
0.4999999999999966
 40
0.7499999999999982
 40
0.7499999999999982
 40
0.8749999999999991
 40
0.8749999999999991
 40
1.0
 40
1.0
 40
1.0
 40
1.0
 10
142.9232451445878
 20
106.2398053501859
 30
0.0
 10
142.9231244284615
 20
106.2432622077525
 30
0.0
 10
142.9054170948172
 20
106.2480504181698
 30
0.0
 10
142.8361802222258
 20
106.2601680873074
 30
0.0
 10
142.783776449063
 20
106.2676005011125
 30
0.0
 10
142.6474789274138
 20
106.2845509143444
 30
0.0
 10
142.5640552245932
 20
106.2940357973304
 30
0.0
 10
142.3667309163164
 20
106.3149378183957
 30
0.0
 10
142.252439361548
 20
106.3263769906392
 30
0.0
 10
141.8778022309336
 20
106.3620296598561
 30
0.0
 10
141.5761509335912
 20
106.3884587456544
 30
0.0
 10
141.0885680875457
 20
106.427855301417
 30
0.0
 10
140.9174476917229
 20
106.4411745280974
 30
0.0
 10
140.5700322040377
 20
106.4671787264973
 30
0.0
 10
140.394156887284
 20
106.479844030434
 30
0.0
 10
140.2160775729275
 20
106.4921577134616
 30
0.0
  0
ARC
  5
1CB
330
1F
100
AcDbEntity
  8
0
  6
PHANTOM
 62
     8
370
    18
100
AcDbCircle
 10
192.0077194982
 20
96.5920175398
 30
0.0
 40
52.7293747991014
100
AcDbArc
 50
167.6040815712
 51
169.1782728847
  0
LINE
  5
1CC
330
1F
100
AcDbEntity
  8
0
  6
Continuous
 62
     7
370
    25
100
AcDbLine
 10
192.6645484252
 20
163.6531081922
 30
0.0
 11
192.6645484252
 21
165.2834494189
 31
0.0
  0
LINE
  5
1CD
330
1F
100
AcDbEntity
  8
0
  6
Continuous
 62
     7
370
    25
100
AcDbLine
 10
192.7343901677
 20
163.6531081922
 30
0.0
 11
192.6645484252
 21
163.6531081922
 31
0.0
  0
LINE
  5
1CE
330
1F
100
AcDbEntity
  8
0
  6
Continuous
 62
     7
370
    25
100
AcDbLine
 10
192.7343901677
 20
151.7516448685
 30
0.0
 11
192.7343901677
 21
163.6531081922
 31
0.0
  0
LINE
  5
1CF
330
1F
100
AcDbEntity
  8
0
  6
Continuous
 62
     7
370
    25
100
AcDbLine
 10
192.6750248728
 20
151.7516448685
 30
0.0
 11
192.7343901677
 21
151.7516448685
 31
0.0
  0
ELLIPSE
  5
1D0
330
1F
100
AcDbEntity
  8
0
  6
Continuous
 62
     7
370
    25
100
AcDbEllipse
 10
192.6750246558
 20
149.2516452814
 30
0.0
 11
0.0
 21
2.500000000000028
 31
0.0
210
0.0
220
0.0
230
1.0
 40
0.0349207695
 41
0.0
 42
1.570796326794897
  0
ELLIPSE
  5
1D1
330
1F
100
AcDbEntity
  8
0
  6
Continuous
 62
     7
370
    25
100
AcDbEllipse
 10
218.7925361834
 20
149.2516452814
 30
0.0
 11
0.0
 21
2.500000000000028
 31
0.0
210
0.0
220
0.0
230
1.0
 40
0.0349207695
 41
4.71238898038469
 42
6.283185307179586
  0
LINE
  5
1D2
330
1F
100
AcDbEntity
  8
0
  6
Continuous
 62
     7
370
    25
100
AcDbLine
 10
218.7331706715
 20
151.7516448685
 30
0.0
 11
218.7925359664
 21
151.7516448685
 31
0.0
  0
LINE
  5
1D3
330
1F
100
AcDbEntity
  8
0
  6
Continuous
 62
     7
370
    25
100
AcDbLine
 10
218.7331706715
 20
163.6531081922
 30
0.0
 11
218.7331706715
 21
151.7516448685
 31
0.0
  0
LINE
  5
1D4
330
1F
100
AcDbEntity
  8
0
  6
Continuous
 62
     7
370
    25
100
AcDbLine
 10
218.8030124141
 20
163.6531081922
 30
0.0
 11
218.7331706715
 21
163.6531081922
 31
0.0
  0
LINE
  5
1D5
330
1F
100
AcDbEntity
  8
0
  6
Continuous
 62
     7
370
    25
100
AcDbLine
 10
218.8030124141
 20
165.2834494189
 30
0.0
 11
218.8030124141
 21
163.6531081922
 31
0.0
  0
SPLINE
  5
1D6
330
1F
100
AcDbEntity
  8
0
  6
Continuous
 62
     7
370
    25
100
AcDbSpline
210
0.0
220
0.0
230
1.0
 70
    24
 71
     3
 72
     8
 73
     4
 74
     0
 42
0.000000001
 43
0.00000001
 40
0.0000078103848663
 40
0.0000078103848663
 40
0.0000078103848663
 40
0.0000078103848663
 40
0.0000484098147428
 40
0.0000484098147428
 40
0.0000484098147428
 40
0.0000484098147428
 10
218.9145715464985
 20
149.224019955156
 30
0.0
 10
218.9153382658661
 20
149.222216708503
 30
0.0
 10
218.9159658993654
 20
149.2207405777896
 30
0.0
 10
218.9164366228323
 20
149.2196334836532
 30
0.0
  0
SPLINE
  5
1D7
330
1F
100
AcDbEntity
  8
0
  6
Continuous
 62
     7
370
    25
100
AcDbSpline
210
0.0
220
0.0
230
1.0
 70
    24
 71
     3
 72
     8
 73
     4
 74
     0
 42
0.000000001
 43
0.00000001
 40
0.0
 40
0.0
 40
0.0
 40
0.0
 40
0.0000405994298016
 40
0.0000405994298016
 40
0.0000405994298016
 40
0.0000405994298016
 10
192.5511242163721
 20
149.2196334836534
 30
0.0
 10
192.5515949398381
 20
149.2207405777878
 30
0.0
 10
192.552222573336
 20
149.2222167084975
 30
0.0
 10
192.5529892927017
 20
149.224019955146
 30
0.0
  0
SPLINE
  5
1D8
330
1F
100
AcDbEntity
  8
0
  6
Continuous
 62
     7
370
    25
100
AcDbSpline
210
0.0
220
0.0
230
1.0
 70
    24
 71
     3
 72
     8
 73
     4
 74
     0
 42
0.000000001
 43
0.00000001
 40
0.0000000000000001
 40
0.0000000000000001
 40
0.0000000000000001
 40
0.0000000000000001
 40
0.0000169468106399
 40
0.0000169468106399
 40
0.0000169468106399
 40
0.0000169468106399
 10
192.5529892927019
 20
149.2240199551353
 30
0.0
 10
192.5533093284001
 20
149.2247726468318
 30
0.0
 10
192.5535644642414
 20
149.2253727006195
 30
0.0
 10
192.5537539551261
 20
149.2258183640761
 30
0.0
  0
SPLINE
  5
1D9
330
1F
100
AcDbEntity
  8
0
  6
Continuous
 62
     7
370
    25
100
AcDbSpline
210
0.0
220
0.0
230
1.0
 70
    24
 71
     3
 72
     8
 73
     4
 74
     0
 42
0.000000001
 43
0.00000001
 40
0.0
 40
0.0
 40
0.0
 40
0.0
 40
0.0000169468105648
 40
0.0000169468105648
 40
0.0000169468105648
 40
0.0000169468105648
 10
218.9138068840782
 20
149.2258183640762
 30
0.0
 10
218.9139963749621
 20
149.2253727006215
 30
0.0
 10
218.9142515108023
 20
149.2247726468479
 30
0.0
 10
218.9145715464984
 20
149.2240199551561
 30
0.0
  0
LINE
  5
1DA
330
1F
100
AcDbEntity
  8
0
  6
Continuous
 62
     7
370
    25
100
AcDbLine
 10
239.6845115779
 20
139.4499996268
 30
0.0
 11
239.6845115779
 21
162.9547529911
 31
0.0
  0
LINE
  5
1DB
330
1F
100
AcDbEntity
  8
0
  6
Continuous
 62
     7
370
    25
100
AcDbLine
 10
171.7830492613
 20
162.9547529911
 30
0.0
 11
171.7830492613
 21
139.4499996268
 31
0.0
  0
ARC
  5
1DC
330
1F
100
AcDbEntity
  8
0
  6
Continuous
 62
     7
370
    25
100
AcDbCircle
 10
213.8798381072
 20
149.3057095027
 30
0.0
 40
5.000000000000028
100
AcDbArc
 50
270.0
 51
0.0
  0
LINE
  5
1DD
330
1F
100
AcDbEntity
  8
0
  6
Continuous
 62
     7
370
    25
100
AcDbLine
 10
218.8992748467
 20
149.2599965596
 30
0.0
 11
218.8798381446
 21
149.3057095968
 31
0.0
  0
SPLINE
  5
1DE
330
1F
100
AcDbEntity
  8
0
  6
Continuous
 62
     7
370
    25
100
AcDbSpline
210
0.0
220
0.0
230
1.0
 70
    24
 71
     3
 72
     8
 73
     4
 74
     0
 42
0.000000001
 43
0.00000001
 40
0.0000091422550155
 40
0.0000091422550155
 40
0.0000091422550155
 40
0.0000091422550155
 40
0.0010038292404901
 40
0.0010038292404901
 40
0.0010038292404901
 40
0.0010038292404901
 10
192.5537539551261
 20
149.2258183640761
 30
0.0
 10
192.5648760547892
 20
149.2519764211691
 30
0.0
 10
192.5761901567337
 20
149.2785860482707
 30
0.0
 10
192.5877227320356
 20
149.3057095026826
 30
0.0
  0
ARC
  5
1DF
330
1F
100
AcDbEntity
  8
0
  6
Continuous
 62
     7
370
    25
100
AcDbCircle
 10
197.587722732
 20
149.3057095027
 30
0.0
 40
5.0
100
AcDbArc
 50
180.0
 51
270.0
  0
LINE
  5
1E0
330
1F
100
AcDbEntity
  8
0
  6
Continuous
 62
     7
370
    25
100
AcDbLine
 10
197.5877225829
 20
144.3057087772
 30
0.0
 11
213.8798382563
 21
144.3057087772
 31
0.0
  0
ELLIPSE
  5
1E1
330
1F
100
AcDbEntity
  8
0
  6
Continuous
 62
     7
370
    25
100
AcDbEllipse
 10
174.554536275
 20
162.8816208791
 30
0.0
 11
1.911515070417835
 21
-1.911515070417806
 31
0.0
210
0.0
220
0.0
230
1.0
 40
0.998782766
 41
2.356803477777929
 42
3.638007032703321
  0
ELLIPSE
  5
1E2
330
1F
100
AcDbEntity
  8
0
  6
Continuous
 62
     7
370
    25
100
AcDbEllipse
 10
174.4846947361
 20
162.9514624181
 30
0.0
 11
1.911515070417806
 21
-1.911515070417806
 31
0.0
210
0.0
220
0.0
230
1.0
 40
0.998782766
 41
3.664877402029289
 42
3.926381829401639
  0
LINE
  5
1E3
330
1F
100
AcDbEntity
  8
0
  6
Continuous
 62
     7
370
    25
100
AcDbLine
 10
171.8749000189
 20
163.6531081922
 30
0.0
 11
171.9644485471
 21
163.6531081922
 31
0.0
  0
ELLIPSE
  5
1E4
330
1F
100
AcDbEntity
  8
0
  6
Continuous
 62
     7
370
    25
100
AcDbEllipse
 10
236.9828661032
 20
139.453291051
 30
0.0
 11
-1.911515070417835
 21
1.911515070417835
 31
0.0
210
0.0
220
0.0
230
1.0
 40
0.998782766
 41
2.356803477777944
 42
3.926381829401656
  0
ELLIPSE
  5
1E5
330
1F
100
AcDbEntity
  8
0
  6
Continuous
 62
     7
370
    25
100
AcDbEllipse
 10
236.9828661032
 20
162.9514624181
 30
0.0
 11
-1.911515070417835
 21
-1.911515070417806
 31
0.0
210
0.0
220
0.0
230
1.0
 40
0.998782766
 41
2.356803477777969
 42
2.618307905150318
  0
ELLIPSE
  5
1E6
330
1F
100
AcDbEntity
  8
0
  6
Continuous
 62
     7
370
    25
100
AcDbEllipse
 10
236.9130245642
 20
162.8816208791
 30
0.0
 11
-1.911515070417806
 21
-1.911515070417806
 31
0.0
210
0.0
220
0.0
230
1.0
 40
0.998782766
 41
2.645178274476272
 42
3.926381829401649
  0
LINE
  5
1E7
330
1F
100
AcDbEntity
  8
0
  6
Continuous
 62
     7
370
    25
100
AcDbLine
 10
239.5031122921
 20
163.6531081922
 30
0.0
 11
239.5926608203
 21
163.6531081922
 31
0.0
  0
ELLIPSE
  5
1E8
330
1F
100
AcDbEntity
  8
0
  6
Continuous
 62
     7
370
    25
100
AcDbEllipse
 10
174.4846947361
 20
139.453291051
 30
0.0
 11
1.911515070417806
 21
1.911515070417835
 31
0.0
210
0.0
220
0.0
230
1.0
 40
0.998782766
 41
2.356803477777943
 42
3.926381829401642
  0
ELLIPSE
  5
1E9
330
1F
100
AcDbEntity
  8
0
  6
Continuous
 62
     7
370
    25
100
AcDbEllipse
 10
219.1031952776
 20
165.2830837854
 30
0.0
 11
-0.2123905633797847
 21
0.2123905633797563
 31
0.0
210
0.0
220
0.0
230
1.0
 40
0.998782766
 41
5.498396131367723
 42
7.067974482991329
  0
ELLIPSE
  5
1EA
330
1F
100
AcDbEntity
  8
0
  6
Continuous
 62
     7
370
    25
100
AcDbEllipse
 10
192.3643655616
 20
165.2830837854
 30
0.0
 11
0.2123905633797563
 21
0.2123905633797563
 31
0.0
210
0.0
220
0.0
230
1.0
 40
0.998782766
 41
5.49839613136779
 42
7.067974482991396
  0
LINE
  5
1EB
330
1F
100
AcDbEntity
  8
0
  6
Continuous
 62
     7
370
    25
100
AcDbLine
 10
174.5512454269
 20
165.5832666029
 30
0.0
 11
192.364731474
 21
165.5832666029
 31
0.0
  0
LINE
  5
1EC
330
1F
100
AcDbEntity
  8
0
  6
Continuous
 62
     7
370
    25
100
AcDbLine
 10
219.1028293652
 20
165.5832666029
 30
0.0
 11
236.9163154123
 21
165.5832666029
 31
0.0
  0
LINE
  5
1ED
330
1F
100
AcDbEntity
  8
0
  6
Continuous
 62
     7
370
    25
100
AcDbLine
 10
174.4814036844
 20
136.7516452038
 30
0.0
 11
236.9861571548
 21
136.7516452038
 31
0.0
  0
SPLINE
  5
1EE
330
1F
100
AcDbEntity
  8
0
  6
PHANTOM
 62
     8
370
    18
100
AcDbSpline
210
0.0
220
0.0
230
1.0
 70
     8
 71
     3
 72
     8
 73
     4
 74
     0
 42
0.000000001
 43
0.00000001
 40
0.0
 40
0.0
 40
0.0
 40
0.0
 40
0.0002747181008004
 40
0.0002747181008004
 40
0.0002747181008004
 40
0.0002747181008004
 10
192.3903897123694
 20
145.5394165775541
 30
0.0
 10
192.3671862045406
 20
145.6276207039855
 30
0.0
 10
192.3461894940112
 20
145.7164493657407
 30
0.0
 10
192.3274976991104
 20
145.8057448800466
 30
0.0
  0
SPLINE
  5
1EF
330
1F
100
AcDbEntity
  8
0
  6
PHANTOM
 62
     8
370
    18
100
AcDbSpline
210
0.0
220
0.0
230
1.0
 70
     8
 71
     3
 72
    10
 73
     6
 74
     0
 42
0.000000001
 43
0.00000001
 40
0.0
 40
0.0
 40
0.0
 40
0.0
 40
0.5
 40
0.5
 40
1.0
 40
1.0
 40
1.0
 40
1.0
 10
193.9073852137201
 20
142.9947078115331
 30
0.0
 10
193.5396983769369
 20
143.3390905587484
 30
0.0
 10
193.2269189312263
 20
143.7271824503092
 30
0.0
 10
192.7115310262613
 20
144.5916937320582
 30
0.0
 10
192.5185864266637
 20
145.0520989151067
 30
0.0
 10
192.3903897123694
 20
145.5394165775541
 30
0.0
  0
SPLINE
  5
1F0
330
1F
100
AcDbEntity
  8
0
  6
PHANTOM
 62
     8
370
    18
100
AcDbSpline
210
0.0
220
0.0
230
1.0
 70
     8
 71
     3
 72
    16
 73
    12
 74
     0
 42
0.000000001
 43
0.00000001
 40
0.0
 40
0.0
 40
0.0
 40
0.0
 40
0.2500000000000013
 40
0.2500000000000013
 40
0.3750000000000011
 40
0.3750000000000011
 40
0.5000000000000009
 40
0.5000000000000009
 40
0.7500000000000004
 40
0.7500000000000004
 40
1.0
 40
1.0
 40
1.0
 40
1.0
 10
197.7337804196022
 20
141.4848431801084
 30
0.0
 10
197.3790782852353
 20
141.4848431801084
 30
0.0
 10
197.0301532511504
 20
141.5181622536604
 30
0.0
 10
196.5150571093181
 20
141.6159983753314
 30
0.0
 10
196.3447497819969
 20
141.6566421196805
 30
0.0
 10
196.0069673875471
 20
141.7542941097041
 30
0.0
 10
195.8386905030735
 20
141.8116714324559
 30
0.0
 10
195.3476289053034
 20
142.0054920476659
 30
0.0
 10
195.0365055287993
 20
142.1636495592581
 30
0.0
 10
194.4460041308988
 20
142.5367049538826
 30
0.0
 10
194.1651374894921
 20
142.7532919435926
 30
0.0
 10
193.9073852137189
 20
142.9947078115316
 30
0.0
  0
LINE
  5
1F1
330
1F
100
AcDbEntity
  8
0
  6
PHANTOM
 62
     8
370
    18
100
AcDbLine
 10
213.7337807996
 20
141.4848425948
 30
0.0
 11
197.7337800396
 21
141.4848425948
 31
0.0
  0
SPLINE
  5
1F2
330
1F
100
AcDbEntity
  8
0
  6
PHANTOM
 62
     8
370
    18
100
AcDbSpline
210
0.0
220
0.0
230
1.0
 70
     8
 71
     3
 72
    16
 73
    12
 74
     0
 42
0.000000001
 43
0.00000001
 40
0.0
 40
0.0
 40
0.0
 40
0.0
 40
0.2500000000000008
 40
0.2500000000000008
 40
0.3750000000000011
 40
0.3750000000000011
 40
0.5000000000000013
 40
0.5000000000000013
 40
0.7500000000000007
 40
0.7500000000000007
 40
1.0
 40
1.0
 40
1.0
 40
1.0
 10
217.5601756254826
 20
142.9947078115314
 30
0.0
 10
217.3024017843838
 20
142.7532717450831
 30
0.0
 10
217.0258818631721
 20
142.5398797730567
 30
0.0
 10
216.5840486906422
 20
142.2600891433083
 30
0.0
 10
216.432230863322
 20
142.1735887734765
 30
0.0
 10
216.1193221724973
 20
142.0143750315282
 30
0.0
 10
215.9573627779718
 20
141.9413659676839
 30
0.0
 10
215.4661975041287
 20
141.7473863129484
 30
0.0
 10
215.1304904354463
 20
141.6501864351657
 30
0.0
 10
214.4428241466141
 20
141.5188158096844
 30
0.0
 10
214.0885148486895
 20
141.4848431801084
 30
0.0
 10
213.7337804196022
 20
141.4848431801084
 30
0.0
  0
SPLINE
  5
1F3
330
1F
100
AcDbEntity
  8
0
  6
PHANTOM
 62
     8
370
    18
100
AcDbSpline
210
0.0
220
0.0
230
1.0
 70
     8
 71
     3
 72
    10
 73
     6
 74
     0
 42
0.000000001
 43
0.00000001
 40
0.0
 40
0.0
 40
0.0
 40
0.0
 40
0.5
 40
0.5
 40
1.0
 40
1.0
 40
1.0
 40
1.0
 10
219.0771711268349
 20
145.5394165775541
 30
0.0
 10
218.9489744125406
 20
145.0520989151063
 30
0.0
 10
218.7560298129428
 20
144.5916937320575
 30
0.0
 10
218.2406419079772
 20
143.7271824503079
 30
0.0
 10
217.9278624622663
 20
143.3390905587469
 30
0.0
 10
217.5601756254826
 20
142.9947078115314
 30
0.0
  0
SPLINE
  5
1F4
330
1F
100
AcDbEntity
  8
0
  6
PHANTOM
 62
     8
370
    18
100
AcDbSpline
210
0.0
220
0.0
230
1.0
 70
     8
 71
     3
 72
     8
 73
     4
 74
     0
 42
0.000000001
 43
0.00000001
 40
0.0
 40
0.0
 40
0.0
 40
0.0
 40
0.0002747181007894
 40
0.0002747181007894
 40
0.0002747181007894
 40
0.0002747181007894
 10
219.1400631400918
 20
145.8057448800359
 30
0.0
 10
219.1213713451915
 20
145.7164493657335
 30
0.0
 10
219.1003746346628
 20
145.627620703982
 30
0.0
 10
219.0771711268349
 20
145.5394165775541
 30
0.0
  0
SPLINE
  5
1F5
330
1F
100
AcDbEntity
  8
0
  6
PHANTOM
 62
     8
370
    18
100
AcDbSpline
210
0.0
220
0.0
230
1.0
 70
     8
 71
     3
 72
     8
 73
     4
 74
     0
 42
0.000000001
 43
0.00000001
 40
0.0
 40
0.0
 40
0.0
 40
0.0
 40
1.0
 40
1.0
 40
1.0
 40
1.0
 10
219.257993077988
 20
146.9314407739569
 30
0.0
 10
219.257070507272
 20
146.5519351406331
 30
0.0
 10
219.2177162205664
 20
146.1767136283631
 30
0.0
 10
219.1400631400918
 20
145.8057448800359
 30
0.0
  0
ELLIPSE
  5
1F6
330
1F
100
AcDbEntity
  8
0
  6
PHANTOM
 62
     8
370
    18
100
AcDbEllipse
 10
217.1365031605
 20
151.2023767345
 30
0.0
 11
0.0
 21
61.19999999999996
 31
0.0
210
0.0
220
0.0
230
1.0
 40
0.0347495892
 41
4.642545675306247
 42
4.928651352912624
  0
LINE
  5
1F7
330
1F
100
AcDbEntity
  8
0
  6
PHANTOM
 62
     8
370
    18
100
AcDbLine
 10
236.8449705151
 20
164.3347073796
 30
0.0
 11
219.2136399878
 21
164.3347073796
 31
0.0
  0
SPLINE
  5
1F8
330
1F
100
AcDbEntity
  8
0
  6
PHANTOM
 62
     8
370
    18
100
AcDbSpline
210
0.0
220
0.0
230
1.0
 70
     8
 71
     3
 72
    16
 73
    12
 74
     0
 42
0.000000001
 43
0.00000001
 40
0.0
 40
0.0
 40
0.0
 40
0.0
 40
0.2499999999999976
 40
0.2499999999999976
 40
0.4999999999999951
 40
0.4999999999999951
 40
0.7499999999999927
 40
0.7499999999999927
 40
0.8749999999999963
 40
0.8749999999999963
 40
1.0
 40
1.0
 40
1.0
 40
1.0
 10
238.0354278794598
 20
163.0962722489033
 30
0.0
 10
238.0365018046216
 20
163.2553956617363
 30
0.0
 10
238.0076459915066
 20
163.4137312198144
 30
0.0
 10
237.8946802706835
 20
163.7075074735585
 30
0.0
 10
237.8091969047885
 20
163.8452909209094
 30
0.0
 10
237.5927722657925
 20
164.0763318194201
 30
0.0
 10
237.4600205952208
 20
164.1714929303202
 30
0.0
 10
237.2401461093321
 20
164.2683061259268
 30
0.0
 10
237.1624481694577
 20
164.2933155374398
 30
0.0
 10
237.0059104110649
 20
164.326280788344
 30
0.0
 10
236.9261966821567
 20
164.3347073823246
 30
0.0
 10
236.8449712257456
 20
164.3347073823246
 30
0.0
  0
ELLIPSE
  5
1F9
330
1F
100
AcDbEntity
  8
0
  6
PHANTOM
 62
     8
370
    18
100
AcDbEllipse
 10
240.0804481344
 20
151.2023767345
 30
0.0
 11
-2.842170943040401E-14
 21
61.19999999999999
 31
0.0
210
0.0
220
0.0
230
1.0
 40
0.0340648683
 41
1.375206960254754
 42
1.766385693335039
  0
SPLINE
  5
1FA
330
1F
100
AcDbEntity
  8
0
  6
PHANTOM
 62
     8
370
    18
100
AcDbSpline
210
0.0
220
0.0
230
1.0
 70
     8
 71
     3
 72
    14
 73
    10
 74
     0
 42
0.000000001
 43
0.00000001
 40
0.0
 40
0.0
 40
0.0
 40
0.0
 40
0.25
 40
0.25
 40
0.5
 40
0.5
 40
0.75
 40
0.75
 40
1.0
 40
1.0
 40
1.0
 40
1.0
 10
236.8449712257456
 20
138.0700460867716
 30
0.0
 10
237.0075045791594
 20
138.0700460867716
 30
0.0
 10
237.168496419106
 20
138.104742369099
 30
0.0
 10
237.4603108442963
 20
138.2335461941839
 30
0.0
 10
237.5931773359753
 20
138.3286799872815
 30
0.0
 10
237.8100333235147
 20
138.5605305426884
 30
0.0
 10
237.8947925994506
 20
138.6971633874964
 30
0.0
 10
238.0082993423324
 20
138.9930986009624
 30
0.0
 10
238.0365021779979
 20
139.1493024842258
 30
0.0
 10
238.0354278794598
 20
139.3084812201928
 30
0.0
  0
LINE
  5
1FB
330
1F
100
AcDbEntity
  8
0
  6
PHANTOM
 62
     8
370
    18
100
AcDbLine
 10
174.6225903241
 20
138.0700459295
 30
0.0
 11
236.8449705151
 21
138.0700459295
 31
0.0
  0
SPLINE
  5
1FC
330
1F
100
AcDbEntity
  8
0
  6
PHANTOM
 62
     8
370
    18
100
AcDbSpline
210
0.0
220
0.0
230
1.0
 70
     8
 71
     3
 72
    16
 73
    12
 74
     0
 42
0.000000001
 43
0.00000001
 40
0.0
 40
0.0
 40
0.0
 40
0.0
 40
0.2500000000000019
 40
0.2500000000000019
 40
0.5000000000000038
 40
0.5000000000000038
 40
0.7500000000000057
 40
0.7500000000000057
 40
0.8750000000000028
 40
0.8750000000000028
 40
1.0
 40
1.0
 40
1.0
 40
1.0
 10
173.4321329597446
 20
139.3084812201928
 30
0.0
 10
173.4310590345828
 20
139.1493578073599
 30
0.0
 10
173.4599148476979
 20
138.9910222492817
 30
0.0
 10
173.5728805685209
 20
138.6972459955377
 30
0.0
 10
173.6583639344159
 20
138.5594625481867
 30
0.0
 10
173.8747885734119
 20
138.328421649676
 30
0.0
 10
174.0075402439835
 20
138.2332605387759
 30
0.0
 10
174.2274147298722
 20
138.1364473431694
 30
0.0
 10
174.3051126697466
 20
138.1114379316563
 30
0.0
 10
174.4616504281395
 20
138.0784726807521
 30
0.0
 10
174.5413641570477
 20
138.0700460867716
 30
0.0
 10
174.6225896134588
 20
138.0700460867716
 30
0.0
  0
ELLIPSE
  5
1FD
330
1F
100
AcDbEntity
  8
0
  6
PHANTOM
 62
     8
370
    18
100
AcDbEllipse
 10
171.3871127048
 20
151.2023767345
 30
0.0
 11
2.842170943040401E-14
 21
61.19999999999999
 31
0.0
210
0.0
220
0.0
230
1.0
 40
0.0340648683
 41
4.516799613844567
 42
4.907978346924845
  0
SPLINE
  5
1FE
330
1F
100
AcDbEntity
  8
0
  6
PHANTOM
 62
     8
370
    18
100
AcDbSpline
210
0.0
220
0.0
230
1.0
 70
     8
 71
     3
 72
    14
 73
    10
 74
     0
 42
0.000000001
 43
0.00000001
 40
0.0
 40
0.0
 40
0.0
 40
0.0
 40
0.25
 40
0.25
 40
0.5
 40
0.5
 40
0.75
 40
0.75
 40
1.0
 40
1.0
 40
1.0
 40
1.0
 10
174.6225896134588
 20
164.3347073823246
 30
0.0
 10
174.460056260045
 20
164.3347073823246
 30
0.0
 10
174.2990644200983
 20
164.3000110999971
 30
0.0
 10
174.0072499949081
 20
164.1712072749122
 30
0.0
 10
173.8743835032291
 20
164.0760734818146
 30
0.0
 10
173.6575275156897
 20
163.8442229264077
 30
0.0
 10
173.5727682397538
 20
163.7075900815997
 30
0.0
 10
173.459261496872
 20
163.4116548681337
 30
0.0
 10
173.4310586612065
 20
163.2554509848703
 30
0.0
 10
173.4321329597446
 20
163.0962722489032
 30
0.0
  0
LINE
  5
1FF
330
1F
100
AcDbEntity
  8
0
  6
PHANTOM
 62
     8
370
    18
100
AcDbLine
 10
192.2539208514
 20
164.3347073796
 30
0.0
 11
174.6225903241
 21
164.3347073796
 31
0.0
  0
ELLIPSE
  5
200
330
1F
100
AcDbEntity
  8
0
  6
PHANTOM
 62
     8
370
    18
100
AcDbEllipse
 10
194.3310576787
 20
151.2023767345
 30
0.0
 11
2.842170943040401E-14
 21
61.19999999999996
 31
0.0
210
0.0
220
0.0
230
1.0
 40
0.0347495892
 41
1.354533954266986
 42
1.640639631873342
  0
SPLINE
  5
201
330
1F
100
AcDbEntity
  8
0
  6
PHANTOM
 62
     8
370
    18
100
AcDbSpline
210
0.0
220
0.0
230
1.0
 70
     8
 71
     3
 72
     8
 73
     4
 74
     0
 42
0.000000001
 43
0.00000001
 40
0.0
 40
0.0
 40
0.0
 40
0.0
 40
1.0
 40
1.0
 40
1.0
 40
1.0
 10
192.3274976991104
 20
145.8057448800466
 30
0.0
 10
192.2498446186373
 20
146.1767136283704
 30
0.0
 10
192.2104903319324
 20
146.5519351406368
 30
0.0
 10
192.2095677612163
 20
146.9314407739569
 30
0.0
  0
ARC
  5
202
330
1F
100
AcDbEntity
  8
0
  6
PHANTOM
 62
     8
370
    18
100
AcDbCircle
 10
192.3189917318
 20
163.9073967852
 30
0.0
 40
0.4322366984958451
100
AcDbArc
 50
57.1053455744
 51
98.6584854854
  0
ELLIPSE
  5
203
330
1F
100
AcDbEntity
  8
0
  6
PHANTOM
 62
     8
370
    18
100
AcDbEllipse
 10
194.6308749268
 20
151.2023767345
 30
0.0
 11
2.842170943040400E-14
 21
60.9
 31
0.0
210
0.0
220
0.0
230
1.0
 40
0.0349207695
 41
1.354533954266983
 42
1.640639631873341
  0
ARC
  5
204
330
1F
100
AcDbEntity
  8
0
  6
PHANTOM
 62
     8
370
    18
100
AcDbCircle
 10
192.2778467678
 20
148.1108948224
 30
0.0
 40
1.181429000635686
100
AcDbArc
 50
266.6868153865
 51
281.3020871597
  0
ARC
  5
205
330
1F
100
AcDbEntity
  8
0
  6
PHANTOM
 62
     8
370
    18
100
AcDbCircle
 10
219.1897140714
 20
148.1108948224
 30
0.0
 40
1.181429000635686
100
AcDbArc
 50
258.6979128403
 51
273.3131846135
  0
ELLIPSE
  5
206
330
1F
100
AcDbEntity
  8
0
  6
PHANTOM
 62
     8
370
    18
100
AcDbEllipse
 10
216.8366859124
 20
151.2023767345
 30
0.0
 11
-2.842170943040400E-14
 21
60.9
 31
0.0
210
0.0
220
0.0
230
1.0
 40
0.0349207695
 41
4.642545675306247
 42
4.928651352912621
  0
ARC
  5
207
330
1F
100
AcDbEntity
  8
0
  6
PHANTOM
 62
     8
370
    18
100
AcDbCircle
 10
219.1485691074
 20
163.9073967852
 30
0.0
 40
0.4322366984958604
100
AcDbArc
 50
81.3415145146
 51
122.8946544256
  0
ARC
  5
208
330
1F
100
AcDbEntity
  8
0
  6
PHANTOM
 62
     8
370
    18
100
AcDbCircle
 10
238.364000958
 20
160.7857403832
 30
0.0
 40
2.333777799911294
100
AcDbArc
 50
59.8972422208
 51
98.0936181557
  0
ELLIPSE
  5
209
330
1F
100
AcDbEntity
  8
0
  6
PHANTOM
 62
     8
370
    18
100
AcDbEllipse
 10
241.5795343749
 20
151.2023767345
 30
0.0
 11
0.0
 21
59.69999999999998
 31
0.0
210
0.0
220
0.0
230
1.0
 40
0.0349207695
 41
1.375206960254755
 42
1.766385693335038
  0
ARC
  5
20A
330
1F
100
AcDbEntity
  8
0
  6
PHANTOM
 62
     8
370
    18
100
AcDbCircle
 10
238.3640006076
 20
141.6190150841
 30
0.0
 40
2.333779534273898
100
AcDbArc
 50
261.9063965873
 51
300.1027430362
  0
ARC
  5
20B
330
1F
100
AcDbEntity
  8
0
  6
PHANTOM
 62
     8
370
    18
100
AcDbCircle
 10
173.1035602316
 20
141.6190150841
 30
0.0
 40
2.333779534273898
100
AcDbArc
 50
239.8972569638
 51
278.0936034127
  0
ELLIPSE
  5
20C
330
1F
100
AcDbEntity
  8
0
  6
PHANTOM
 62
     8
370
    18
100
AcDbEllipse
 10
169.8880264643
 20
151.2023767345
 30
0.0
 11
0.0
 21
59.69999999999998
 31
0.0
210
0.0
220
0.0
230
1.0
 40
0.0349207695
 41
4.516799613844563
 42
4.907978346924847
  0
ARC
  5
20D
330
1F
100
AcDbEntity
  8
0
  6
PHANTOM
 62
     8
370
    18
100
AcDbCircle
 10
173.1035598813
 20
160.7857403832
 30
0.0
 40
2.333777799911294
100
AcDbArc
 50
81.9063818443
 51
120.1027577792
  0
ARC
  5
20E
330
1F
100
AcDbEntity
  8
0
  6
PHANTOM
 62
     8
370
    18
100
AcDbCircle
 10
219.2704006093
 20
146.7815163998
 30
0.0
 40
0.9844374636878089
100
AcDbArc
 50
244.4930703211
 51
262.3917939668
  0
SPLINE
  5
20F
330
1F
100
AcDbEntity
  8
0
  6
PHANTOM
 62
     8
370
    18
100
AcDbSpline
210
0.0
220
0.0
230
1.0
 70
     8
 71
     3
 72
     8
 73
     4
 74
     0
 42
0.000000001
 43
0.00000001
 40
0.0
 40
0.0
 40
0.0
 40
0.0
 40
1.0
 40
1.0
 40
1.0
 40
1.0
 10
218.8464816203247
 20
145.8930288312777
 30
0.0
 10
218.9199665924029
 20
146.2420635935665
 30
0.0
 10
218.9572531043924
 20
146.5951675633728
 30
0.0
 10
218.9581758298823
 20
146.9523767345481
 30
0.0
  0
SPLINE
  5
210
330
1F
100
AcDbEntity
  8
0
  6
PHANTOM
 62
     8
370
    18
100
AcDbSpline
210
0.0
220
0.0
230
1.0
 70
     8
 71
     3
 72
     8
 73
     4
 74
     0
 42
0.000000001
 43
0.00000001
 40
0.0
 40
0.0
 40
0.0
 40
0.0
 40
1.0
 40
1.0
 40
1.0
 40
1.0
 10
192.509385009322
 20
146.9523767345481
 30
0.0
 10
192.510307734812
 20
146.5951675633763
 30
0.0
 10
192.5475942468007
 20
146.2420635935733
 30
0.0
 10
192.6210792188776
 20
145.8930288312879
 30
0.0
  0
ARC
  5
211
330
1F
100
AcDbEntity
  8
0
  6
PHANTOM
 62
     8
370
    18
100
AcDbCircle
 10
192.1971602299
 20
146.7815163998
 30
0.0
 40
0.9844374636878053
100
AcDbArc
 50
277.6082060332
 51
295.5069296789
  0
ARC
  5
212
330
1F
100
AcDbEntity
  8
0
  6
PHANTOM
 62
     8
370
    18
100
AcDbCircle
 10
192.206671144
 20
146.5169269548
 30
0.0
 40
0.9946247166645227
100
AcDbArc
 50
280.6442917999
 51
298.4418180471
  0
SPLINE
  5
213
330
1F
100
AcDbEntity
  8
0
  6
PHANTOM
 62
     8
370
    18
100
AcDbSpline
210
0.0
220
0.0
230
1.0
 70
     8
 71
     3
 72
    10
 73
     6
 74
     0
 42
0.000000001
 43
0.00000001
 40
0.0
 40
0.0
 40
0.0
 40
0.0
 40
0.5
 40
0.5
 40
1.0
 40
1.0
 40
1.0
 40
1.0
 10
192.6803773827359
 20
145.6423515012475
 30
0.0
 10
192.8014332272871
 20
145.1830607196138
 30
0.0
 10
192.983590419741
 20
144.7490600809345
 30
0.0
 10
193.4695792032664
 20
143.9340394392866
 30
0.0
 10
193.7643546261299
 20
143.5680045160303
 30
0.0
 10
194.1105722067454
 20
143.24296283085
 30
0.0
  0
ARC
  5
214
330
1F
100
AcDbEntity
  8
0
  6
PHANTOM
 62
     8
370
    18
100
AcDbCircle
 10
192.8804104192
 20
144.0425225117
 30
0.0
 40
1.467171452462564
100
AcDbArc
 50
314.4245392735
 51
326.977640911
  0
ARC
  5
215
330
1F
100
AcDbEntity
  8
0
  6
PHANTOM
 62
     8
370
    18
100
AcDbCircle
 10
218.58715042
 20
144.0425225117
 30
0.0
 40
1.467171452462544
100
AcDbArc
 50
213.022359089
 51
225.5754607265
  0
SPLINE
  5
216
330
1F
100
AcDbEntity
  8
0
  6
PHANTOM
 62
     8
370
    18
100
AcDbSpline
210
0.0
220
0.0
230
1.0
 70
     8
 71
     3
 72
    10
 73
     6
 74
     0
 42
0.000000001
 43
0.00000001
 40
0.0
 40
0.0
 40
0.0
 40
0.0
 40
0.5
 40
0.5
 40
1.0
 40
1.0
 40
1.0
 40
1.0
 10
217.3569886324573
 20
143.2429628308486
 30
0.0
 10
217.7032062130733
 20
143.5680045160289
 30
0.0
 10
217.9979816359371
 20
143.9340394392854
 30
0.0
 10
218.4839704194631
 20
144.7490600809338
 30
0.0
 10
218.6661276119172
 20
145.1830607196135
 30
0.0
 10
218.7871834564685
 20
145.6423515012475
 30
0.0
  0
ARC
  5
217
330
1F
100
AcDbEntity
  8
0
  6
PHANTOM
 62
     8
370
    18
100
AcDbCircle
 10
219.2608896952
 20
146.5169269548
 30
0.0
 40
0.9946247166645134
100
AcDbArc
 50
241.5581819529
 51
259.3557082001
  0
LINE
  5
218
330
1F
100
AcDbEntity
  8
0
  6
PHANTOM
 62
     8
370
    18
100
AcDbLine
 10
213.7337807996
 20
141.4848425948
 30
0.0
 11
213.7337807996
 21
141.8081847542
 31
0.0
  0
SPLINE
  5
219
330
1F
100
AcDbEntity
  8
0
  6
PHANTOM
 62
     8
370
    18
100
AcDbSpline
210
0.0
220
0.0
230
1.0
 70
     8
 71
     3
 72
    16
 73
    12
 74
     0
 42
0.000000001
 43
0.00000001
 40
0.0
 40
0.0
 40
0.0
 40
0.0
 40
0.2499999999999999
 40
0.2499999999999999
 40
0.3749999999999996
 40
0.3749999999999996
 40
0.4999999999999992
 40
0.4999999999999992
 40
0.7499999999999996
 40
0.7499999999999996
 40
1.0
 40
1.0
 40
1.0
 40
1.0
 10
213.7337804196022
 20
141.808185267386
 30
0.0
 10
214.0696139442928
 20
141.8081852673859
 30
0.0
 10
214.4000000915841
 20
141.8398865037205
 30
0.0
 10
214.887760682759
 20
141.9329630176541
 30
0.0
 10
215.0490355547023
 20
141.9716281595585
 30
0.0
 10
215.3689150529271
 20
142.0645170028542
 30
0.0
 10
215.5282378272756
 20
142.1190800408851
 30
0.0
 10
215.993041237705
 20
142.3032887748429
 30
0.0
 10
216.2876248367507
 20
142.4535848682609
 30
0.0
 10
216.8469016733653
 20
142.8080651601071
 30
0.0
 10
217.1129282308438
 20
143.0138122528102
 30
0.0
 10
217.3569886324573
 20
143.2429628308486
 30
0.0
  0
SPLINE
  5
21A
330
1F
100
AcDbEntity
  8
0
  6
PHANTOM
 62
     8
370
    18
100
AcDbSpline
210
0.0
220
0.0
230
1.0
 70
     8
 71
     3
 72
    14
 73
    10
 74
     0
 42
0.000000001
 43
0.00000001
 40
0.0
 40
0.0
 40
0.0
 40
0.0
 40
0.25
 40
0.25
 40
0.5
 40
0.5
 40
0.75
 40
0.75
 40
1.0
 40
1.0
 40
1.0
 40
1.0
 10
194.1105722067454
 20
143.24296283085
 30
0.0
 10
194.3546898475113
 20
143.0137585104397
 30
0.0
 10
194.6165455322886
 20
142.8110991165987
 30
0.0
 10
195.1743779383577
 20
142.456688348919
 30
0.0
 10
195.4732824284263
 20
142.3038567918789
 30
0.0
 10
196.0933658819019
 20
142.0579530443785
 30
0.0
 10
196.4112317703141
 20
141.9654960280337
 30
0.0
 10
197.062364995315
 20
141.840518122335
 30
0.0
 10
197.3978656077624
 20
141.8081852673866
 30
0.0
 10
197.7337804196022
 20
141.8081852673867
 30
0.0
  0
LINE
  5
21B
330
1F
100
AcDbEntity
  8
0
  6
PHANTOM
 62
     8
370
    18
100
AcDbLine
 10
197.7337800396
 20
141.4848425948
 30
0.0
 11
197.7337800396
 21
141.8081847542
 31
0.0
  0
SPLINE
  5
21C
330
1F
100
AcDbEntity
  8
0
  6
PHANTOM
 62
     8
370
    18
100
AcDbSpline
210
0.0
220
0.0
230
1.0
 70
     8
 71
     3
 72
     8
 73
     4
 74
     0
 42
0.000000001
 43
0.00000001
 40
0.0
 40
0.0
 40
0.0
 40
0.0
 40
0.0002582603238825
 40
0.0002582603238825
 40
0.0002582603238825
 40
0.0002582603238825
 10
192.6210792188776
 20
145.8930288312878
 30
0.0
 10
192.6387042547558
 20
145.8089665073791
 30
0.0
 10
192.6584999042665
 20
145.725356291357
 30
0.0
 10
192.6803773827359
 20
145.6423515012475
 30
0.0
  0
SPLINE
  5
21D
330
1F
100
AcDbEntity
  8
0
  6
PHANTOM
 62
     8
370
    18
100
AcDbSpline
210
0.0
220
0.0
230
1.0
 70
     8
 71
     3
 72
     8
 73
     4
 74
     0
 42
0.000000001
 43
0.00000001
 40
0.0
 40
0.0
 40
0.0
 40
0.0
 40
0.0002582603238721
 40
0.0002582603238721
 40
0.0002582603238721
 40
0.0002582603238721
 10
218.7871834564685
 20
145.6423515012475
 30
0.0
 10
218.809060934937
 20
145.7253562913537
 30
0.0
 10
218.828856584447
 20
145.8089665073724
 30
0.0
 10
218.8464816203247
 20
145.8930288312777
 30
0.0
  0
LINE
  5
21E
330
1F
100
AcDbEntity
  8
0
  6
PHANTOM
 62
     8
370
    18
100
AcDbLine
 10
192.6645484252
 20
165.2834494189
 30
0.0
 11
192.5932044593
 21
165.2121055113
 31
0.0
  0
SPLINE
  5
21F
330
1F
100
AcDbEntity
  8
0
  6
PHANTOM
 62
     8
370
    18
100
AcDbSpline
210
0.0
220
0.0
230
1.0
 70
     8
 71
     3
 72
    10
 73
     6
 74
     0
 42
0.000000001
 43
0.00000001
 40
0.0
 40
0.0
 40
0.0
 40
0.0
 40
0.5
 40
0.5
 40
1.0
 40
1.0
 40
1.0
 40
1.0
 10
192.5162292499364
 20
146.9523767345481
 30
0.0
 10
192.5196619765209
 20
147.3560385413915
 30
0.0
 10
192.524950867121
 20
147.7434386772971
 30
0.0
 10
192.5371520863145
 20
148.4943109347711
 30
0.0
 10
192.5440815453167
 20
148.8577888892112
 30
0.0
 10
192.551124216372
 20
149.2196334836545
 30
0.0
  0
LINE
  5
220
330
1F
100
AcDbEntity
  8
0
  6
PHANTOM
 62
     8
370
    18
100
AcDbLine
 10
192.5093854276
 20
146.95237666
 30
0.0
 11
192.5162287859
 21
146.95237666
 31
0.0
  0
ELLIPSE
  5
221
330
1F
100
AcDbEntity
  8
0
  6
PHANTOM
 62
     8
370
    18
100
AcDbEllipse
 10
192.5946670106
 20
164.0128365331
 30
0.0
 11
0.0
 21
1.200000000000017
 31
0.0
210
0.0
220
0.0
230
1.0
 40
0.0349207695
 41
0.0349065850397795
 42
1.354533954266877
  0
SPLINE
  5
222
330
1F
100
AcDbEntity
  8
0
  6
PHANTOM
 62
     8
370
    18
100
AcDbSpline
210
0.0
220
0.0
230
1.0
 70
     8
 71
     3
 72
    10
 73
     6
 74
     0
 42
0.000000001
 43
0.00000001
 40
0.0
 40
0.0
 40
0.0
 40
0.0
 40
0.5
 40
0.5
 40
1.0
 40
1.0
 40
1.0
 40
1.0
 10
218.9164366228323
 20
149.2196334836531
 30
0.0
 10
218.9234792938879
 20
148.8577888892155
 30
0.0
 10
218.9304087528899
 20
148.4943109347711
 30
0.0
 10
218.9426099720834
 20
147.7434386772971
 30
0.0
 10
218.9478988626834
 20
147.3560385413915
 30
0.0
 10
218.951331589268
 20
146.9523767345481
 30
0.0
  0
LINE
  5
223
330
1F
100
AcDbEntity
  8
0
  6
PHANTOM
 62
     8
370
    18
100
AcDbLine
 10
218.8743563799
 20
165.2121055113
 30
0.0
 11
218.8030124141
 21
165.2834494189
 31
0.0
  0
ELLIPSE
  5
224
330
1F
100
AcDbEntity
  8
0
  6
PHANTOM
 62
     8
370
    18
100
AcDbEllipse
 10
218.8728938286
 20
164.0128365331
 30
0.0
 11
0.0
 21
1.200000000000017
 31
0.0
210
0.0
220
0.0
230
1.0
 40
0.0349207695
 41
4.928651352912583
 42
6.248278722139534
  0
LINE
  5
225
330
1F
100
AcDbEntity
  8
0
  6
PHANTOM
 62
     8
370
    18
100
AcDbLine
 10
218.9581754116
 20
146.95237666
 30
0.0
 11
218.9513320533
 21
146.95237666
 31
0.0
  0
SPLINE
  5
226
330
1F
100
AcDbEntity
  8
0
  6
PHANTOM
 62
     8
370
    18
100
AcDbSpline
210
0.0
220
0.0
230
1.0
 70
     8
 71
     3
 72
     8
 73
     4
 74
     0
 42
0.000000001
 43
0.00000001
 40
0.0
 40
0.0
 40
0.0
 40
0.0
 40
1.0
 40
1.0
 40
1.0
 40
1.0
 10
218.951331589268
 20
146.9523767345481
 30
0.0
 10
218.9536414824134
 20
146.5996839113941
 30
0.0
 10
218.9185487723786
 20
146.2425782408827
 30
0.0
 10
218.8464816203247
 20
145.8930288312776
 30
0.0
  0
SPLINE
  5
227
330
1F
100
AcDbEntity
  8
0
  6
PHANTOM
 62
     8
370
    18
100
AcDbSpline
210
0.0
220
0.0
230
1.0
 70
     8
 71
     3
 72
     8
 73
     4
 74
     0
 42
0.000000001
 43
0.00000001
 40
0.0
 40
0.0
 40
0.0
 40
0.0
 40
1.0
 40
1.0
 40
1.0
 40
1.0
 10
192.6210792188776
 20
145.8930288312879
 30
0.0
 10
192.5485591251325
 20
146.2447751571922
 30
0.0
 10
192.5139110558792
 20
146.5984164622876
 30
0.0
 10
192.5162292499364
 20
146.9523767345481
 30
0.0
  0
ARC
  5
228
330
1F
100
AcDbEntity
  8
0
  6
PHANTOM
 62
     8
370
    18
100
AcDbCircle
 10
213.7337804196
 20
146.9523767345
 30
0.0
 40
4.022151927289799
100
AcDbArc
 50
314.3264353953
 51
321.4560128251
  0
SPLINE
  5
229
330
1F
100
AcDbEntity
  8
0
  6
PHANTOM
 62
     8
370
    18
100
AcDbSpline
210
0.0
220
0.0
230
1.0
 70
     8
 71
     3
 72
    10
 73
     6
 74
     0
 42
0.000000001
 43
0.00000001
 40
0.0
 40
0.0
 40
0.0
 40
0.0
 40
0.5
 40
0.5
 40
1.0
 40
1.0
 40
1.0
 40
1.0
 10
218.0890967180804
 20
145.8233208867584
 30
0.0
 10
217.9291286357166
 20
145.5606050775257
 30
0.0
 10
217.7481872224284
 20
145.3142072509553
 30
0.0
 10
217.345092746205
 20
144.8542891524453
 30
0.0
 10
217.1215513319426
 20
144.6396994221484
 30
0.0
 10
216.8796261414368
 20
144.4461124187553
 30
0.0
  0
LWPOLYLINE
  5
22A
330
1F
100
AcDbEntity
  8
0
  6
PHANTOM
 62
     8
370
    18
100
AcDbPolyline
 90
        9
 70
   128
 43
0.0
 10
218.7871836556
 20
145.6423522496
 10
218.7675103975
 20
145.647452172
 10
218.7259789986
 20
145.6582182609
 10
218.6633829457
 20
145.6744456255
 10
218.580923645
 20
145.6958213412
 10
218.4801815508
 20
145.7219374888
 10
218.3630882261
 20
145.7522930168
 10
218.2318881584
 20
145.7863049173
 10
218.0890968499
 20
145.8233212643
  0
LWPOLYLINE
  5
22B
330
1F
100
AcDbEntity
  8
0
  6
PHANTOM
 62
     8
370
    18
100
AcDbPolyline
 90
        9
 70
   128
 43
0.0
 10
217.3569888306
 20
143.2429635488
 10
217.3119845299
 20
143.2890379392
 10
217.2460515482
 20
143.3565383368
 10
217.1609882695
 20
143.4436263108
 10
217.0591118244
 20
143.5479269885
 10
216.9432003481
 20
143.666596111
 10
216.8164138181
 20
143.7964001262
 10
216.6822074411
 20
143.9337981456
 10
216.5442403836
 20
144.0750481152
  0
SPLINE
  5
22C
330
1F
100
AcDbEntity
  8
0
  6
PHANTOM
 62
     8
370
    18
100
AcDbSpline
210
0.0
220
0.0
230
1.0
 70
     8
 71
     3
 72
     8
 73
     4
 74
     0
 42
0.000000001
 43
0.00000001
 40
0.0
 40
0.0
 40
0.0
 40
0.0
 40
1.0
 40
1.0
 40
1.0
 40
1.0
 10
194.5879346977676
 20
144.4461124187553
 30
0.0
 10
194.1020591060049
 20
144.8349069863425
 30
0.0
 10
193.6998012702598
 20
145.2955884296063
 30
0.0
 10
193.3784641211236
 20
145.8233208867589
 30
0.0
  0
ARC
  5
22D
330
1F
100
AcDbEntity
  8
0
  6
PHANTOM
 62
     8
370
    18
100
AcDbCircle
 10
197.7337804196
 20
146.9523767345
 30
0.0
 40
4.022151927289799
100
AcDbArc
 50
218.5439871749
 51
225.6735646046
  0
LWPOLYLINE
  5
22E
330
1F
100
AcDbEntity
  8
0
  6
PHANTOM
 62
     8
370
    18
100
AcDbPolyline
 90
        9
 70
   128
 43
0.0
 10
194.1105720086
 20
143.2429635488
 10
194.1555763093
 20
143.2890379392
 10
194.221509291
 20
143.3565383368
 10
194.3065725697
 20
143.4436263108
 10
194.4084490148
 20
143.5479269885
 10
194.5243604911
 20
143.666596111
 10
194.6511470211
 20
143.7964001262
 10
194.7853533981
 20
143.9337981456
 10
194.9233204556
 20
144.0750481152
  0
LWPOLYLINE
  5
22F
330
1F
100
AcDbEntity
  8
0
  6
PHANTOM
 62
     8
370
    18
100
AcDbPolyline
 90
        9
 70
   128
 43
0.0
 10
192.6803771836
 20
145.6423522496
 10
192.7000504417
 20
145.647452172
 10
192.7415818406
 20
145.6582182609
 10
192.8041778935
 20
145.6744456255
 10
192.8866371942
 20
145.6958213412
 10
192.9873792884
 20
145.7219374888
 10
193.1044726131
 20
145.7522930168
 10
193.2356726808
 20
145.7863049173
 10
193.3784639893
 20
145.8233212643
  0
ARC
  5
230
330
1F
100
AcDbEntity
  8
0
  6
PHANTOM
 62
     8
370
    18
100
AcDbCircle
 10
192.9686435352
 20
147.3149817713
 30
0.0
 40
0.579794422311163
100
AcDbArc
 50
218.7117651199
 51
270.4733700179
  0
SPLINE
  5
231
330
1F
100
AcDbEntity
  8
0
  6
PHANTOM
 62
     8
370
    18
100
AcDbSpline
210
0.0
220
0.0
230
1.0
 70
     8
 71
     3
 72
     8
 73
     4
 74
     0
 42
0.000000001
 43
0.00000001
 40
0.0
 40
0.0
 40
0.0
 40
0.0
 40
1.0
 40
1.0
 40
1.0
 40
1.0
 10
193.3784641211233
 20
145.8233208867577
 30
0.0
 10
193.2132260251832
 20
146.1127701883259
 30
0.0
 10
193.078283164609
 20
146.4166724120074
 30
0.0
 10
192.9734339663809
 20
146.7352067205647
 30
0.0
  0
SPLINE
  5
232
330
1F
100
AcDbEntity
  8
0
  6
PHANTOM
 62
     8
370
    18
100
AcDbSpline
210
0.0
220
0.0
230
1.0
 70
     8
 71
     3
 72
     8
 73
     4
 74
     0
 42
0.000000001
 43
0.00000001
 40
0.0
 40
0.0
 40
0.0
 40
0.0
 40
1.0
 40
1.0
 40
1.0
 40
1.0
 10
218.4941268728236
 20
146.7352067205649
 30
0.0
 10
218.3892776745953
 20
146.4166724120071
 30
0.0
 10
218.2543348140208
 20
146.1127701883267
 30
0.0
 10
218.0890967180805
 20
145.8233208867584
 30
0.0
  0
ARC
  5
233
330
1F
100
AcDbEntity
  8
0
  6
PHANTOM
 62
     8
370
    18
100
AcDbCircle
 10
218.498917304
 20
147.3149817713
 30
0.0
 40
0.5797944223111624
100
AcDbArc
 50
269.5266299821
 51
321.2882348801
  0
SPLINE
  5
234
330
1F
100
AcDbEntity
  8
0
  6
PHANTOM
 62
     8
370
    18
100
AcDbSpline
210
0.0
220
0.0
230
1.0
 70
     8
 71
     3
 72
    14
 73
    10
 74
     0
 42
0.000000001
 43
0.00000001
 40
0.0
 40
0.0
 40
0.0
 40
0.0
 40
0.25
 40
0.25
 40
0.5
 40
0.5
 40
0.75
 40
0.75
 40
1.0
 40
1.0
 40
1.0
 40
1.0
 10
194.9233201788469
 20
144.0750482233532
 30
0.0
 10
195.1108624908562
 20
143.8918643396532
 30
0.0
 10
195.3156343844642
 20
143.7263190743417
 30
0.0
 10
195.7476251468679
 20
143.4394824877936
 30
0.0
 10
195.9757528466425
 20
143.3170270776469
 30
0.0
 10
196.4574301298994
 20
143.1160415774677
 30
0.0
 10
196.7079520117657
 20
143.0393173139168
 30
0.0
 10
197.2139082030224
 20
142.9372672058524
 30
0.0
 10
197.4714342847535
 20
142.9110137428829
 30
0.0
 10
197.7337804196022
 20
142.9110137428829
 30
0.0
  0
LINE
  5
235
330
1F
100
AcDbEntity
  8
0
  6
PHANTOM
 62
     8
370
    18
100
AcDbLine
 10
197.7337800396
 20
141.8081847542
 30
0.0
 11
197.7337800396
 21
142.9110141062
 31
0.0
  0
SPLINE
  5
236
330
1F
100
AcDbEntity
  8
0
  6
PHANTOM
 62
     8
370
    18
100
AcDbSpline
210
0.0
220
0.0
230
1.0
 70
     8
 71
     3
 72
    14
 73
    10
 74
     0
 42
0.000000001
 43
0.00000001
 40
0.0
 40
0.0
 40
0.0
 40
0.0
 40
0.25
 40
0.25
 40
0.5
 40
0.5
 40
0.75
 40
0.75
 40
1.0
 40
1.0
 40
1.0
 40
1.0
 10
213.7337804196022
 20
142.9110137428829
 30
0.0
 10
213.9958259572679
 20
142.9110137428829
 30
0.0
 10
214.2582167417091
 20
142.9377978187135
 30
0.0
 10
214.766534541661
 20
143.0411130831844
 30
0.0
 10
215.0130036139051
 20
143.1171635428106
 30
0.0
 10
215.4909704735175
 20
143.3167547284936
 30
0.0
 10
215.7234967914285
 20
143.4415381006674
 30
0.0
 10
216.1552503331564
 20
143.7288399665307
 30
0.0
 10
216.3569116602209
 20
143.8920726942208
 30
0.0
 10
216.5442406603563
 20
144.0750482233521
 30
0.0
  0
LINE
  5
237
330
1F
100
AcDbEntity
  8
0
  6
PHANTOM
 62
     8
370
    18
100
AcDbLine
 10
213.7337807996
 20
141.8081847542
 30
0.0
 11
213.7337807996
 21
142.9110141062
 31
0.0
  0
SPLINE
  5
238
330
1F
100
AcDbEntity
  8
0
  6
PHANTOM
 62
     8
370
    18
100
AcDbSpline
210
0.0
220
0.0
230
1.0
 70
     8
 71
     3
 72
    10
 73
     6
 74
     0
 42
0.000000001
 43
0.00000001
 40
0.0
 40
0.0
 40
0.0
 40
0.0
 40
0.5
 40
0.5
 40
1.0
 40
1.0
 40
1.0
 40
1.0
 10
218.9145715464982
 20
149.2240199551413
 30
0.0
 10
218.9112405862509
 20
148.8019082701536
 30
0.0
 10
218.8706613779009
 20
148.3811491974695
 30
0.0
 10
218.7244351521564
 20
147.5512688930468
 30
0.0
 10
218.6173339515796
 20
147.1407638673858
 30
0.0
 10
218.4941268728238
 20
146.7352067205648
 30
0.0
  0
SPLINE
  5
239
330
1F
100
AcDbEntity
  8
0
  6
PHANTOM
 62
     8
370
    18
100
AcDbSpline
210
0.0
220
0.0
230
1.0
 70
     8
 71
     3
 72
    10
 73
     6
 74
     0
 42
0.000000001
 43
0.00000001
 40
0.0
 40
0.0
 40
0.0
 40
0.0
 40
0.5
 40
0.5
 40
1.0
 40
1.0
 40
1.0
 40
1.0
 10
192.9734339663809
 20
146.7352067205647
 30
0.0
 10
192.8495603604731
 20
147.1429578553674
 30
0.0
 10
192.7430687307659
 20
147.5517233490799
 30
0.0
 10
192.5971111764589
 20
148.3798165747184
 30
0.0
 10
192.5563448303797
 20
148.7987937282612
 30
0.0
 10
192.5529892927024
 20
149.2240199551355
 30
0.0
  0
LINE
  5
23A
330
1F
100
AcDbEntity
  8
0
  6
PHANTOM
 62
     8
370
    18
100
AcDbLine
 10
197.7337800396
 20
141.8081847542
 30
0.0
 11
213.7337807996
 21
141.8081847542
 31
0.0
  0
LINE
  5
23B
330
1F
100
AcDbEntity
  8
0
  6
PHANTOM
 62
     8
370
    18
100
AcDbLine
 10
197.7337800396
 20
142.9110141062
 30
0.0
 11
213.7337807996
 21
142.9110141062
 31
0.0
  0
SPLINE
  5
23C
330
1F
100
AcDbEntity
  8
0
  6
PHANTOM
 62
     8
370
    18
100
AcDbSpline
210
0.0
220
0.0
230
1.0
 70
     8
 71
     3
 72
    20
 73
    16
 74
     0
 42
0.000000001
 43
0.00000001
 40
0.0
 40
0.0
 40
0.0
 40
0.0
 40
0.1250000000000001
 40
0.1250000000000001
 40
0.2500000000000001
 40
0.2500000000000001
 40
0.3750000000000001
 40
0.3750000000000001
 40
0.5000000000000001
 40
0.5000000000000001
 40
0.6250000000000001
 40
0.6250000000000001
 40
0.7500000000000001
 40
0.7500000000000001
 40
1.0
 40
1.0
 40
1.0
 40
1.0
 10
171.9330467192159
 20
162.8047552019828
 30
0.0
 10
171.932616482249
 20
162.9829312914696
 30
0.0
 10
171.9495459924396
 20
163.1581219384069
 30
0.0
 10
172.0166854903303
 20
163.5027811366
 30
0.0
 10
172.0676621501742
 20
163.6739666309246
 30
0.0
 10
172.2015132436173
 20
164.0013629273918
 30
0.0
 10
172.2835181246011
 20
164.1565624948318
 30
0.0
 10
172.4772851255954
 20
164.4501974396693
 30
0.0
 10
172.5904534939702
 20
164.5897054349151
 30
0.0
 10
172.8382514057872
 20
164.840070348162
 30
0.0
 10
172.9733846150436
 20
164.9522672796008
 30
0.0
 10
173.2664420714429
 20
165.1503268233366
 30
0.0
 10
173.4241238977592
 20
165.2354478250587
 30
0.0
 10
173.9109852266576
 20
165.4393435470216
 30
0.0
 10
174.2653908790394
 20
165.5116812049194
 30
0.0
 10
174.6225896134588
 20
165.511922773643
 30
0.0
  0
LINE
  5
23D
330
1F
100
AcDbEntity
  8
0
  6
PHANTOM
 62
     8
370
    18
100
AcDbLine
 10
174.6225903241
 20
164.3347073796
 30
0.0
 11
174.6225903241
 21
165.5119227535
 31
0.0
  0
SPLINE
  5
23E
330
1F
100
AcDbEntity
  8
0
  6
PHANTOM
 62
     8
370
    18
100
AcDbSpline
210
0.0
220
0.0
230
1.0
 70
     8
 71
     3
 72
    20
 73
    16
 74
     0
 42
0.000000001
 43
0.00000001
 40
0.0
 40
0.0
 40
0.0
 40
0.0
 40
0.1249999999999994
 40
0.1249999999999994
 40
0.2499999999999989
 40
0.2499999999999989
 40
0.3749999999999983
 40
0.3749999999999983
 40
0.4999999999999978
 40
0.4999999999999978
 40
0.6249999999999972
 40
0.6249999999999972
 40
0.7499999999999967
 40
0.7499999999999967
 40
1.0
 40
1.0
 40
1.0
 40
1.0
 10
239.5345141199885
 20
139.5999982671134
 30
0.0
 10
239.5349443569554
 20
139.4218221776266
 30
0.0
 10
239.5180148467649
 20
139.2466315306893
 30
0.0
 10
239.4508753488741
 20
138.9019723324962
 30
0.0
 10
239.3998986890302
 20
138.7307868381715
 30
0.0
 10
239.2660475955871
 20
138.4033905417043
 30
0.0
 10
239.1840427146033
 20
138.2481909742643
 30
0.0
 10
238.990275713609
 20
137.9545560294269
 30
0.0
 10
238.8771073452342
 20
137.815048034181
 30
0.0
 10
238.6293094334172
 20
137.5646831209341
 30
0.0
 10
238.4941762241608
 20
137.4524861894953
 30
0.0
 10
238.2011187677614
 20
137.2544266457595
 30
0.0
 10
238.0434369414452
 20
137.1693056440374
 30
0.0
 10
237.5565756125468
 20
136.9654099220745
 30
0.0
 10
237.202169960165
 20
136.8930722641767
 30
0.0
 10
236.8449712257456
 20
136.8928306954531
 30
0.0
  0
LINE
  5
23F
330
1F
100
AcDbEntity
  8
0
  6
PHANTOM
 62
     8
370
    18
100
AcDbLine
 10
236.8449705151
 20
138.0700459295
 30
0.0
 11
236.8449705151
 21
136.8928299808
 31
0.0
  0
LINE
  5
240
330
1F
100
AcDbEntity
  8
0
  6
PHANTOM
 62
     8
370
    18
100
AcDbLine
 10
236.8449705151
 20
164.3347073796
 30
0.0
 11
236.8449705151
 21
165.5119227535
 31
0.0
  0
SPLINE
  5
241
330
1F
100
AcDbEntity
  8
0
  6
PHANTOM
 62
     8
370
    18
100
AcDbSpline
210
0.0
220
0.0
230
1.0
 70
     8
 71
     3
 72
    20
 73
    16
 74
     0
 42
0.000000001
 43
0.00000001
 40
0.0
 40
0.0
 40
0.0
 40
0.0
 40
0.1249999999999989
 40
0.1249999999999989
 40
0.2499999999999978
 40
0.2499999999999978
 40
0.3749999999999967
 40
0.3749999999999967
 40
0.4999999999999956
 40
0.4999999999999956
 40
0.7499999999999969
 40
0.7499999999999969
 40
0.8749999999999984
 40
0.8749999999999984
 40
1.0
 40
1.0
 40
1.0
 40
1.0
 10
236.8449712257456
 20
165.511922773643
 30
0.0
 10
237.0234696955829
 20
165.5118020575167
 30
0.0
 10
237.1989917515685
 20
165.4940947238725
 30
0.0
 10
237.5443123102743
 20
165.4248578512811
 30
0.0
 10
237.7158973977103
 20
165.3724540781183
 30
0.0
 10
238.0421360833959
 20
165.2361565564691
 30
0.0
 10
238.1969681700521
 20
165.1527328536485
 30
0.0
 10
238.4901024538403
 20
164.9554085453717
 30
0.0
 10
238.6280979683435
 20
164.8411169906032
 30
0.0
 10
238.9994177606786
 20
164.4664798599889
 30
0.0
 10
239.1988964902871
 20
164.1648285626465
 30
0.0
 10
239.3987168382581
 20
163.677245716601
 30
0.0
 10
239.4500899733213
 20
163.5061253207782
 30
0.0
 10
239.5180327474678
 20
163.1587098330929
 30
0.0
 10
239.5349441232751
 20
162.9828345163392
 30
0.0
 10
239.5345141199885
 20
162.8047552019828
 30
0.0
  0
LINE
  5
242
330
1F
100
AcDbEntity
  8
0
  6
PHANTOM
 62
     8
370
    18
100
AcDbLine
 10
174.6225903241
 20
138.0700459295
 30
0.0
 11
174.6225903241
 21
136.8928299808
 31
0.0
  0
SPLINE
  5
243
330
1F
100
AcDbEntity
  8
0
  6
PHANTOM
 62
     8
370
    18
100
AcDbSpline
210
0.0
220
0.0
230
1.0
 70
     8
 71
     3
 72
    20
 73
    16
 74
     0
 42
0.000000001
 43
0.00000001
 40
0.0
 40
0.0
 40
0.0
 40
0.0
 40
0.1249999999999991
 40
0.1249999999999991
 40
0.2499999999999983
 40
0.2499999999999983
 40
0.3749999999999974
 40
0.3749999999999974
 40
0.4999999999999966
 40
0.4999999999999966
 40
0.7499999999999982
 40
0.7499999999999982
 40
0.8749999999999991
 40
0.8749999999999991
 40
1.0
 40
1.0
 40
1.0
 40
1.0
 10
174.6225896134588
 20
136.8928306954531
 30
0.0
 10
174.4440911436215
 20
136.8929514115794
 30
0.0
 10
174.2685690876358
 20
136.9106587452237
 30
0.0
 10
173.92324852893
 20
136.9798956178151
 30
0.0
 10
173.7516634414941
 20
137.0322993909779
 30
0.0
 10
173.4254247558085
 20
137.1685969126271
 30
0.0
 10
173.2705926691522
 20
137.2520206154477
 30
0.0
 10
172.9774583853641
 20
137.4493449237245
 30
0.0
 10
172.8394628708609
 20
137.5636364784929
 30
0.0
 10
172.4681430785257
 20
137.9382736091073
 30
0.0
 10
172.2686643489173
 20
138.2399249064497
 30
0.0
 10
172.0688440009463
 20
138.7275077524952
 30
0.0
 10
172.0174708658831
 20
138.898628148318
 30
0.0
 10
171.9495280917365
 20
139.2460436360032
 30
0.0
 10
171.9326167159293
 20
139.4219189527569
 30
0.0
 10
171.9330467192159
 20
139.5999982671134
 30
0.0
  0
SPLINE
  5
244
330
1F
100
AcDbEntity
  8
0
  6
PHANTOM
 62
     8
370
    18
100
AcDbSpline
210
0.0
220
0.0
230
1.0
 70
     8
 71
     3
 72
    10
 73
     6
 74
     0
 42
0.000000001
 43
0.00000001
 40
0.0
 40
0.0
 40
0.0
 40
0.0
 40
0.5
 40
0.5
 40
1.0
 40
1.0
 40
1.0
 40
1.0
 10
192.5537539551261
 20
149.2258183640761
 30
0.0
 10
192.5617102236143
 20
148.8250957314335
 30
0.0
 10
192.617313843386
 20
148.4283332974377
 30
0.0
 10
192.8215667347577
 20
147.6558397945729
 30
0.0
 10
192.9686433433728
 20
147.2858346773673
 30
0.0
 10
193.1575613123483
 20
146.9382459830894
 30
0.0
  0
ARC
  5
245
330
1F
100
AcDbEntity
  8
0
  6
PHANTOM
 62
     8
370
    18
100
AcDbCircle
 10
192.8107138359
 20
147.0677797521
 30
0.0
 40
0.3702462517662934
100
AcDbArc
 50
296.0713978779
 51
339.5214517618
  0
SPLINE
  5
246
330
1F
100
AcDbEntity
  8
0
  6
PHANTOM
 62
     8
370
    18
100
AcDbSpline
210
0.0
220
0.0
230
1.0
 70
     8
 71
     3
 72
    10
 73
     6
 74
     0
 42
0.000000001
 43
0.00000001
 40
0.0
 40
0.0
 40
0.0
 40
0.0
 40
0.5
 40
0.5
 40
1.0
 40
1.0
 40
1.0
 40
1.0
 10
193.6571472611077
 20
146.1882018563166
 30
0.0
 10
193.8379007669637
 20
145.9635912254361
 30
0.0
 10
194.036568865076
 20
145.7550514245476
 30
0.0
 10
194.4694706218376
 20
145.3716105536667
 30
0.0
 10
194.705308298524
 20
145.1957838015611
 30
0.0
 10
194.9554024140822
 20
145.041402826691
 30
0.0
  0
LWPOLYLINE
  5
247
330
1F
100
AcDbEntity
  8
0
  6
PHANTOM
 62
     8
370
    18
100
AcDbPolyline
 90
        9
 70
   128
 43
0.0
 10
194.9554026557
 20
145.0414033198
 10
194.94620212
 20
145.0264984333
 10
194.9238373397
 20
144.9902681225
 10
194.8891297413
 20
144.934042316
 10
194.8433552367
 20
144.85988855
 10
194.788193932
 20
144.7705281489
 10
194.7256742475
 20
144.6692486816
 10
194.6580937562
 20
144.5597679877
 10
194.5879344327
 20
144.4461131059
  0
ARC
  5
248
330
1F
100
AcDbEntity
  8
0
  6
PHANTOM
 62
     8
370
    18
100
AcDbCircle
 10
192.9962751714
 20
146.4040885677
 30
0.0
 40
0.6952402125856694
100
AcDbArc
 50
303.3479409062
 51
341.9094027803
  0
SPLINE
  5
249
330
1F
100
AcDbEntity
  8
0
  6
PHANTOM
 62
     8
370
    18
100
AcDbSpline
210
0.0
220
0.0
230
1.0
 70
     8
 71
     3
 72
    10
 73
     6
 74
     0
 42
0.000000001
 43
0.00000001
 40
0.0
 40
0.0
 40
0.0
 40
0.0
 40
0.5
 40
0.5
 40
1.0
 40
1.0
 40
1.0
 40
1.0
 10
216.5121584251222
 20
145.041402826691
 30
0.0
 10
216.7624092409175
 20
145.1958805312874
 30
0.0
 10
216.9980171851365
 20
145.3715589398061
 30
0.0
 10
217.4308057419792
 20
145.7548734039279
 30
0.0
 10
217.6295320977435
 20
145.963432199848
 30
0.0
 10
217.8104135780969
 20
146.1882018563169
 30
0.0
  0
ARC
  5
24A
330
1F
100
AcDbEntity
  8
0
  6
PHANTOM
 62
     8
370
    18
100
AcDbCircle
 10
218.4712856678
 20
146.4040885677
 30
0.0
 40
0.6952402125856849
100
AcDbArc
 50
198.0905972197
 51
236.6520590938
  0
LWPOLYLINE
  5
24B
330
1F
100
AcDbEntity
  8
0
  6
PHANTOM
 62
     8
370
    18
100
AcDbPolyline
 90
        9
 70
   128
 43
0.0
 10
216.5121581835
 20
145.0414033198
 10
216.5213587192
 20
145.0264984333
 10
216.5437234996
 20
144.9902681225
 10
216.5784310979
 20
144.934042316
 10
216.6242056025
 20
144.85988855
 10
216.6793669073
 20
144.7705281489
 10
216.7418865917
 20
144.6692486816
 10
216.809467083
 20
144.5597679877
 10
216.8796264065
 20
144.4461131059
  0
SPLINE
  5
24C
330
1F
100
AcDbEntity
  8
0
  6
PHANTOM
 62
     8
370
    18
100
AcDbSpline
210
0.0
220
0.0
230
1.0
 70
     8
 71
     3
 72
    10
 73
     6
 74
     0
 42
0.000000001
 43
0.00000001
 40
0.0
 40
0.0
 40
0.0
 40
0.0
 40
0.5
 40
0.5
 40
1.0
 40
1.0
 40
1.0
 40
1.0
 10
218.3099995268562
 20
146.9382459830897
 30
0.0
 10
218.498929319466
 20
147.2858564315799
 30
0.0
 10
218.6458154204688
 20
147.6552694377027
 30
0.0
 10
218.8502532061558
 20
148.4282514402653
 30
0.0
 10
218.9058502893301
 20
148.8250792991351
 30
0.0
 10
218.9138068840782
 20
149.2258183640761
 30
0.0
  0
ARC
  5
24D
330
1F
100
AcDbEntity
  8
0
  6
PHANTOM
 62
     8
370
    18
100
AcDbCircle
 10
218.6568470033
 20
147.0677797521
 30
0.0
 40
0.3702462517663064
100
AcDbArc
 50
200.4785482382
 51
243.9286021221
  0
SPLINE
  5
24E
330
1F
100
AcDbEntity
  8
0
  6
PHANTOM
 62
     8
370
    18
100
AcDbSpline
210
0.0
220
0.0
230
1.0
 70
     8
 71
     3
 72
     8
 73
     4
 74
     0
 42
0.000000001
 43
0.00000001
 40
0.0
 40
0.0
 40
0.0
 40
0.0
 40
1.0
 40
1.0
 40
1.0
 40
1.0
 10
217.8104135780969
 20
146.1882018563169
 30
0.0
 10
217.9993545077556
 20
146.4229864664899
 30
0.0
 10
218.1660755257969
 20
146.6734413386468
 30
0.0
 10
218.3099995268562
 20
146.9382459830897
 30
0.0
  0
SPLINE
  5
24F
330
1F
100
AcDbEntity
  8
0
  6
PHANTOM
 62
     8
370
    18
100
AcDbSpline
210
0.0
220
0.0
230
1.0
 70
     8
 71
     3
 72
     8
 73
     4
 74
     0
 42
0.000000001
 43
0.00000001
 40
0.0
 40
0.0
 40
0.0
 40
0.0
 40
1.0
 40
1.0
 40
1.0
 40
1.0
 10
193.1575613123483
 20
146.9382459830894
 30
0.0
 10
193.3014853134076
 20
146.6734413386465
 30
0.0
 10
193.468206331449
 20
146.4229864664896
 30
0.0
 10
193.6571472611077
 20
146.1882018563166
 30
0.0
  0
ELLIPSE
  5
250
330
1F
100
AcDbEntity
  8
0
  6
PHANTOM
 62
     8
370
    18
100
AcDbEllipse
 10
219.1727110767
 20
164.0128365331
 30
0.0
 11
0.0
 21
1.5
 31
0.0
210
0.0
220
0.0
230
1.0
 40
0.0279366156
 41
4.92865135291261
 42
6.248278722139639
  0
ARC
  5
251
330
1F
100
AcDbEntity
  8
0
  6
PHANTOM
 62
     8
370
    18
100
AcDbCircle
 10
219.1746017758
 20
165.211677358
 30
0.0
 40
0.300245701171404
100
AcDbArc
 50
90.0817599839
 51
179.9182956342
  0
ELLIPSE
  5
252
330
1F
100
AcDbEntity
  8
0
  6
PHANTOM
 62
     8
370
    18
100
AcDbEllipse
 10
192.2948497625
 20
164.0128365331
 30
0.0
 11
0.0
 21
1.5
 31
0.0
210
0.0
220
0.0
230
1.0
 40
0.0279366156
 41
0.0349065850397795
 42
1.354533954266874
  0
ARC
  5
253
330
1F
100
AcDbEntity
  8
0
  6
PHANTOM
 62
     8
370
    18
100
AcDbCircle
 10
192.2929590634
 20
165.211677358
 30
0.0
 40
0.300245701171404
100
AcDbArc
 50
0.0817043658
 51
89.9182400161
  0
LINE
  5
254
330
1F
100
AcDbEntity
  8
0
  6
PHANTOM
 62
     8
370
    18
100
AcDbLine
 10
219.174173331
 20
165.5119227535
 30
0.0
 11
236.8449705151
 21
165.5119227535
 31
0.0
  0
LINE
  5
255
330
1F
100
AcDbEntity
  8
0
  6
PHANTOM
 62
     8
370
    18
100
AcDbLine
 10
174.6225903241
 20
165.5119227535
 30
0.0
 11
192.2933875082
 21
165.5119227535
 31
0.0
  0
LINE
  5
256
330
1F
100
AcDbEntity
  8
0
  6
PHANTOM
 62
     8
370
    18
100
AcDbLine
 10
236.8449705151
 20
136.8928299808
 30
0.0
 11
174.6225903241
 21
136.8928299808
 31
0.0
  0
LINE
  5
257
330
1F
100
AcDbEntity
  8
0
  6
PHANTOM
 62
     8
370
    18
100
AcDbLine
 10
239.534512764
 20
139.5999984407
 30
0.0
 11
239.6845115779
 21
139.4499996268
 31
0.0
  0
LINE
  5
258
330
1F
100
AcDbEntity
  8
0
  6
PHANTOM
 62
     8
370
    18
100
AcDbLine
 10
239.6845115779
 20
162.9547529911
 30
0.0
 11
239.534512764
 21
162.8047552249
 31
0.0
  0
LINE
  5
259
330
1F
100
AcDbEntity
  8
0
  6
PHANTOM
 62
     8
370
    18
100
AcDbLine
 10
171.9330480752
 20
162.8047552249
 30
0.0
 11
171.7830492613
 21
162.9547529911
 31
0.0
  0
LINE
  5
25A
330
1F
100
AcDbEntity
  8
0
  6
PHANTOM
 62
     8
370
    18
100
AcDbLine
 10
171.7830492613
 20
139.4499996268
 30
0.0
 11
171.9330480752
 21
139.5999984407
 31
0.0
  0
ARC
  5
25B
330
1F
100
AcDbEntity
  8
0
  6
PHANTOM
 62
     8
370
    18
100
AcDbCircle
 10
213.8798381072
 20
149.3057095027
 30
0.0
 40
5.011329332943358
100
AcDbArc
 50
270.0
 51
301.6866814115
  0
LINE
  5
25C
330
1F
100
AcDbEntity
  8
0
  6
PHANTOM
 62
     8
370
    18
100
AcDbLine
 10
213.8798382563
 20
144.2943801694
 30
0.0
 11
213.8798382563
 21
144.3057087772
 31
0.0
  0
LINE
  5
25D
330
1F
100
AcDbEntity
  8
0
  6
PHANTOM
 62
     8
370
    18
100
AcDbLine
 10
197.5877225829
 20
144.2943801694
 30
0.0
 11
197.5877225829
 21
144.3057087772
 31
0.0
  0
ARC
  5
25E
330
1F
100
AcDbEntity
  8
0
  6
PHANTOM
 62
     8
370
    18
100
AcDbCircle
 10
197.587722732
 20
149.3057095027
 30
0.0
 40
5.01132933294331
100
AcDbArc
 50
238.3133185885
 51
270.0
  0
LINE
  5
25F
330
1F
100
AcDbEntity
  8
0
  6
PHANTOM
 62
     8
370
    18
100
AcDbLine
 10
197.5877225829
 20
144.2943801694
 30
0.0
 11
197.5877225829
 21
143.5948060417
 31
0.0
  0
ARC
  5
260
330
1F
100
AcDbEntity
  8
0
  6
PHANTOM
 62
     8
370
    18
100
AcDbCircle
 10
197.587722732
 20
149.3057095027
 30
0.0
 40
5.710902911856692
100
AcDbArc
 50
238.3133185885
 51
270.0
  0
ARC
  5
261
330
1F
100
AcDbEntity
  8
0
  6
PHANTOM
 62
     8
370
    18
100
AcDbCircle
 10
213.8798381072
 20
149.3057095027
 30
0.0
 40
5.710902911856692
100
AcDbArc
 50
270.0
 51
301.6866814115
  0
LINE
  5
262
330
1F
100
AcDbEntity
  8
0
  6
PHANTOM
 62
     8
370
    18
100
AcDbLine
 10
213.8798382563
 20
144.2943801694
 30
0.0
 11
213.8798382563
 21
143.5948060417
 31
0.0
  0
LINE
  5
263
330
1F
100
AcDbEntity
  8
0
  6
PHANTOM
 62
     8
370
    18
100
AcDbLine
 10
213.8798382563
 20
143.5948060417
 30
0.0
 11
197.5877225829
 21
143.5948060417
 31
0.0
  0
LINE
  5
264
330
1F
100
AcDbEntity
  8
0
  6
PHANTOM
 62
     8
370
    18
100
AcDbLine
 10
197.5877225829
 20
144.2943801694
 30
0.0
 11
213.8798382563
 21
144.2943801694
 31
0.0
  0
LINE
  5
265
330
1F
100
AcDbEntity
  8
0
  6
PHANTOM
 62
     8
370
    18
100
AcDbLine
 10
174.5512454269
 20
165.5832666029
 30
0.0
 11
174.6225903241
 21
165.5119227535
 31
0.0
  0
LINE
  5
266
330
1F
100
AcDbEntity
  8
0
  6
PHANTOM
 62
     8
370
    18
100
AcDbLine
 10
236.9861571548
 20
136.7516452038
 30
0.0
 11
236.8449705151
 21
136.8928299808
 31
0.0
  0
LINE
  5
267
330
1F
100
AcDbEntity
  8
0
  6
PHANTOM
 62
     8
370
    18
100
AcDbLine
 10
236.8449705151
 20
165.5119227535
 30
0.0
 11
236.9163154123
 21
165.5832666029
 31
0.0
  0
LINE
  5
268
330
1F
100
AcDbEntity
  8
0
  6
PHANTOM
 62
     8
370
    18
100
AcDbLine
 10
174.6225903241
 20
136.8928299808
 30
0.0
 11
174.4814036844
 21
136.7516452038
 31
0.0
  0
LINE
  5
269
330
1F
100
AcDbEntity
  8
0
  6
PHANTOM
 62
     8
370
    18
100
AcDbLine
 10
219.1028293652
 20
165.5832666029
 30
0.0
 11
219.174173331
 21
165.5119227535
 31
0.0
  0
LINE
  5
26A
330
1F
100
AcDbEntity
  8
0
  6
PHANTOM
 62
     8
370
    18
100
AcDbLine
 10
192.2933875082
 20
165.5119227535
 30
0.0
 11
192.364731474
 21
165.5832666029
 31
0.0
  0
SPLINE
  5
26B
330
1F
100
AcDbEntity
  8
0
  6
Continuous
 62
     7
370
    25
100
AcDbSpline
210
0.0
220
0.0
230
1.0
 70
     8
 71
     3
 72
    14
 73
    10
 74
     0
 42
0.000000001
 43
0.00000001
 40
0.0
 40
0.0
 40
0.0
 40
0.0
 40
0.25
 40
0.25
 40
0.5
 40
0.5
 40
0.75
 40
0.75
 40
1.0
 40
1.0
 40
1.0
 40
1.0
 10
268.6966565339638
 20
107.6525155429806
 30
0.0
 10
268.6966565339637
 20
107.6525155429806
 30
0.0
 10
268.7313528162912
 20
107.6601640349415
 30
0.0
 10
268.8601566413761
 20
107.6882382721153
 30
0.0
 10
268.9552904344737
 20
107.7088683547614
 30
0.0
 10
269.1871409898806
 20
107.7582856525348
 30
0.0
 10
269.3237738346886
 20
107.7870419312127
 30
0.0
 10
269.6197090481546
 20
107.8480525634934
 30
0.0
 10
269.775912931418
 20
107.8796715709244
 30
0.0
 10
269.9350916673851
 20
107.9112084178964
 30
0.0
  0
ARC
  5
26C
330
1F
100
AcDbEntity
  8
0
  6
Continuous
 62
     7
370
    25
100
AcDbCircle
 10
269.0185273832
 20
106.1874561051
 30
0.0
 40
1.499999999999998
100
AcDbArc
 50
102.3909212133
 51
178.0
  0
LINE
  5
26D
330
1F
100
AcDbEntity
  8
0
  6
Continuous
 62
     7
370
    25
100
AcDbLine
 10
270.076610074
 20
102.196784223
 30
0.0
 11
267.378255651
 21
102.196784223
 31
0.0
  0
LINE
  5
26E
330
1F
100
AcDbEntity
  8
0
  6
Continuous
 62
     7
370
    25
100
AcDbLine
 10
267.378255651
 20
102.196784223
 30
0.0
 11
267.519440428
 21
106.2398053459
 31
0.0
  0
LINE
  5
26F
330
1F
100
AcDbEntity
  8
0
  6
Continuous
 62
     7
370
    25
100
AcDbLine
 10
294.2797186394
 20
102.196784223
 30
0.0
 11
293.5813634383
 21
102.196784223
 31
0.0
  0
LINE
  5
270
330
1F
100
AcDbEntity
  8
0
  6
Continuous
 62
     7
370
    25
100
AcDbLine
 10
296.1385332007
 20
106.2398053459
 30
0.0
 11
296.2098770501
 21
104.1967840851
 31
0.0
  0
LINE
  5
271
330
1F
100
AcDbEntity
  8
0
  6
Continuous
 62
     7
370
    25
100
AcDbLine
 10
296.2098770501
 20
104.1967840851
 30
0.0
 11
294.2797186394
 21
104.1967840851
 31
0.0
  0
LINE
  5
272
330
1F
100
AcDbEntity
  8
0
  6
Continuous
 62
     7
370
    25
100
AcDbLine
 10
294.2797186394
 20
104.1967840851
 30
0.0
 11
294.2797186394
 21
102.196784223
 31
0.0
  0
LINE
  5
273
330
1F
100
AcDbEntity
  8
0
  6
Continuous
 62
     7
370
    25
100
AcDbLine
 10
270.076610074
 20
102.196784223
 30
0.0
 11
293.5813634383
 21
102.196784223
 31
0.0
  0
SPLINE
  5
274
330
1F
100
AcDbEntity
  8
0
  6
Continuous
 62
     7
370
    25
100
AcDbSpline
210
0.0
220
0.0
230
1.0
 70
     8
 71
     3
 72
    16
 73
    12
 74
     0
 42
0.000000001
 43
0.00000001
 40
0.0
 40
0.0
 40
0.0
 40
0.0
 40
0.2499999999999976
 40
0.2499999999999976
 40
0.4999999999999951
 40
0.4999999999999951
 40
0.7499999999999927
 40
0.7499999999999927
 40
0.8749999999999963
 40
0.8749999999999963
 40
1.0
 40
1.0
 40
1.0
 40
1.0
 10
293.7228826960955
 20
107.9112084178964
 30
0.0
 10
293.8820061089285
 20
107.8796825316673
 30
0.0
 10
294.0403416670067
 20
107.8476270365653
 30
0.0
 10
294.3341179207507
 20
107.7870564064326
 30
0.0
 10
294.4719013681016
 20
107.7580593513119
 30
0.0
 10
294.7029422666123
 20
107.7088119500425
 30
0.0
 10
294.7981033775125
 20
107.688176490243
 30
0.0
 10
294.894916573119
 20
107.6670742470104
 30
0.0
 10
294.919925984632
 20
107.6615966154659
 30
0.0
 10
294.9528912355362
 20
107.6543686091804
 30
0.0
 10
294.9613178295168
 20
107.6525155429806
 30
0.0
 10
294.9613178295168
 20
107.6525155429806
 30
0.0
  0
ARC
  5
275
330
1F
100
AcDbEntity
  8
0
  6
Continuous
 62
     7
370
    25
100
AcDbCircle
 10
294.6394469803
 20
106.1874561051
 30
0.0
 40
1.50000000000001
100
AcDbArc
 50
2.0
 51
77.6090787867
  0
ARC
  5
276
330
1F
100
AcDbEntity
  8
0
  6
Continuous
 62
     7
370
    25
100
AcDbCircle
 10
281.8289871817
 20
47.8780904788
 30
0.0
 40
61.20000000000001
100
AcDbArc
 50
78.7935547796
 51
101.2064452204
  0
ARC
  5
277
330
1F
100
AcDbEntity
  8
0
  6
PHANTOM
 62
     8
370
    18
100
AcDbCircle
 10
218.4349667891
 20
96.5920175398
 30
0.0
 40
52.7293747991014
100
AcDbArc
 50
10.8217271153
 51
12.3959184288
  0
SPLINE
  5
278
330
1F
100
AcDbEntity
  8
0
  6
PHANTOM
 62
     8
370
    18
100
AcDbSpline
210
0.0
220
0.0
230
1.0
 70
     8
 71
     3
 72
    20
 73
    16
 74
     0
 42
0.000000001
 43
0.00000001
 40
0.0
 40
0.0
 40
0.0
 40
0.0
 40
0.1249999999999994
 40
0.1249999999999994
 40
0.2499999999999989
 40
0.2499999999999989
 40
0.3749999999999983
 40
0.3749999999999983
 40
0.4999999999999978
 40
0.4999999999999978
 40
0.6249999999999972
 40
0.6249999999999972
 40
0.7499999999999967
 40
0.7499999999999967
 40
1.0
 40
1.0
 40
1.0
 40
1.0
 10
270.2266087143056
 20
106.4921577134616
 30
0.0
 10
270.0484326248188
 20
106.4798373387063
 30
0.0
 10
269.8732419778815
 20
106.4672189493097
 30
0.0
 10
269.5285827796884
 20
106.4414285801786
 30
0.0
 10
269.3573972853637
 20
106.4281158806127
 30
0.0
 10
269.0300009888965
 20
106.4016710367132
 30
0.0
 10
268.8748014214565
 20
106.3886335005069
 30
0.0
 10
268.581166476619
 20
106.3630026284354
 30
0.0
 10
268.4416584813732
 20
106.3502987821935
 30
0.0
 10
268.1912935681263
 20
106.3264805606423
 30
0.0
 10
268.0790966366876
 20
106.3152581161231
 30
0.0
 10
267.8810370929518
 20
106.294302765158
 30
0.0
 10
267.7959160912296
 20
106.2846311959934
 30
0.0
 10
267.5920203692667
 20
106.2592974674284
 30
0.0
 10
267.5196827113689
 20
106.2467229733396
 30
0.0
 10
267.5194411426453
 20
106.2398053501859
 30
0.0
  0
LINE
  5
279
330
1F
100
AcDbEntity
  8
0
  6
PHANTOM
 62
     8
370
    18
100
AcDbLine
 10
270.2266088879
 20
106.4921577112
 30
0.0
 11
270.076610074
 21
102.196784223
 31
0.0
  0
LINE
  5
27A
330
1F
100
AcDbEntity
  8
0
  6
PHANTOM
 62
     8
370
    18
100
AcDbLine
 10
293.5813634383
 20
102.196784223
 30
0.0
 11
293.4313656721
 21
106.4921577112
 31
0.0
  0
SPLINE
  5
27B
330
1F
100
AcDbEntity
  8
0
  6
PHANTOM
 62
     8
370
    18
100
AcDbSpline
210
0.0
220
0.0
230
1.0
 70
     8
 71
     3
 72
    20
 73
    16
 74
     0
 42
0.000000001
 43
0.00000001
 40
0.0
 40
0.0
 40
0.0
 40
0.0
 40
0.1249999999999989
 40
0.1249999999999989
 40
0.2499999999999978
 40
0.2499999999999978
 40
0.3749999999999967
 40
0.3749999999999967
 40
0.4999999999999956
 40
0.4999999999999956
 40
0.7499999999999969
 40
0.7499999999999969
 40
0.8749999999999984
 40
0.8749999999999984
 40
1.0
 40
1.0
 40
1.0
 40
1.0
 10
296.1385332208352
 20
106.2398053501859
 30
0.0
 10
296.138412504709
 20
106.2432622077525
 30
0.0
 10
296.1207051710647
 20
106.2480504181698
 30
0.0
 10
296.0514682984733
 20
106.2601680873074
 30
0.0
 10
295.9990645253104
 20
106.2676005011125
 30
0.0
 10
295.8627670036613
 20
106.2845509143444
 30
0.0
 10
295.7793433008407
 20
106.2940357973304
 30
0.0
 10
295.5820189925639
 20
106.3149378183957
 30
0.0
 10
295.4677274377954
 20
106.3263769906392
 30
0.0
 10
295.0930903071811
 20
106.3620296598561
 30
0.0
 10
294.7914390098387
 20
106.3884587456544
 30
0.0
 10
294.3038561637932
 20
106.427855301417
 30
0.0
 10
294.1327357679704
 20
106.4411745280974
 30
0.0
 10
293.7853202802851
 20
106.4671787264973
 30
0.0
 10
293.6094449635314
 20
106.479844030434
 30
0.0
 10
293.431365649175
 20
106.4921577134616
 30
0.0
  0
ARC
  5
27C
330
1F
100
AcDbEntity
  8
0
  6
PHANTOM
 62
     8
370
    18
100
AcDbCircle
 10
281.8289871817
 20
47.9304397238
 30
0.0
 40
59.69999999999995
100
AcDbArc
 50
78.7935547796
 51
101.2064452204
  0
ARC
  5
27D
330
1F
100
AcDbEntity
  8
0
  6
PHANTOM
 62
     8
370
    18
100
AcDbCircle
 10
345.2261356983
 20
96.5913749665
 30
0.0
 40
52.73256774543685
100
AcDbArc
 50
167.6041292327
 51
169.1782252232
  0
LINE
  5
27E
330
1F
100
AcDbEntity
  8
0
  6
Continuous
 62
     7
370
    25
100
AcDbLine
 10
36.9393456922
 20
109.0780904037
 30
0.0
 11
18.2068463609
 21
109.0780904037
 31
0.0
  0
LINE
  5
27F
330
1F
100
AcDbEntity
  8
0
  6
Continuous
 62
     7
370
    25
100
AcDbLine
 10
82.7306401179
 20
109.0780904037
 30
0.0
 11
63.9981407867
 21
109.0780904037
 31
0.0
  0
ARC
  5
280
330
1F
100
AcDbEntity
  8
0
  6
Continuous
 62
     7
370
    25
100
AcDbCircle
 10
36.9393456365
 20
108.7780904788
 30
0.0
 40
0.2999999999999993
100
AcDbArc
 50
2.0
 51
89.3747175222
  0
ARC
  5
281
330
1F
100
AcDbEntity
  8
0
  6
Continuous
 62
     7
370
    25
100
AcDbCircle
 10
63.9981408423
 20
108.7780904788
 30
0.0
 40
0.3000000000000106
100
AcDbArc
 50
89.9882376939
 51
178.0
  0
ARC
  5
282
330
1F
100
AcDbEntity
  8
0
  6
Continuous
 62
     7
370
    25
100
AcDbCircle
 10
18.2068454633
 20
107.5780904788
 30
0.0
 40
1.500000000000002
100
AcDbArc
 50
90.1177677602
 51
178.0
  0
ARC
  5
283
330
1F
100
AcDbEntity
  8
0
  6
Continuous
 62
     7
370
    25
100
AcDbCircle
 10
82.7306410156
 20
107.5780904788
 30
0.0
 40
1.499999999999998
100
AcDbArc
 50
2.0
 51
89.8012094547
  0
SPLINE
  5
284
330
1F
100
AcDbEntity
  8
0
  6
Continuous
 62
     7
370
    25
100
AcDbSpline
210
0.0
220
0.0
230
1.0
 70
     8
 71
     3
 72
    13
 73
     9
 74
     0
 42
0.000000001
 43
0.00000001
 40
0.0
 40
0.0
 40
0.0
 40
0.0
 40
0.1931591485686825
 40
0.3924874094400106
 40
0.5897807671492753
 40
0.7839810942606157
 40
0.9559236781450006
 40
0.9999999999999999
 40
0.9999999999999999
 40
0.9999999999999999
 40
0.9999999999999999
 10
38.68055382824897
 20
108.5256105274877
 30
0.0
 10
38.54581832323398
 20
108.5434110528545
 30
0.0
 10
38.27204413384258
 20
108.5795806163448
 30
0.0
 10
37.92333417645833
 20
108.6366040354217
 30
0.0
 10
37.62515927412835
 20
108.6936917245668
 30
0.0
 10
37.40554882232233
 20
108.7450143781381
 30
0.0
 10
37.27418928268003
 20
108.7820486416923
 30
0.0
 10
37.23771606611731
 20
108.7959551181787
 30
0.0
 10
37.2302741006708
 20
108.7987925843319
 30
0.0
  0
LINE
  5
285
330
1F
100
AcDbEntity
  8
0
  6
Continuous
 62
     7
370
    25
100
AcDbLine
 10
62.3035649032
 20
108.5323677384
 30
0.0
 11
62.2524799973
 21
108.5259732776
 31
0.0
  0
SPLINE
  5
286
330
1F
100
AcDbEntity
  8
0
  6
Continuous
 62
     7
370
    25
100
AcDbSpline
210
0.0
220
0.0
230
1.0
 70
     8
 71
     3
 72
    13
 73
     9
 74
     0
 42
0.000000001
 43
0.00000001
 40
0.0
 40
0.0
 40
0.0
 40
0.0
 40
0.1600263116301766
 40
0.3411324895455505
 40
0.5350914361172278
 40
0.7344788614671086
 40
0.9358574652939702
 40
0.9999999999999999
 40
0.9999999999999999
 40
0.9999999999999999
 40
0.9999999999999999
 10
63.71235886670112
 20
108.799793523269
 30
0.0
 10
63.67547287678245
 20
108.7877436424856
 30
0.0
 10
63.59684199763435
 20
108.7620565802239
 30
0.0
 10
63.40458360829232
 20
108.7142423599114
 30
0.0
 10
63.14879769848958
 20
108.6609926175333
 30
0.0
 10
62.82312388360396
 20
108.6049213395287
 30
0.0
 10
62.53811117278069
 20
108.5612282606389
 30
0.0
 10
62.34920048109484
 20
108.5379831191865
 30
0.0
 10
62.3035649032092
 20
108.5323677384278
 30
0.0
  0
LINE
  5
287
330
1F
100
AcDbEntity
  8
0
  6
Continuous
 62
     7
370
    25
100
AcDbLine
 10
58.4687436194
 20
108.3054807954
 30
0.0
 11
42.4687428594
 21
108.3054807954
 31
0.0
  0
LINE
  5
288
330
1F
100
AcDbEntity
  8
0
  6
Continuous
 62
     7
370
    25
100
AcDbLine
 10
84.2380751119
 20
104.1967840851
 30
0.0
 11
81.6512782321
 21
104.1967840851
 31
0.0
  0
LINE
  5
289
330
1F
100
AcDbEntity
  8
0
  6
Continuous
 62
     7
370
    25
100
AcDbLine
 10
84.2694755838
 20
106.4921577112
 30
0.0
 11
84.4194743977
 21
102.196784223
 31
0.0
  0
LINE
  5
28A
330
1F
100
AcDbEntity
  8
0
  6
Continuous
 62
     7
370
    25
100
AcDbLine
 10
84.4194743977
 20
102.196784223
 30
0.0
 11
84.3276236401
 21
102.196784223
 31
0.0
  0
ELLIPSE
  5
28B
330
1F
100
AcDbEntity
  8
0
  6
Continuous
 62
     7
370
    25
100
AcDbEllipse
 10
82.4194746926
 20
82.1042780999
 30
0.0
 11
-2.701643765710614
 21
77.36495515509841
 31
0.0
210
0.0
220
0.0
230
1.0
 40
0.0348782627
 41
4.973893407757071
 42
5.00076377708304
  0
LINE
  5
28C
330
1F
100
AcDbEntity
  8
0
  6
Continuous
 62
     7
370
    25
100
AcDbLine
 10
16.6098628388
 20
102.196784223
 30
0.0
 11
16.5180120812
 21
102.196784223
 31
0.0
  0
LINE
  5
28D
330
1F
100
AcDbEntity
  8
0
  6
Continuous
 62
     7
370
    25
100
AcDbLine
 10
16.5180120812
 20
102.196784223
 30
0.0
 11
16.668010895
 21
106.4921577112
 31
0.0
  0
LINE
  5
28E
330
1F
100
AcDbEntity
  8
0
  6
Continuous
 62
     7
370
    25
100
AcDbLine
 10
19.2862082467
 20
104.1967840851
 30
0.0
 11
16.6994113669
 21
104.1967840851
 31
0.0
  0
ELLIPSE
  5
28F
330
1F
100
AcDbEntity
  8
0
  6
Continuous
 62
     7
370
    25
100
AcDbEllipse
 10
18.5180117863
 20
82.1042780999
 30
0.0
 11
2.701643765710596
 21
77.36495515509841
 31
0.0
210
0.0
220
0.0
230
1.0
 40
0.0348782627
 41
1.28242153009658
 42
1.309291899422543
  0
LINE
  5
290
330
1F
100
AcDbEntity
  8
0
  6
Continuous
 62
     7
370
    25
100
AcDbLine
 10
37.0996942938
 20
104.1967840851
 30
0.0
 11
19.2862082467
 21
104.1967840851
 31
0.0
  0
LINE
  5
291
330
1F
100
AcDbEntity
  8
0
  6
Continuous
 62
     7
370
    25
100
AcDbLine
 10
37.3281672791
 20
106.2398053459
 30
0.0
 11
37.399511245
 21
104.1967840851
 31
0.0
  0
LINE
  5
292
330
1F
100
AcDbEntity
  8
0
  6
Continuous
 62
     7
370
    25
100
AcDbLine
 10
37.399511245
 20
104.1967840851
 30
0.0
 11
37.0996942938
 21
104.1967840851
 31
0.0
  0
LINE
  5
293
330
1F
100
AcDbEntity
  8
0
  6
Continuous
 62
     7
370
    25
100
AcDbLine
 10
63.5379752339
 20
104.1967840851
 30
0.0
 11
63.6093191997
 21
106.2398053459
 31
0.0
  0
LINE
  5
294
330
1F
100
AcDbEntity
  8
0
  6
Continuous
 62
     7
370
    25
100
AcDbLine
 10
63.837792185
 20
104.1967840851
 30
0.0
 11
63.5379752339
 21
104.1967840851
 31
0.0
  0
LINE
  5
295
330
1F
100
AcDbEntity
  8
0
  6
Continuous
 62
     7
370
    25
100
AcDbLine
 10
81.6512782321
 20
104.1967840851
 30
0.0
 11
63.837792185
 21
104.1967840851
 31
0.0
  0
LWPOLYLINE
  5
296
330
1F
100
AcDbEntity
  8
0
  6
Continuous
 62
     7
370
    25
100
AcDbPolyline
 90
        8
 70
   128
 43
0.0
 10
37.2887006224
 20
107.3699734975
 10
37.2911108852
 20
107.3009525412
 10
37.2948864669
 20
107.1928470032
 10
37.2998923258
 20
107.0494874134
 10
37.3059524418
 20
106.8759535833
 10
37.3128516794
 20
106.6783945702
 10
37.3203451008
 20
106.4638106386
 10
37.3281672791
 20
106.2398053459
  0
LWPOLYLINE
  5
297
330
1F
100
AcDbEntity
  8
0
  6
Continuous
 62
     7
370
    25
100
AcDbPolyline
 90
        8
 70
   128
 43
0.0
 10
63.6093191997
 20
106.2398053459
 10
63.617141378
 20
106.4638106386
 10
63.6246347994
 20
106.6783945702
 10
63.6315340371
 20
106.8759535833
 10
63.6375941531
 20
107.0494874134
 10
63.6426000119
 20
107.1928470032
 10
63.6463755936
 20
107.3009525412
 10
63.6487858564
 20
107.3699734975
  0
SPLINE
  5
298
330
1F
100
AcDbEntity
  8
0
  6
Continuous
 62
     7
370
    25
100
AcDbSpline
210
0.0
220
0.0
230
1.0
 70
     8
 71
     3
 72
    16
 73
    12
 74
     0
 42
0.000000001
 43
0.00000001
 40
0.0
 40
0.0
 40
0.0
 40
0.0
 40
0.2500000000000013
 40
0.2500000000000013
 40
0.3750000000000011
 40
0.3750000000000011
 40
0.5000000000000009
 40
0.5000000000000009
 40
0.7500000000000004
 40
0.7500000000000004
 40
1.0
 40
1.0
 40
1.0
 40
1.0
 10
58.4687432394123
 20
108.3016747949771
 30
0.0
 10
58.82344537377918
 20
108.3016747949771
 30
0.0
 10
59.17237040786414
 20
108.3070599538724
 30
0.0
 10
59.68746654969633
 20
108.3226306824741
 30
0.0
 10
59.85777387701756
 20
108.3290738741054
 30
0.0
 10
60.19555627146745
 20
108.3444131511032
 30
0.0
 10
60.36383315594097
 20
108.3533658167969
 30
0.0
 10
60.85489475371107
 20
108.3832506321111
 30
0.0
 10
61.16601813021521
 20
108.4072317836919
 30
0.0
 10
61.75651952811565
 20
108.4617654139396
 30
0.0
 10
62.03738616952243
 20
108.4925468012844
 30
0.0
 10
62.29513844529558
 20
108.5252187772279
 30
0.0
  0
SPLINE
  5
299
330
1F
100
AcDbEntity
  8
0
  6
Continuous
 62
     7
370
    25
100
AcDbSpline
210
0.0
220
0.0
230
1.0
 70
     8
 71
     3
 72
    16
 73
    12
 74
     0
 42
0.000000001
 43
0.00000001
 40
0.0
 40
0.0
 40
0.0
 40
0.0
 40
0.2500000000000008
 40
0.2500000000000008
 40
0.3750000000000011
 40
0.3750000000000011
 40
0.5000000000000013
 40
0.5000000000000013
 40
0.7500000000000007
 40
0.7500000000000007
 40
1.0
 40
1.0
 40
1.0
 40
1.0
 10
38.64234803353188
 20
108.5252187772278
 30
0.0
 10
38.90012187463075
 20
108.4925440677225
 30
0.0
 10
39.17664179584236
 20
108.4622194373946
 30
0.0
 10
39.61847496837228
 20
108.4213343335216
 30
0.0
 10
39.77029279569253
 20
108.4084751525813
 30
0.0
 10
40.08320148651719
 20
108.3845124975183
 30
0.0
 10
40.24516088104264
 20
108.3733626896078
 30
0.0
 10
40.73632615488577
 20
108.3434547568295
 30
0.0
 10
41.07203322356821
 20
108.3280704978074
 30
0.0
 10
41.75969951240041
 20
108.307165199736
 30
0.0
 10
42.11400881032499
 20
108.3016747949771
 30
0.0
 10
42.4687432394123
 20
108.3016747949771
 30
0.0
  0
ELLIPSE
  5
29A
330
1F
100
AcDbEntity
  8
0
  6
Continuous
 62
     7
370
    25
100
AcDbEllipse
 10
18.5180117863
 20
82.1042780999
 30
0.0
 11
1.500913203172555
 21
42.98053064172136
 31
0.0
210
0.0
220
0.0
230
1.0
 40
0.0348782627
 41
1.032159370645498
 42
1.085577594105385
  0
ELLIPSE
  5
29B
330
1F
100
AcDbEntity
  8
0
  6
Continuous
 62
     7
370
    25
100
AcDbEllipse
 10
82.4194746926
 20
82.1042780999
 30
0.0
 11
-1.500913203172559
 21
42.98053064172136
 31
0.0
210
0.0
220
0.0
230
1.0
 40
0.0348782627
 41
5.197607713074298
 42
5.2510259365342
  0
LWPOLYLINE
  5
29C
330
1F
100
AcDbEntity
  8
0
  6
Continuous
 62
     7
370
    25
100
AcDbPolyline
 90
        8
 70
   128
 43
0.0
 10
37.2391626433
 20
108.788560376
 10
37.2391654373
 20
108.7884739959
 10
37.2406536908
 20
108.7458673851
 10
37.2448595435
 20
108.6254322422
 10
37.2517774076
 20
108.4273224683
 10
37.2613989011
 20
108.151791383
 10
37.2737128482
 20
107.7991913757
 10
37.2887006224
 20
107.3699734975
  0
LWPOLYLINE
  5
29D
330
1F
100
AcDbEntity
  8
0
  6
Continuous
 62
     7
370
    25
100
AcDbPolyline
 90
        8
 70
   128
 43
0.0
 10
63.6487858564
 20
107.3699734975
 10
63.6637736306
 20
107.7991913757
 10
63.6760875777
 20
108.151791383
 10
63.6857090712
 20
108.4273224683
 10
63.6926269353
 20
108.6254322422
 10
63.6968327881
 20
108.7458673851
 10
63.6983210415
 20
108.7884739959
 10
63.6983238355
 20
108.788560376
  0
LINE
  5
29E
330
1F
100
AcDbEntity
  8
0
  6
Continuous
 62
     7
370
    25
100
AcDbLine
 10
16.6098628388
 20
102.196784223
 30
0.0
 11
17.8919885502
 21
102.196784223
 31
0.0
  0
LINE
  5
29F
330
1F
100
AcDbEntity
  8
0
  6
Continuous
 62
     7
370
    25
100
AcDbLine
 10
36.4687428073
 20
102.196784223
 30
0.0
 11
37.4693529875
 21
102.196784223
 31
0.0
  0
LINE
  5
2A0
330
1F
100
AcDbEntity
  8
0
  6
Continuous
 62
     7
370
    25
100
AcDbLine
 10
36.3989019961
 20
104.1967840851
 30
0.0
 11
36.4687428073
 21
102.196784223
 31
0.0
  0
LINE
  5
2A1
330
1F
100
AcDbEntity
  8
0
  6
Continuous
 62
     7
370
    25
100
AcDbLine
 10
37.399511245
 20
104.1967840851
 30
0.0
 11
37.4693529875
 21
102.196784223
 31
0.0
  0
LINE
  5
2A2
330
1F
100
AcDbEntity
  8
0
  6
Continuous
 62
     7
370
    25
100
AcDbLine
 10
63.4681334913
 20
102.196784223
 30
0.0
 11
64.4687436715
 21
102.196784223
 31
0.0
  0
LINE
  5
2A3
330
1F
100
AcDbEntity
  8
0
  6
Continuous
 62
     7
370
    25
100
AcDbLine
 10
64.4687436715
 20
102.196784223
 30
0.0
 11
64.5385844827
 21
104.1967840851
 31
0.0
  0
LINE
  5
2A4
330
1F
100
AcDbEntity
  8
0
  6
Continuous
 62
     7
370
    25
100
AcDbLine
 10
63.4681334913
 20
102.196784223
 30
0.0
 11
63.5379752339
 21
104.1967840851
 31
0.0
  0
LINE
  5
2A5
330
1F
100
AcDbEntity
  8
0
  6
Continuous
 62
     7
370
    25
100
AcDbLine
 10
83.0454979286
 20
102.196784223
 30
0.0
 11
84.3276236401
 21
102.196784223
 31
0.0
  0
LWPOLYLINE
  5
2A6
330
1F
100
AcDbEntity
  8
0
  6
Continuous
 62
     7
370
    25
100
AcDbPolyline
 90
        7
 70
   128
 43
0.0
 10
16.668010895
 20
106.4921577112
 10
16.6811201916
 20
106.8676454001
 10
16.6916329608
 20
107.1686068885
 10
16.6995268509
 20
107.3946616366
 10
16.7047944114
 20
107.5455237865
 10
16.7074281917
 20
107.6210025917
 10
16.7077597425
 20
107.6304396833
  0
LWPOLYLINE
  5
2A7
330
1F
100
AcDbEntity
  8
0
  6
Continuous
 62
     7
370
    25
100
AcDbPolyline
 90
        7
 70
   128
 43
0.0
 10
84.2297267363
 20
107.6304396833
 10
84.2300582872
 20
107.6210025917
 10
84.2326920674
 20
107.5455237865
 10
84.2379596279
 20
107.3946616366
 10
84.245853518
 20
107.1686068885
 10
84.2563662872
 20
106.8676454001
 10
84.2694755838
 20
106.4921577112
  0
LINE
  5
2A8
330
1F
100
AcDbEntity
  8
0
  6
Continuous
 62
     7
370
    25
100
AcDbLine
 10
42.3226854027
 20
106.3967840732
 30
0.0
 11
37.3226855145
 21
106.3967840732
 31
0.0
  0
SPLINE
  5
2A9
330
1F
100
AcDbEntity
  8
0
  6
Continuous
 62
     7
370
    25
100
AcDbSpline
210
0.0
220
0.0
230
1.0
 70
     8
 71
     3
 72
     8
 73
     4
 74
     0
 42
0.000000001
 43
0.00000001
 40
0.0
 40
0.0
 40
0.0
 40
0.0
 40
0.0000169468105648
 40
0.0000169468105648
 40
0.0000169468105648
 40
0.0000169468105648
 10
37.28871677493626
 20
107.3876754534497
 30
0.0
 10
37.28852728405239
 20
107.3933035938959
 30
0.0
 10
37.28827214821223
 20
107.3989197999359
 30
0.0
 10
37.28795211251606
 20
107.4045092113504
 30
0.0
  0
LINE
  5
2AA
330
1F
100
AcDbEntity
  8
0
  6
Continuous
 62
     7
370
    25
100
AcDbLine
 10
63.6148009644
 20
106.3967840732
 30
0.0
 11
58.6148010761
 21
106.3967840732
 31
0.0
  0
SPLINE
  5
2AB
330
1F
100
AcDbEntity
  8
0
  6
Continuous
 62
     7
370
    25
100
AcDbSpline
210
0.0
220
0.0
230
1.0
 70
     8
 71
     3
 72
     8
 73
     4
 74
     0
 42
0.000000001
 43
0.00000001
 40
0.0000000000000001
 40
0.0000000000000001
 40
0.0000000000000001
 40
0.0000000000000001
 40
0.0000169468106399
 40
0.0000169468106399
 40
0.0000169468106399
 40
0.0000169468106399
 10
63.6495343663126
 20
107.4045092114237
 30
0.0
 10
63.64921433061443
 20
107.3989197999846
 30
0.0
 10
63.64895919477305
 20
107.3933035939208
 30
0.0
 10
63.64876970388834
 20
107.3876754534498
 30
0.0
  0
LINE
  5
2AC
330
1F
100
AcDbEntity
  8
0
  6
Continuous
 62
     7
370
    25
100
AcDbLine
 10
61.6145892263
 20
107.3967841207
 30
0.0
 11
61.6893911929
 21
107.3990886784
 31
0.0
  0
LINE
  5
2AD
330
1F
100
AcDbEntity
  8
0
  6
Continuous
 62
     7
370
    25
100
AcDbLine
 10
39.3228972525
 20
107.3967841207
 30
0.0
 11
42.3226854027
 21
107.3967841207
 31
0.0
  0
LINE
  5
2AE
330
1F
100
AcDbEntity
  8
0
  6
Continuous
 62
     7
370
    25
100
AcDbLine
 10
58.6148010761
 20
107.3967841207
 30
0.0
 11
61.6145892263
 21
107.3967841207
 31
0.0
  0
LINE
  5
2AF
330
1F
100
AcDbEntity
  8
0
  6
Continuous
 62
     7
370
    25
100
AcDbLine
 10
58.6148010761
 20
106.3967840732
 30
0.0
 11
42.3226854027
 21
106.3967840732
 31
0.0
  0
LINE
  5
2B0
330
1F
100
AcDbEntity
  8
0
  6
Continuous
 62
     7
370
    25
100
AcDbLine
 10
42.3226854027
 20
107.3967841207
 30
0.0
 11
58.6148010761
 21
107.3967841207
 31
0.0
  0
LINE
  5
2B1
330
1F
100
AcDbEntity
  8
0
  6
Continuous
 62
     7
370
    25
100
AcDbLine
 10
81.7196559355
 20
102.196784223
 30
0.0
 11
83.0454979286
 21
102.196784223
 31
0.0
  0
LINE
  5
2B2
330
1F
100
AcDbEntity
  8
0
  6
Continuous
 62
     7
370
    25
100
AcDbLine
 10
17.8919885502
 20
102.196784223
 30
0.0
 11
19.2178305433
 21
102.196784223
 31
0.0
  0
LINE
  5
2B3
330
1F
100
AcDbEntity
  8
0
  6
Continuous
 62
     7
370
    25
100
AcDbLine
 10
81.7196559355
 20
102.196784223
 30
0.0
 11
64.4687436715
 21
102.196784223
 31
0.0
  0
LINE
  5
2B4
330
1F
100
AcDbEntity
  8
0
  6
Continuous
 62
     7
370
    25
100
AcDbLine
 10
63.4681334913
 20
102.196784223
 30
0.0
 11
37.4693529875
 21
102.196784223
 31
0.0
  0
LINE
  5
2B5
330
1F
100
AcDbEntity
  8
0
  6
Continuous
 62
     7
370
    25
100
AcDbLine
 10
36.4687428073
 20
102.196784223
 30
0.0
 11
19.2178305433
 21
102.196784223
 31
0.0
  0
LINE
  5
2B6
330
1F
100
AcDbEntity
  8
0
  6
PHANTOM
 62
     8
370
    18
100
AcDbLine
 10
81.6512782321
 20
104.1967840851
 30
0.0
 11
81.579933335
 21
106.2398053459
 31
0.0
  0
SPLINE
  5
2B7
330
1F
100
AcDbEntity
  8
0
  6
PHANTOM
 62
     8
370
    18
100
AcDbSpline
210
0.0
220
0.0
230
1.0
 70
     8
 71
     3
 72
    20
 73
    16
 74
     0
 42
0.000000001
 43
0.00000001
 40
0.0
 40
0.0
 40
0.0
 40
0.0
 40
0.1250000000000001
 40
0.1250000000000001
 40
0.2500000000000001
 40
0.2500000000000001
 40
0.3750000000000001
 40
0.3750000000000001
 40
0.5000000000000001
 40
0.5000000000000001
 40
0.6250000000000001
 40
0.6250000000000001
 40
0.7500000000000001
 40
0.7500000000000001
 40
1.0
 40
1.0
 40
1.0
 40
1.0
 10
84.26947693979861
 20
106.4921577134616
 30
0.0
 10
84.26990717676551
 20
106.4798373387063
 30
0.0
 10
84.25297766657494
 20
106.4672189493097
 30
0.0
 10
84.18583816868419
 20
106.4414285801786
 30
0.0
 10
84.13486150884027
 20
106.4281158806127
 30
0.0
 10
84.00101041539723
 20
106.4016710367132
 30
0.0
 10
83.91900553441339
 20
106.3886335005069
 30
0.0
 10
83.72523853341907
 20
106.3630026284354
 30
0.0
 10
83.61207016504432
 20
106.3502987821935
 30
0.0
 10
83.36427225322728
 20
106.3264805606423
 30
0.0
 10
83.22913904397092
 20
106.3152581161231
 30
0.0
 10
82.93608158757159
 20
106.294302765158
 30
0.0
 10
82.77839976125529
 20
106.2846311959934
 30
0.0
 10
82.2915384323569
 20
106.2592974674284
 30
0.0
 10
81.93713277997513
 20
106.2467229733396
 30
0.0
 10
81.5799340455557
 20
106.2398053501859
 30
0.0
  0
SPLINE
  5
2B8
330
1F
100
AcDbEntity
  8
0
  6
PHANTOM
 62
     8
370
    18
100
AcDbSpline
210
0.0
220
0.0
230
1.0
 70
     8
 71
     3
 72
    14
 73
    10
 74
     0
 42
0.000000001
 43
0.00000001
 40
0.0
 40
0.0
 40
0.0
 40
0.0
 40
0.25
 40
0.25
 40
0.5
 40
0.5
 40
0.75
 40
0.75
 40
1.0
 40
1.0
 40
1.0
 40
1.0
 10
81.5799340455557
 20
107.6525155429806
 30
0.0
 10
81.74246739896954
 20
107.6525155429806
 30
0.0
 10
81.90345923891614
 20
107.6601640349415
 30
0.0
 10
82.19527366410642
 20
107.6882382721153
 30
0.0
 10
82.32814015578543
 20
107.7088683547614
 30
0.0
 10
82.5449961433248
 20
107.7582856525348
 30
0.0
 10
82.62975541926069
 20
107.7870419312127
 30
0.0
 10
82.7432621621425
 20
107.8480525634934
 30
0.0
 10
82.77146499780797
 20
107.8796715709244
 30
0.0
 10
82.77039069926995
 20
107.9112084178964
 30
0.0
  0
ARC
  5
2B9
330
1F
100
AcDbEntity
  8
0
  6
PHANTOM
 62
     8
370
    18
100
AcDbCircle
 10
82.7861960478
 20
106.4265633559
 30
0.0
 40
1.484729201349722
100
AcDbArc
 50
2.532113849
 51
90.610007683
  0
LINE
  5
2BA
330
1F
100
AcDbEntity
  8
0
  6
PHANTOM
 62
     8
370
    18
100
AcDbLine
 10
81.579933335
 20
107.6525155208
 30
0.0
 11
81.579933335
 21
106.2398053459
 31
0.0
  0
SPLINE
  5
2BB
330
1F
100
AcDbEntity
  8
0
  6
PHANTOM
 62
     8
370
    18
100
AcDbSpline
210
0.0
220
0.0
230
1.0
 70
     8
 71
     3
 72
    20
 73
    16
 74
     0
 42
0.000000001
 43
0.00000001
 40
0.0
 40
0.0
 40
0.0
 40
0.0
 40
0.1249999999999989
 40
0.1249999999999989
 40
0.2499999999999978
 40
0.2499999999999978
 40
0.3749999999999967
 40
0.3749999999999967
 40
0.4999999999999956
 40
0.4999999999999956
 40
0.7499999999999969
 40
0.7499999999999969
 40
0.8749999999999984
 40
0.8749999999999984
 40
1.0
 40
1.0
 40
1.0
 40
1.0
 10
19.35755243326895
 20
106.2398053501859
 30
0.0
 10
19.17905396343161
 20
106.2432622077525
 30
0.0
 10
19.00353190744599
 20
106.2480504181698
 30
0.0
 10
18.65821134874016
 20
106.2601680873074
 30
0.0
 10
18.48662626130418
 20
106.2676005011125
 30
0.0
 10
18.1603875756186
 20
106.2845509143444
 30
0.0
 10
18.00555548896234
 20
106.2940357973304
 30
0.0
 10
17.71242120517424
 20
106.3149378183957
 30
0.0
 10
17.574425690671
 20
106.3263769906392
 30
0.0
 10
17.20310589833588
 20
106.3620296598561
 30
0.0
 10
17.00362716872742
 20
106.3884587456544
 30
0.0
 10
16.8038068207564
 20
106.427855301417
 30
0.0
 10
16.75243368569322
 20
106.4411745280974
 30
0.0
 10
16.68449091154665
 20
106.4671787264973
 30
0.0
 10
16.66757953573939
 20
106.479844030434
 30
0.0
 10
16.668009539026
 20
106.4921577134616
 30
0.0
  0
LINE
  5
2BC
330
1F
100
AcDbEntity
  8
0
  6
PHANTOM
 62
     8
370
    18
100
AcDbLine
 10
19.3575531439
 20
106.2398053459
 30
0.0
 11
19.2862082467
 21
104.1967840851
 31
0.0
  0
SPLINE
  5
2BD
330
1F
100
AcDbEntity
  8
0
  6
PHANTOM
 62
     8
370
    18
100
AcDbSpline
210
0.0
220
0.0
230
1.0
 70
     8
 71
     3
 72
    16
 73
    12
 74
     0
 42
0.000000001
 43
0.00000001
 40
0.0
 40
0.0
 40
0.0
 40
0.0
 40
0.2499999999999976
 40
0.2499999999999976
 40
0.4999999999999951
 40
0.4999999999999951
 40
0.7499999999999927
 40
0.7499999999999927
 40
0.8749999999999963
 40
0.8749999999999963
 40
1.0
 40
1.0
 40
1.0
 40
1.0
 10
18.16709577955465
 20
107.9112084178964
 30
0.0
 10
18.16602185439288
 20
107.8796825316673
 30
0.0
 10
18.19487766750792
 20
107.8476270365653
 30
0.0
 10
18.307843388331
 20
107.7870564064326
 30
0.0
 10
18.39332675422601
 20
107.7580593513119
 30
0.0
 10
18.609751393222
 20
107.7088119500425
 30
0.0
 10
18.74250306379365
 20
107.688176490243
 30
0.0
 10
18.9623775496824
 20
107.6670742470104
 30
0.0
 10
19.04007548955677
 20
107.6615966154659
 30
0.0
 10
19.19661324794961
 20
107.6543686091804
 30
0.0
 10
19.27632697685781
 20
107.6525155429806
 30
0.0
 10
19.35755243326895
 20
107.6525155429806
 30
0.0
  0
LINE
  5
2BE
330
1F
100
AcDbEntity
  8
0
  6
PHANTOM
 62
     8
370
    18
100
AcDbLine
 10
19.3575531439
 20
107.6525155208
 30
0.0
 11
19.3575531439
 21
106.2398053459
 31
0.0
  0
ARC
  5
2BF
330
1F
100
AcDbEntity
  8
0
  6
PHANTOM
 62
     8
370
    18
100
AcDbCircle
 10
18.151290431
 20
106.4265633559
 30
0.0
 40
1.484729201349705
100
AcDbArc
 50
89.389992317
 51
177.467886151
  0
LINE
  5
2C0
330
1F
100
AcDbEntity
  8
0
  6
PHANTOM
 62
     8
370
    18
100
AcDbLine
 10
37.028350328
 20
106.2398053459
 30
0.0
 11
19.3575531439
 21
106.2398053459
 31
0.0
  0
LINE
  5
2C1
330
1F
100
AcDbEntity
  8
0
  6
PHANTOM
 62
     8
370
    18
100
AcDbLine
 10
37.0996942938
 20
104.1967840851
 30
0.0
 11
37.028350328
 21
106.2398053459
 31
0.0
  0
ARC
  5
2C2
330
1F
100
AcDbEntity
  8
0
  6
PHANTOM
 62
     8
370
    18
100
AcDbCircle
 10
37.1782588036
 20
104.0890567609
 30
0.0
 40
2.155966610829707
100
AcDbArc
 50
86.0128978927
 51
93.9871021073
  0
ARC
  5
2C3
330
1F
100
AcDbEntity
  8
0
  6
PHANTOM
 62
     8
370
    18
100
AcDbCircle
 10
63.7592276753
 20
104.0890567609
 30
0.0
 40
2.155966610829707
100
AcDbArc
 50
86.0128978927
 51
93.9871021073
  0
LINE
  5
2C4
330
1F
100
AcDbEntity
  8
0
  6
PHANTOM
 62
     8
370
    18
100
AcDbLine
 10
63.9091361508
 20
106.2398053459
 30
0.0
 11
63.837792185
 21
104.1967840851
 31
0.0
  0
LINE
  5
2C5
330
1F
100
AcDbEntity
  8
0
  6
PHANTOM
 62
     8
370
    18
100
AcDbLine
 10
81.579933335
 20
106.2398053459
 30
0.0
 11
63.9091361508
 21
106.2398053459
 31
0.0
  0
LINE
  5
2C6
330
1F
100
AcDbEntity
  8
0
  6
PHANTOM
 62
     8
370
    18
100
AcDbLine
 10
19.3575531439
 20
107.6525155208
 30
0.0
 11
36.9888836712
 21
107.6525155208
 31
0.0
  0
LWPOLYLINE
  5
2C7
330
1F
100
AcDbEntity
  8
0
  6
PHANTOM
 62
     8
370
    18
100
AcDbPolyline
 90
        8
 70
   128
 43
0.0
 10
37.028350328
 20
106.2398053459
 10
37.0205281497
 20
106.5198119599
 10
37.0130337969
 20
106.7880418836
 10
37.0061354906
 20
107.034990679
 10
37.0000753746
 20
107.2519079302
 10
36.9950695158
 20
107.4311074321
 10
36.9912939341
 20
107.5662393109
 10
36.9888836712
 20
107.6525155208
  0
ARC
  5
2C8
330
1F
100
AcDbEntity
  8
0
  6
PHANTOM
 62
     8
370
    18
100
AcDbCircle
 10
36.9927361356
 20
107.356258474
 30
0.0
 40
0.2962820941103538
100
AcDbArc
 50
2.6531939998
 51
90.7450202881
  0
ARC
  5
2C9
330
1F
100
AcDbEntity
  8
0
  6
PHANTOM
 62
     8
370
    18
100
AcDbCircle
 10
63.9447503432
 20
107.356258474
 30
0.0
 40
0.2962820941103609
100
AcDbArc
 50
89.2549797119
 51
177.3468060002
  0
LWPOLYLINE
  5
2CA
330
1F
100
AcDbEntity
  8
0
  6
PHANTOM
 62
     8
370
    18
100
AcDbPolyline
 90
        8
 70
   128
 43
0.0
 10
63.9486028076
 20
107.6525155208
 10
63.9461925448
 20
107.5662393109
 10
63.9424169631
 20
107.4311074321
 10
63.9374111042
 20
107.2519079302
 10
63.9313509882
 20
107.034990679
 10
63.9244526819
 20
106.7880418836
 10
63.9169583292
 20
106.5198119599
 10
63.9091361508
 20
106.2398053459
  0
LINE
  5
2CB
330
1F
100
AcDbEntity
  8
0
  6
PHANTOM
 62
     8
370
    18
100
AcDbLine
 10
63.9486028076
 20
107.6525155208
 30
0.0
 11
81.579933335
 21
107.6525155208
 31
0.0
  0
LWPOLYLINE
  5
2CC
330
1F
100
AcDbEntity
  8
0
  6
PHANTOM
 62
     8
370
    18
100
AcDbPolyline
 90
        8
 70
   128
 43
0.0
 10
36.9888836712
 20
107.6525155208
 10
36.9738949657
 20
108.0838477924
 10
36.96158195
 20
108.4381847163
 10
36.9519604564
 20
108.7150732041
 10
36.9450425924
 20
108.9141587713
 10
36.9408367396
 20
109.0351873995
 10
36.9393484861
 20
109.0780037907
 10
36.9393456922
 20
109.0780904037
  0
LWPOLYLINE
  5
2CD
330
1F
100
AcDbEntity
  8
0
  6
PHANTOM
 62
     8
370
    18
100
AcDbPolyline
 90
        7
 70
   128
 43
0.0
 10
18.2068463609
 20
109.0780904037
 10
18.2065148101
 20
109.0684162904
 10
18.2038810299
 20
108.9910410796
 10
18.1986134694
 20
108.8363884469
 10
18.1907195792
 20
108.604653737
 10
18.18020681
 20
108.2961304332
 10
18.1670975134
 20
107.9112084103
  0
LWPOLYLINE
  5
2CE
330
1F
100
AcDbEntity
  8
0
  6
PHANTOM
 62
     8
370
    18
100
AcDbPolyline
 90
        7
 70
   128
 43
0.0
 10
82.7703889654
 20
107.9112084103
 10
82.7572796688
 20
108.2961304332
 10
82.7467668996
 20
108.604653737
 10
82.7388730095
 20
108.8363884469
 10
82.733605449
 20
108.9910410796
 10
82.7309716687
 20
109.0684162904
 10
82.7306401179
 20
109.0780904037
  0
LWPOLYLINE
  5
2CF
330
1F
100
AcDbEntity
  8
0
  6
PHANTOM
 62
     8
370
    18
100
AcDbPolyline
 90
        8
 70
   128
 43
0.0
 10
63.9981407867
 20
109.0780904037
 10
63.9981379927
 20
109.0780037907
 10
63.9966497392
 20
109.0351873995
 10
63.9924438865
 20
108.9141587713
 10
63.9855260224
 20
108.7150732041
 10
63.9759045289
 20
108.4381847163
 10
63.9635915131
 20
108.0838477924
 10
63.9486028076
 20
107.6525155208
  0
SPLINE
  5
2D0
330
1F
100
AcDbEntity
  8
0
  6
PHANTOM
 62
     8
370
    18
100
AcDbSpline
210
0.0
220
0.0
230
1.0
 70
     8
 71
     3
 72
    10
 73
     6
 74
     0
 42
0.000000001
 43
0.00000001
 40
0.0
 40
0.0
 40
0.0
 40
0.0
 40
0.5
 40
0.5
 40
1.0
 40
1.0
 40
1.0
 40
1.0
 10
39.69036523389232
 20
106.7212137208976
 30
0.0
 10
39.44011441809698
 20
106.7212137208976
 30
0.0
 10
39.20450647387803
 20
106.7315033550616
 30
0.0
 10
38.77171791703535
 20
106.7807107662108
 30
0.0
 10
38.57299156127102
 20
106.8193677971981
 30
0.0
 10
38.3921100809176
 20
106.8778594798221
 30
0.0
  0
LINE
  5
2D1
330
1F
100
AcDbEntity
  8
0
  6
PHANTOM
 62
     8
370
    18
100
AcDbLine
 10
42.3226854027
 20
106.7212137263
 30
0.0
 11
39.6903654755
 21
106.7212137263
 31
0.0
  0
LINE
  5
2D2
330
1F
100
AcDbEntity
  8
0
  6
PHANTOM
 62
     8
370
    18
100
AcDbLine
 10
42.3226854027
 20
106.7212137263
 30
0.0
 11
42.3226854027
 21
106.3967840732
 31
0.0
  0
SPLINE
  5
2D3
330
1F
100
AcDbEntity
  8
0
  6
PHANTOM
 62
     8
370
    18
100
AcDbSpline
210
0.0
220
0.0
230
1.0
 70
     8
 71
     3
 72
    10
 73
     6
 74
     0
 42
0.000000001
 43
0.00000001
 40
0.0
 40
0.0
 40
0.0
 40
0.0
 40
0.5
 40
0.5
 40
1.0
 40
1.0
 40
1.0
 40
1.0
 10
37.8925241321583
 20
107.0573696918214
 30
0.0
 10
37.70359433954845
 20
107.1373792123849
 30
0.0
 10
37.55670823854571
 20
107.192583172024
 30
0.0
 10
37.35227045285868
 20
107.2963956545598
 30
0.0
 10
37.29667336968433
 20
107.3419576400674
 30
0.0
 10
37.28871677493626
 20
107.3876754534498
 30
0.0
  0
SPLINE
  5
2D4
330
1F
100
AcDbEntity
  8
0
  6
PHANTOM
 62
     8
370
    18
100
AcDbSpline
210
0.0
220
0.0
230
1.0
 70
     8
 71
     3
 72
     8
 73
     4
 74
     0
 42
0.000000001
 43
0.00000001
 40
0.0
 40
0.0
 40
0.0
 40
0.0
 40
1.0
 40
1.0
 40
1.0
 40
1.0
 10
38.3921100809176
 20
106.8778594798221
 30
0.0
 10
38.20316915125887
 20
106.9389573482755
 30
0.0
 10
38.03644813321755
 20
106.9964195888054
 30
0.0
 10
37.8925241321583
 20
107.0573696918214
 30
0.0
  0
SPLINE
  5
2D5
330
1F
100
AcDbEntity
  8
0
  6
PHANTOM
 62
     8
370
    18
100
AcDbSpline
210
0.0
220
0.0
230
1.0
 70
     8
 71
     3
 72
     8
 73
     4
 74
     0
 42
0.000000001
 43
0.00000001
 40
0.0
 40
0.0
 40
0.0
 40
0.0
 40
1.0
 40
1.0
 40
1.0
 40
1.0
 10
63.04496234666616
 20
107.0573696918213
 30
0.0
 10
62.90103834560689
 20
106.9964195888054
 30
0.0
 10
62.73431732756551
 20
106.9389573482757
 30
0.0
 10
62.54537639790678
 20
106.877859479822
 30
0.0
  0
SPLINE
  5
2D6
330
1F
100
AcDbEntity
  8
0
  6
PHANTOM
 62
     8
370
    18
100
AcDbSpline
210
0.0
220
0.0
230
1.0
 70
     8
 71
     3
 72
    10
 73
     6
 74
     0
 42
0.000000001
 43
0.00000001
 40
0.0
 40
0.0
 40
0.0
 40
0.0
 40
0.5
 40
0.5
 40
1.0
 40
1.0
 40
1.0
 40
1.0
 10
63.64876970388834
 20
107.3876754534498
 30
0.0
 10
63.64081343540019
 20
107.3419595147227
 30
0.0
 10
63.58520981562851
 20
107.2964020456759
 30
0.0
 10
63.38095692425684
 20
107.1926643702128
 30
0.0
 10
63.23388031564168
 20
107.1373742052163
 30
0.0
 10
63.04496234666616
 20
107.0573696918213
 30
0.0
  0
LINE
  5
2D7
330
1F
100
AcDbEntity
  8
0
  6
PHANTOM
 62
     8
370
    18
100
AcDbLine
 10
58.6148010761
 20
106.7212137263
 30
0.0
 11
58.6148010761
 21
106.3967840732
 31
0.0
  0
LINE
  5
2D8
330
1F
100
AcDbEntity
  8
0
  6
PHANTOM
 62
     8
370
    18
100
AcDbLine
 10
61.2471210033
 20
106.7212137263
 30
0.0
 11
58.6148010761
 21
106.7212137263
 31
0.0
  0
SPLINE
  5
2D9
330
1F
100
AcDbEntity
  8
0
  6
PHANTOM
 62
     8
370
    18
100
AcDbSpline
210
0.0
220
0.0
230
1.0
 70
     8
 71
     3
 72
    10
 73
     6
 74
     0
 42
0.000000001
 43
0.00000001
 40
0.0
 40
0.0
 40
0.0
 40
0.0
 40
0.5
 40
0.5
 40
1.0
 40
1.0
 40
1.0
 40
1.0
 10
62.54537639790681
 20
106.877859479822
 30
0.0
 10
62.36462289205079
 20
106.8194091803384
 30
0.0
 10
62.16595479393852
 20
106.7807384746704
 30
0.0
 10
61.73305303717692
 20
106.7315051284859
 30
0.0
 10
61.49721536049051
 20
106.7212137208976
 30
0.0
 10
61.24712124493229
 20
106.7212137208976
 30
0.0
  0
SPLINE
  5
2DA
330
1F
100
AcDbEntity
  8
0
  6
PHANTOM
 62
     8
370
    18
100
AcDbSpline
210
0.0
220
0.0
230
1.0
 70
     8
 71
     3
 72
    10
 73
     6
 74
     0
 42
0.000000001
 43
0.00000001
 40
0.0
 40
0.0
 40
0.0
 40
0.0
 40
0.5
 40
0.5
 40
1.0
 40
1.0
 40
1.0
 40
1.0
 10
37.28795211251634
 20
107.4045092113493
 30
0.0
 10
37.2912830727636
 20
107.4443807777187
 30
0.0
 10
37.33186228111363
 20
107.4836570901227
 30
0.0
 10
37.47808850685809
 20
107.5464411969821
 30
0.0
 10
37.58518970743489
 20
107.5719198611026
 30
0.0
 10
37.7083967861907
 20
107.5682664760331
 30
0.0
  0
ARC
  5
2DB
330
1F
100
AcDbEntity
  8
0
  6
PHANTOM
 62
     8
370
    18
100
AcDbCircle
 10
37.2311585924
 20
107.1076406931
 30
0.0
 40
0.6632737699369173
100
AcDbArc
 50
355.6532588723
 51
43.9852409394
  0
ARC
  5
2DC
330
1F
100
AcDbEntity
  8
0
  6
PHANTOM
 62
     8
370
    18
100
AcDbCircle
 10
63.7063278864
 20
107.1076406931
 30
0.0
 40
0.6632737699369173
100
AcDbArc
 50
136.0147590606
 51
184.3467411277
  0
SPLINE
  5
2DD
330
1F
100
AcDbEntity
  8
0
  6
PHANTOM
 62
     8
370
    18
100
AcDbSpline
210
0.0
220
0.0
230
1.0
 70
     8
 71
     3
 72
    10
 73
     6
 74
     0
 42
0.000000001
 43
0.00000001
 40
0.0
 40
0.0
 40
0.0
 40
0.0
 40
0.5
 40
0.5
 40
1.0
 40
1.0
 40
1.0
 40
1.0
 10
63.22908969263361
 20
107.5682664760318
 30
0.0
 10
63.35296329854143
 20
107.5719396252283
 30
0.0
 10
63.45945492824862
 20
107.5464011883407
 30
0.0
 10
63.60541248255561
 20
107.4837635299877
 30
0.0
 10
63.64617882863481
 20
107.4446749689277
 30
0.0
 10
63.6495343663121
 20
107.4045092114155
 30
0.0
  0
ARC
  5
2DE
330
1F
100
AcDbEntity
  8
0
  6
PHANTOM
 62
     8
370
    18
100
AcDbCircle
 10
38.4033506165
 20
108.4883011268
 30
0.0
 40
1.153006960599259
100
AcDbArc
 50
182.1975225712
 51
232.9341893328
  0
ARC
  5
2DF
330
1F
100
AcDbEntity
  8
0
  6
PHANTOM
 62
     8
370
    18
100
AcDbCircle
 10
62.5341358623
 20
108.4883011268
 30
0.0
 40
1.153006960599264
100
AcDbArc
 50
307.0658106672
 51
357.8024774288
  0
SPLINE
  5
2E0
330
1F
100
AcDbEntity
  8
0
  6
PHANTOM
 62
     8
370
    18
100
AcDbSpline
210
0.0
220
0.0
230
1.0
 70
     8
 71
     3
 72
     8
 73
     4
 74
     0
 42
0.000000001
 43
0.00000001
 40
0.0
 40
0.0
 40
0.0
 40
0.0
 40
1.0
 40
1.0
 40
1.0
 40
1.0
 10
37.35604203868984
 20
108.5513264256523
 30
0.0
 10
37.28255706661155
 20
108.5840001859954
 30
0.0
 10
37.24527055462213
 20
108.6136595415985
 30
0.0
 10
37.24434782913216
 20
108.64008294244
 30
0.0
  0
SPLINE
  5
2E1
330
1F
100
AcDbEntity
  8
0
  6
PHANTOM
 62
     8
370
    18
100
AcDbSpline
210
0.0
220
0.0
230
1.0
 70
     8
 71
     3
 72
     8
 73
     4
 74
     0
 42
0.000000001
 43
0.00000001
 40
0.0
 40
0.0
 40
0.0
 40
0.0
 40
1.0
 40
1.0
 40
1.0
 40
1.0
 10
37.2511920697465
 20
108.4440895346783
 30
0.0
 10
37.24888217660104
 20
108.5102362198484
 30
0.0
 10
37.2839748866359
 20
108.5412534674702
 30
0.0
 10
37.35604203868981
 20
108.5513264256535
 30
0.0
  0
ARC
  5
2E2
330
1F
100
AcDbEntity
  8
0
  6
PHANTOM
 62
     8
370
    18
100
AcDbCircle
 10
37.0616110209
 20
108.5478870401
 30
0.0
 40
0.2944508309006583
100
AcDbArc
 50
0.6692714522
 51
52.8648081397
  0
SPLINE
  5
2E3
330
1F
100
AcDbEntity
  8
0
  6
PHANTOM
 62
     8
370
    18
100
AcDbSpline
210
0.0
220
0.0
230
1.0
 70
     8
 71
     3
 72
     8
 73
     4
 74
     0
 42
0.000000001
 43
0.00000001
 40
0.0
 40
0.0
 40
0.0
 40
0.0
 40
1.0
 40
1.0
 40
1.0
 40
1.0
 10
37.70839678619094
 20
107.5682664760321
 30
0.0
 10
37.81324598441919
 20
107.5588639250391
 30
0.0
 10
37.9481888449937
 20
107.5335554028884
 30
0.0
 10
38.11342694093402
 20
107.4957182367371
 30
0.0
  0
SPLINE
  5
2E4
330
1F
100
AcDbEntity
  8
0
  6
PHANTOM
 62
     8
370
    18
100
AcDbSpline
210
0.0
220
0.0
230
1.0
 70
     8
 71
     3
 72
     8
 73
     4
 74
     0
 42
0.000000001
 43
0.00000001
 40
0.0
 40
0.0
 40
0.0
 40
0.0
 40
0.0002582603238721
 40
0.0002582603238721
 40
0.0002582603238721
 40
0.0002582603238721
 10
37.415340202546
 20
108.5328061972863
 30
0.0
 10
37.39346272407749
 20
108.5393264365807
 30
0.0
 10
37.37366707456749
 20
108.5455112235823
 30
0.0
 10
37.35604203868984
 20
108.5513264256526
 30
0.0
  0
ARC
  5
2E5
330
1F
100
AcDbEntity
  8
0
  6
PHANTOM
 62
     8
370
    18
100
AcDbCircle
 10
38.6134105424
 20
108.5857611819
 30
0.0
 40
1.199240280654121
100
AcDbArc
 50
182.5308407896
 51
245.3598989088
  0
SPLINE
  5
2E6
330
1F
100
AcDbEntity
  8
0
  6
PHANTOM
 62
     8
370
    18
100
AcDbSpline
210
0.0
220
0.0
230
1.0
 70
     8
 71
     3
 72
     8
 73
     4
 74
     0
 42
0.000000001
 43
0.00000001
 40
0.0
 40
0.0
 40
0.0
 40
0.0
 40
1.0
 40
1.0
 40
1.0
 40
1.0
 10
62.82405953789117
 20
107.4957182367443
 30
0.0
 10
62.98929763383133
 20
107.5335554028962
 30
0.0
 10
63.12424049440547
 20
107.5588639250389
 30
0.0
 10
63.22908969263361
 20
107.5682664760318
 30
0.0
  0
ARC
  5
2E7
330
1F
100
AcDbEntity
  8
0
  6
PHANTOM
 62
     8
370
    18
100
AcDbCircle
 10
62.3240759365
 20
108.5857611819
 30
0.0
 40
1.199240280654121
100
AcDbArc
 50
294.6401010912
 51
357.4691592104
  0
SPLINE
  5
2E8
330
1F
100
AcDbEntity
  8
0
  6
PHANTOM
 62
     8
370
    18
100
AcDbSpline
210
0.0
220
0.0
230
1.0
 70
     8
 71
     3
 72
     8
 73
     4
 74
     0
 42
0.000000001
 43
0.00000001
 40
0.0
 40
0.0
 40
0.0
 40
0.0
 40
0.0002582603238825
 40
0.0002582603238825
 40
0.0002582603238825
 40
0.0002582603238825
 10
63.5814444401369
 20
108.5513264256533
 30
0.0
 10
63.56381940425872
 20
108.5455112235827
 30
0.0
 10
63.54402375474799
 20
108.539326436581
 30
0.0
 10
63.5221462762786
 20
108.5328061972863
 30
0.0
  0
SPLINE
  5
2E9
330
1F
100
AcDbEntity
  8
0
  6
PHANTOM
 62
     8
370
    18
100
AcDbSpline
210
0.0
220
0.0
230
1.0
 70
     8
 71
     3
 72
     8
 73
     4
 74
     0
 42
0.000000001
 43
0.00000001
 40
0.0
 40
0.0
 40
0.0
 40
0.0
 40
1.0
 40
1.0
 40
1.0
 40
1.0
 10
63.5814444401369
 20
108.5513264256532
 30
0.0
 10
63.65396453388198
 20
108.5411901589774
 30
0.0
 10
63.68861260313533
 20
108.51047392686
 30
0.0
 10
63.68629440907809
 20
108.4440895346783
 30
0.0
  0
SPLINE
  5
2EA
330
1F
100
AcDbEntity
  8
0
  6
PHANTOM
 62
     8
370
    18
100
AcDbSpline
210
0.0
220
0.0
230
1.0
 70
     8
 71
     3
 72
     8
 73
     4
 74
     0
 42
0.000000001
 43
0.00000001
 40
0.0
 40
0.0
 40
0.0
 40
0.0
 40
1.0
 40
1.0
 40
1.0
 40
1.0
 10
63.69313864969245
 20
108.64008294244
 30
0.0
 10
63.69221592420247
 20
108.6136595415988
 30
0.0
 10
63.65492941221378
 20
108.584000185996
 30
0.0
 10
63.5814444401369
 20
108.5513264256533
 30
0.0
  0
ARC
  5
2EB
330
1F
100
AcDbEntity
  8
0
  6
PHANTOM
 62
     8
370
    18
100
AcDbCircle
 10
63.8758754579
 20
108.5478870401
 30
0.0
 40
0.2944508309006627
100
AcDbArc
 50
127.1351918603
 51
179.3307285478
  0
ARC
  5
2EC
330
1F
100
AcDbEntity
  8
0
  6
PHANTOM
 62
     8
370
    18
100
AcDbCircle
 10
37.7806473374
 20
106.9738400341
 30
0.0
 40
0.6189499862572992
100
AcDbArc
 50
351.0791455469
 51
57.4760819438
  0
ARC
  5
2ED
330
1F
100
AcDbEntity
  8
0
  6
PHANTOM
 62
     8
370
    18
100
AcDbCircle
 10
63.1568391414
 20
106.9738400341
 30
0.0
 40
0.6189499862572992
100
AcDbArc
 50
122.5239180562
 51
188.9208544531
  0
SPLINE
  5
2EE
330
1F
100
AcDbEntity
  8
0
  6
PHANTOM
 62
     8
370
    18
100
AcDbSpline
210
0.0
220
0.0
230
1.0
 70
     8
 71
     3
 72
    10
 73
     6
 74
     0
 42
0.000000001
 43
0.00000001
 40
0.0
 40
0.0
 40
0.0
 40
0.0
 40
0.5
 40
0.5
 40
1.0
 40
1.0
 40
1.0
 40
1.0
 10
38.11342694093405
 20
107.4957182367371
 30
0.0
 10
38.27339502329791
 20
107.4571846345675
 30
0.0
 10
38.45433643658608
 20
107.4329796706544
 30
0.0
 10
38.85743091280952
 20
107.4026829127347
 30
0.0
 10
39.08097232707193
 20
107.3967840732059
 30
0.0
 10
39.32289751757772
 20
107.3967840732059
 30
0.0
  0
LWPOLYLINE
  5
2EF
330
1F
100
AcDbEntity
  8
0
  6
PHANTOM
 62
     8
370
    18
100
AcDbPolyline
 90
        9
 70
   128
 43
0.0
 10
39.6903654755
 20
106.7212137263
 10
39.6811649398
 20
106.8542498092
 10
39.6588001595
 20
106.9814997013
 10
39.6240925611
 20
107.0982875521
 10
39.5783180565
 20
107.2003219146
 10
39.5231567518
 20
107.2838534587
 10
39.4606370673
 20
107.345812778
 10
39.393056576
 20
107.383923138
 10
39.3228972525
 20
107.3967841207
  0
LWPOLYLINE
  5
2F0
330
1F
100
AcDbEntity
  8
0
  6
PHANTOM
 62
     8
370
    18
100
AcDbPolyline
 90
        9
 70
   128
 43
0.0
 10
61.2471210033
 20
106.7212137263
 10
61.2563215391
 20
106.8542498092
 10
61.2786863194
 20
106.9814997013
 10
61.3133939177
 20
107.0982875521
 10
61.3591684223
 20
107.2003219146
 10
61.4143297271
 20
107.2838534587
 10
61.4768494115
 20
107.345812778
 10
61.5444299028
 20
107.383923138
 10
61.6145892263
 20
107.3967841207
  0
SPLINE
  5
2F1
330
1F
100
AcDbEntity
  8
0
  6
PHANTOM
 62
     8
370
    18
100
AcDbSpline
210
0.0
220
0.0
230
1.0
 70
     8
 71
     3
 72
     9
 73
     5
 74
     0
 42
0.000000001
 43
0.00000001
 40
0.0
 40
0.0
 40
0.0
 40
0.0
 40
0.4612848330899088
 40
1.0
 40
1.0
 40
1.0
 40
1.0
 10
61.68939119286298
 20
107.3990886784142
 30
0.0
 10
61.8911575677191
 20
107.4012452113324
 30
0.0
 10
62.32855841071797
 20
107.405920268398
 30
0.0
 10
62.65058114090241
 20
107.4642793581809
 30
0.0
 10
62.82405966974258
 20
107.4957182849741
 30
0.0
  0
ARC
  5
2F2
330
1F
100
AcDbEntity
  8
0
  6
PHANTOM
 62
     8
370
    18
100
AcDbCircle
 10
63.8120205625
 20
108.5276534068
 30
0.0
 40
0.2899198807030029
100
AcDbArc
 50
113.0325319413
 51
178.9816273768
  0
ARC
  5
2F3
330
1F
100
AcDbEntity
  8
0
  6
PHANTOM
 62
     8
370
    18
100
AcDbCircle
 10
37.1254659163
 20
108.5276534068
 30
0.0
 40
0.2899198807030029
100
AcDbArc
 50
1.0183726232
 51
66.9674680587
  0
ARC
  5
2F4
330
1F
100
AcDbEntity
  8
0
  6
PHANTOM
 62
     8
370
    18
100
AcDbCircle
 10
61.130189375
 20
108.3480627665
 30
0.0
 40
0.9628791113113484
100
AcDbArc
 50
278.902796431
 51
357.2401314297
  0
SPLINE
  5
2F5
330
1F
100
AcDbEntity
  8
0
  6
PHANTOM
 62
     8
370
    18
100
AcDbSpline
210
0.0
220
0.0
230
1.0
 70
     8
 71
     3
 72
    10
 73
     6
 74
     0
 42
0.000000001
 43
0.00000001
 40
0.0
 40
0.0
 40
0.0
 40
0.0
 40
0.5
 40
0.5
 40
1.0
 40
1.0
 40
1.0
 40
1.0
 10
63.5221462762786
 20
108.5328061972863
 30
0.0
 10
63.4010904317274
 20
108.4967078983424
 30
0.0
 10
63.21893323927348
 20
108.4579098100667
 30
0.0
 10
62.73294445574806
 20
108.378166414785
 30
0.0
 10
62.4381690328846
 20
108.3387239749029
 30
0.0
 10
62.09195145226906
 20
108.3016999607433
 30
0.0
  0
SPLINE
  5
2F6
330
1F
100
AcDbEntity
  8
0
  6
PHANTOM
 62
     8
370
    18
100
AcDbSpline
210
0.0
220
0.0
230
1.0
 70
     8
 71
     3
 72
    10
 73
     6
 74
     0
 42
0.000000001
 43
0.00000001
 40
0.0
 40
0.0
 40
0.0
 40
0.0
 40
0.5
 40
0.5
 40
1.0
 40
1.0
 40
1.0
 40
1.0
 10
38.84553502655716
 20
108.3016999607431
 30
0.0
 10
38.49931744594122
 20
108.3387239749027
 30
0.0
 10
38.20454202307738
 20
108.3781664147848
 30
0.0
 10
37.7185532395514
 20
108.4579098100667
 30
0.0
 10
37.53639604709731
 20
108.4967078983424
 30
0.0
 10
37.415340202546
 20
108.5328061972863
 30
0.0
  0
ARC
  5
2F7
330
1F
100
AcDbEntity
  8
0
  6
PHANTOM
 62
     8
370
    18
100
AcDbCircle
 10
39.8072971039
 20
108.3480627665
 30
0.0
 40
0.9628791113113523
100
AcDbArc
 50
182.7598685703
 51
261.097203569
  0
ARC
  5
2F8
330
1F
100
AcDbEntity
  8
0
  6
PHANTOM
 62
     8
370
    18
100
AcDbCircle
 10
38.6111714427
 20
108.3016149111
 30
0.0
 40
0.2343634011292466
100
AcDbArc
 50
0.0207959405
 51
72.7978347313
  0
ARC
  5
2F9
330
1F
100
AcDbEntity
  8
0
  6
PHANTOM
 62
     8
370
    18
100
AcDbCircle
 10
62.3281586428
 20
108.3010471519
 30
0.0
 40
0.2362078944724939
100
AcDbArc
 50
108.6505053146
 51
179.8416477337
  0
LINE
  5
2FA
330
1F
100
AcDbEntity
  8
0
  6
PHANTOM
 62
     8
370
    18
100
AcDbLine
 10
42.3226854027
 20
106.7212137263
 30
0.0
 11
42.3226854027
 21
107.3967841207
 31
0.0
  0
LINE
  5
2FB
330
1F
100
AcDbEntity
  8
0
  6
PHANTOM
 62
     8
370
    18
100
AcDbLine
 10
58.6148010761
 20
106.7212137263
 30
0.0
 11
58.6148010761
 21
107.3967841207
 31
0.0
  0
LINE
  5
2FC
330
1F
100
AcDbEntity
  8
0
  6
PHANTOM
 62
     8
370
    18
100
AcDbLine
 10
58.4687436194
 20
108.1237414605
 30
0.0
 11
58.4687436194
 21
107.3967841207
 31
0.0
  0
SPLINE
  5
2FD
330
1F
100
AcDbEntity
  8
0
  6
PHANTOM
 62
     8
370
    18
100
AcDbSpline
210
0.0
220
0.0
230
1.0
 70
     8
 71
     3
 72
    14
 73
    10
 74
     0
 42
0.000000001
 43
0.00000001
 40
0.0
 40
0.0
 40
0.0
 40
0.0
 40
0.25
 40
0.25
 40
0.5
 40
0.5
 40
0.75
 40
0.75
 40
1.0
 40
1.0
 40
1.0
 40
1.0
 10
62.09195145226906
 20
108.3016999607433
 30
0.0
 10
61.84783381150318
 20
108.2756445065529
 30
0.0
 10
61.58597812672591
 20
108.2514810919367
 30
0.0
 10
61.02814572065677
 20
108.2080688342151
 30
0.0
 10
60.72924123058822
 20
108.1886728116951
 30
0.0
 10
60.1091577771126
 20
108.1569519217261
 30
0.0
 10
59.79129188870042
 20
108.1447215851446
 30
0.0
 10
59.14015866369954
 20
108.1281043363101
 30
0.0
 10
58.8046580512521
 20
108.1237414180103
 30
0.0
 10
58.4687432394123
 20
108.1237414180103
 30
0.0
  0
SPLINE
  5
2FE
330
1F
100
AcDbEntity
  8
0
  6
PHANTOM
 62
     8
370
    18
100
AcDbSpline
210
0.0
220
0.0
230
1.0
 70
     8
 71
     3
 72
    16
 73
    12
 74
     0
 42
0.000000001
 43
0.00000001
 40
0.0
 40
0.0
 40
0.0
 40
0.0
 40
0.2499999999999999
 40
0.2499999999999999
 40
0.3749999999999996
 40
0.3749999999999996
 40
0.4999999999999992
 40
0.4999999999999992
 40
0.7499999999999996
 40
0.7499999999999996
 40
1.0
 40
1.0
 40
1.0
 40
1.0
 10
42.4687432394123
 20
108.1237414180102
 30
0.0
 10
42.13290971472167
 20
108.1237414180102
 30
0.0
 10
41.80252356743039
 20
108.1280194032957
 30
0.0
 10
41.31476297625549
 20
108.1403964113663
 30
0.0
 10
41.15348810431216
 20
108.1455187921569
 30
0.0
 10
40.83360860608736
 20
108.1577172185276
 30
0.0
 10
40.67428583173889
 20
108.1648367599689
 30
0.0
 10
40.20948242130948
 20
108.1886002791297
 30
0.0
 10
39.91489882226374
 20
108.207680777343
 30
0.0
 10
39.35562198564919
 20
108.2511172300395
 30
0.0
 10
39.08959542817068
 20
108.2756506158699
 30
0.0
 10
38.84553502655716
 20
108.3016999607431
 30
0.0
  0
LINE
  5
2FF
330
1F
100
AcDbEntity
  8
0
  6
PHANTOM
 62
     8
370
    18
100
AcDbLine
 10
42.4687428594
 20
108.1237414605
 30
0.0
 11
42.4687428594
 21
107.3967841207
 31
0.0
  0
LINE
  5
300
330
1F
100
AcDbEntity
  8
0
  6
PHANTOM
 62
     8
370
    18
100
AcDbLine
 10
58.6148010761
 20
106.7212137263
 30
0.0
 11
42.3226854027
 21
106.7212137263
 31
0.0
  0
LINE
  5
301
330
1F
100
AcDbEntity
  8
0
  6
PHANTOM
 62
     8
370
    18
100
AcDbLine
 10
58.4687436194
 20
108.3054807954
 30
0.0
 11
58.4687436194
 21
108.1237414605
 31
0.0
  0
LINE
  5
302
330
1F
100
AcDbEntity
  8
0
  6
PHANTOM
 62
     8
370
    18
100
AcDbLine
 10
42.4687428594
 20
108.3054807954
 30
0.0
 11
42.4687428594
 21
108.1237414605
 31
0.0
  0
LINE
  5
303
330
1F
100
AcDbEntity
  8
0
  6
PHANTOM
 62
     8
370
    18
100
AcDbLine
 10
58.4687436194
 20
108.1237414605
 30
0.0
 11
42.4687428594
 21
108.1237414605
 31
0.0
  0
LINE
  5
304
330
1F
100
AcDbEntity
  8
0
  6
PHANTOM
 62
     8
370
    18
100
AcDbLine
 10
81.6498160557
 20
104.1967840851
 30
0.0
 11
81.7196559355
 21
102.196784223
 31
0.0
  0
LINE
  5
305
330
1F
100
AcDbEntity
  8
0
  6
PHANTOM
 62
     8
370
    18
100
AcDbLine
 10
19.2178305433
 20
102.196784223
 30
0.0
 11
19.2876704232
 21
104.1967840851
 31
0.0
  0
LINE
  5
306
330
1F
100
AcDbEntity
  8
0
  6
PHANTOM
 62
     8
370
    18
100
AcDbLine
 10
63.6078570232
 20
106.1979259525
 30
0.0
 11
37.3296294556
 21
106.1979259525
 31
0.0
  0
ELLIPSE
  5
307
330
1F
100
AcDbEntity
  8
0
  6
Continuous
 62
     7
370
    25
100
AcDbEllipse
 10
174.554536275
 20
44.293755465
 30
0.0
 11
1.061952816898781
 21
1.061952816898788
 31
0.0
210
0.0
220
0.0
230
1.0
 40
0.998782766
 41
2.895440433927362
 42
3.926381829401666
  0
LINE
  5
308
330
1F
100
AcDbEntity
  8
0
  6
Continuous
 62
     7
370
    25
100
AcDbLine
 10
173.1570257304
 20
43.5222681519
 30
0.0
 11
173.2661394832
 21
43.5222681519
 31
0.0
  0
ELLIPSE
  5
309
330
1F
100
AcDbEntity
  8
0
  6
Continuous
 62
     7
370
    25
100
AcDbEllipse
 10
174.4846947361
 20
44.223913926
 30
0.0
 11
1.061952816898809
 21
1.061952816898789
 31
0.0
210
0.0
220
0.0
230
1.0
 40
0.998782766
 41
2.356803477777953
 42
2.842022210467481
  0
ELLIPSE
  5
30A
330
1F
100
AcDbEntity
  8
0
  6
Continuous
 62
     7
370
    25
100
AcDbEllipse
 10
236.9828661032
 20
44.223913926
 30
0.0
 11
-1.061952816898809
 21
1.061952816898789
 31
0.0
210
0.0
220
0.0
230
1.0
 40
0.998782766
 41
3.441163096712108
 42
3.926381829401643
  0
LINE
  5
30B
330
1F
100
AcDbEntity
  8
0
  6
Continuous
 62
     7
370
    25
100
AcDbLine
 10
238.201421356
 20
43.5222681519
 30
0.0
 11
238.3105351088
 21
43.5222681519
 31
0.0
  0
ELLIPSE
  5
30C
330
1F
100
AcDbEntity
  8
0
  6
Continuous
 62
     7
370
    25
100
AcDbEllipse
 10
236.9130245642
 20
44.293755465
 30
0.0
 11
-1.061952816898781
 21
1.061952816898788
 31
0.0
210
0.0
220
0.0
230
1.0
 40
0.998782766
 41
2.356803477777934
 42
3.387744873252238
  0
LINE
  5
30D
330
1F
100
AcDbEntity
  8
0
  6
Continuous
 62
     7
370
    25
100
AcDbLine
 10
219.8036216629
 20
43.2925365423
 30
0.0
 11
219.8036216629
 21
43.5222681519
 31
0.0
  0
LINE
  5
30E
330
1F
100
AcDbEntity
  8
0
  6
Continuous
 62
     7
370
    25
100
AcDbLine
 10
219.8036216629
 20
43.5222681519
 30
0.0
 11
219.7337808517
 21
43.5222681519
 31
0.0
  0
LINE
  5
30F
330
1F
100
AcDbEntity
  8
0
  6
Continuous
 62
     7
370
    25
100
AcDbLine
 10
219.7337808517
 20
43.5222681519
 30
0.0
 11
219.7337808517
 21
55.4237314756
 31
0.0
  0
LINE
  5
310
330
1F
100
AcDbEntity
  8
0
  6
Continuous
 62
     7
370
    25
100
AcDbLine
 10
219.7337808517
 20
55.4237314756
 30
0.0
 11
219.7931461466
 21
55.4237314756
 31
0.0
  0
ELLIPSE
  5
311
330
1F
100
AcDbEntity
  8
0
  6
Continuous
 62
     7
370
    25
100
AcDbEllipse
 10
219.7931457277
 20
57.9237310627
 30
0.0
 11
0.0
 21
2.500000000000007
 31
0.0
210
0.0
220
0.0
230
1.0
 40
0.0349207695
 41
3.14159265358979
 42
4.71238898038469
  0
LINE
  5
312
330
1F
100
AcDbEntity
  8
0
  6
Continuous
 62
     7
370
    25
100
AcDbLine
 10
219.8804473934
 20
61.9237306784
 30
0.0
 11
219.8804473934
 21
57.9237309541
 31
0.0
  0
LINE
  5
313
330
1F
100
AcDbEntity
  8
0
  6
Continuous
 62
     7
370
    25
100
AcDbLine
 10
191.5871134458
 20
57.9237309541
 30
0.0
 11
191.5871134458
 21
61.9237306784
 31
0.0
  0
ELLIPSE
  5
314
330
1F
100
AcDbEntity
  8
0
  6
Continuous
 62
     7
370
    25
100
AcDbEllipse
 10
191.6744151115
 20
57.9237310627
 30
0.0
 11
0.0
 21
2.500000000000007
 31
0.0
210
0.0
220
0.0
230
1.0
 40
0.0349207695
 41
1.570796326794897
 42
3.14159265358979
  0
LINE
  5
315
330
1F
100
AcDbEntity
  8
0
  6
Continuous
 62
     7
370
    25
100
AcDbLine
 10
191.6744146926
 20
55.4237314756
 30
0.0
 11
191.7337799875
 21
55.4237314756
 31
0.0
  0
LINE
  5
316
330
1F
100
AcDbEntity
  8
0
  6
Continuous
 62
     7
370
    25
100
AcDbLine
 10
191.7337799875
 20
55.4237314756
 30
0.0
 11
191.7337799875
 21
43.5222681519
 31
0.0
  0
LINE
  5
317
330
1F
100
AcDbEntity
  8
0
  6
Continuous
 62
     7
370
    25
100
AcDbLine
 10
191.7337799875
 20
43.5222681519
 30
0.0
 11
191.6639391763
 21
43.5222681519
 31
0.0
  0
LINE
  5
318
330
1F
100
AcDbEntity
  8
0
  6
Continuous
 62
     7
370
    25
100
AcDbLine
 10
191.6639391763
 20
43.5222681519
 30
0.0
 11
191.6639391763
 21
43.2925365423
 31
0.0
  0
LINE
  5
319
330
1F
100
AcDbEntity
  8
0
  6
Continuous
 62
     7
370
    25
100
AcDbLine
 10
192.7343901677
 20
43.5222681519
 30
0.0
 11
191.7337799875
 21
43.5222681519
 31
0.0
  0
LINE
  5
31A
330
1F
100
AcDbEntity
  8
0
  6
Continuous
 62
     7
370
    25
100
AcDbLine
 10
191.7337799875
 20
55.4237314756
 30
0.0
 11
192.7343901677
 21
55.4237314756
 31
0.0
  0
LINE
  5
31B
330
1F
100
AcDbEntity
  8
0
  6
Continuous
 62
     7
370
    25
100
AcDbLine
 10
192.7343901677
 20
55.4237314756
 30
0.0
 11
192.7343901677
 21
43.5222681519
 31
0.0
  0
LINE
  5
31C
330
1F
100
AcDbEntity
  8
0
  6
Continuous
 62
     7
370
    25
100
AcDbLine
 10
171.7830492613
 20
44.220623353
 30
0.0
 11
171.7830492613
 21
67.7253767173
 31
0.0
  0
ELLIPSE
  5
31D
330
1F
100
AcDbEntity
  8
0
  6
Continuous
 62
     7
370
    25
100
AcDbEllipse
 10
174.4846947361
 20
67.7220852931
 30
0.0
 11
1.911515070417806
 21
-1.911515070417806
 31
0.0
210
0.0
220
0.0
230
1.0
 40
0.998782766
 41
2.356803477777956
 42
3.926381829401638
  0
LINE
  5
31E
330
1F
100
AcDbEntity
  8
0
  6
Continuous
 62
     7
370
    25
100
AcDbLine
 10
174.4814036844
 20
70.4237311403
 30
0.0
 11
236.9861571548
 21
70.4237311403
 31
0.0
  0
ELLIPSE
  5
31F
330
1F
100
AcDbEntity
  8
0
  6
Continuous
 62
     7
370
    25
100
AcDbEllipse
 10
236.9828661032
 20
67.7220852931
 30
0.0
 11
-1.911515070417835
 21
-1.911515070417806
 31
0.0
210
0.0
220
0.0
230
1.0
 40
0.998782766
 41
2.356803477777961
 42
3.926381829401659
  0
LINE
  5
320
330
1F
100
AcDbEntity
  8
0
  6
Continuous
 62
     7
370
    25
100
AcDbLine
 10
239.6845115779
 20
67.7253767173
 30
0.0
 11
239.6845115779
 21
44.220623353
 31
0.0
  0
LINE
  5
321
330
1F
100
AcDbEntity
  8
0
  6
Continuous
 62
     7
370
    25
100
AcDbLine
 10
238.4837797341
 20
67.7239126782
 30
0.0
 11
238.4837797341
 21
44.2220858787
 31
0.0
  0
ELLIPSE
  5
322
330
1F
100
AcDbEntity
  8
0
  6
Continuous
 62
     7
370
    25
100
AcDbEllipse
 10
236.9828661032
 20
67.7220852931
 30
0.0
 11
-1.06195281689881
 21
-1.061952816898781
 31
0.0
210
0.0
220
0.0
230
1.0
 40
0.998782766
 41
2.35680347777797
 42
3.926381829401675
  0
LINE
  5
323
330
1F
100
AcDbEntity
  8
0
  6
Continuous
 62
     7
370
    25
100
AcDbLine
 10
174.4828677235
 20
69.2229992966
 30
0.0
 11
236.9846931157
 21
69.2229992966
 31
0.0
  0
ELLIPSE
  5
324
330
1F
100
AcDbEntity
  8
0
  6
Continuous
 62
     7
370
    25
100
AcDbEllipse
 10
174.4846947361
 20
67.7220852931
 30
0.0
 11
1.06195281689881
 21
-1.061952816898781
 31
0.0
210
0.0
220
0.0
230
1.0
 40
0.998782766
 41
2.356803477777893
 42
3.926381829401623
  0
LINE
  5
325
330
1F
100
AcDbEntity
  8
0
  6
Continuous
 62
     7
370
    25
100
AcDbLine
 10
172.9837811051
 20
44.2220858787
 30
0.0
 11
172.9837811051
 21
67.7239126782
 31
0.0
  0
LINE
  5
326
330
1F
100
AcDbEntity
  8
0
  6
Continuous
 62
     7
370
    25
100
AcDbLine
 10
173.1570257304
 20
43.5222681519
 30
0.0
 11
171.8749000189
 21
43.5222681519
 31
0.0
  0
LINE
  5
327
330
1F
100
AcDbEntity
  8
0
  6
Continuous
 62
     7
370
    25
100
AcDbLine
 10
239.5926608203
 20
43.5222681519
 30
0.0
 11
238.3105351088
 21
43.5222681519
 31
0.0
  0
ELLIPSE
  5
328
330
1F
100
AcDbEntity
  8
0
  6
Continuous
 62
     7
370
    25
100
AcDbEllipse
 10
236.9828661032
 20
44.223913926
 30
0.0
 11
-1.911515070417835
 21
1.911515070417821
 31
0.0
210
0.0
220
0.0
230
1.0
 40
0.998782766
 41
3.664877402029284
 42
3.926381829401639
  0
ELLIPSE
  5
329
330
1F
100
AcDbEntity
  8
0
  6
Continuous
 62
     7
370
    25
100
AcDbEllipse
 10
174.4846947361
 20
44.223913926
 30
0.0
 11
1.911515070417806
 21
1.91151507041782
 31
0.0
210
0.0
220
0.0
230
1.0
 40
0.998782766
 41
2.356803477777955
 42
2.61830790515031
  0
LINE
  5
32A
330
1F
100
AcDbEntity
  8
0
  6
Continuous
 62
     7
370
    25
100
AcDbLine
 10
218.7331706715
 20
55.4237314756
 30
0.0
 11
219.7337808517
 21
55.4237314756
 31
0.0
  0
LINE
  5
32B
330
1F
100
AcDbEntity
  8
0
  6
Continuous
 62
     7
370
    25
100
AcDbLine
 10
219.7337808517
 20
43.5222681519
 30
0.0
 11
218.7331706715
 21
43.5222681519
 31
0.0
  0
LINE
  5
32C
330
1F
100
AcDbEntity
  8
0
  6
Continuous
 62
     7
370
    25
100
AcDbLine
 10
218.7331706715
 20
43.5222681519
 30
0.0
 11
218.7331706715
 21
55.4237314756
 31
0.0
  0
ELLIPSE
  5
32D
330
1F
100
AcDbEntity
  8
0
  6
Continuous
 62
     7
370
    25
100
AcDbEllipse
 10
192.6750246558
 20
57.9237310627
 30
0.0
 11
0.0
 21
2.500000000000007
 31
0.0
210
0.0
220
0.0
230
1.0
 40
0.0349207695
 41
1.570796326794897
 42
3.14159265358979
  0
ELLIPSE
  5
32E
330
1F
100
AcDbEntity
  8
0
  6
Continuous
 62
     7
370
    25
100
AcDbEllipse
 10
218.7925361834
 20
57.9237310627
 30
0.0
 11
0.0
 21
2.500000000000007
 31
0.0
210
0.0
220
0.0
230
1.0
 40
0.0349207695
 41
3.14159265358979
 42
4.71238898038469
  0
ELLIPSE
  5
32F
330
1F
100
AcDbEntity
  8
0
  6
Continuous
 62
     7
370
    25
100
AcDbEllipse
 10
220.3039267307
 20
43.2931459207
 30
0.0
 11
0.3539842722995843
 21
0.3539842722995914
 31
0.0
210
0.0
220
0.0
230
1.0
 40
0.998782766
 41
2.356803477777962
 42
3.926381829401604
  0
LINE
  5
330
330
1F
100
AcDbEntity
  8
0
  6
Continuous
 62
     7
370
    25
100
AcDbLine
 10
220.3033172024
 20
42.7928411483
 30
0.0
 11
236.9148532359
 21
42.7928411483
 31
0.0
  0
LINE
  5
331
330
1F
100
AcDbEntity
  8
0
  6
Continuous
 62
     7
370
    25
100
AcDbLine
 10
219.1028293652
 20
41.5921097412
 30
0.0
 11
236.9163154123
 21
41.5921097412
 31
0.0
  0
ELLIPSE
  5
332
330
1F
100
AcDbEntity
  8
0
  6
Continuous
 62
     7
370
    25
100
AcDbEllipse
 10
219.1031952776
 20
41.8922925587
 30
0.0
 11
-0.2123905633797847
 21
-0.2123905633797634
 31
0.0
210
0.0
220
0.0
230
1.0
 40
0.998782766
 41
5.498396131367762
 42
7.067974482991453
  0
LINE
  5
333
330
1F
100
AcDbEntity
  8
0
  6
Continuous
 62
     7
370
    25
100
AcDbLine
 10
218.8030124141
 20
41.8919269252
 30
0.0
 11
218.8030124141
 21
43.5222681519
 31
0.0
  0
ELLIPSE
  5
334
330
1F
100
AcDbEntity
  8
0
  6
Continuous
 62
     7
370
    25
100
AcDbEllipse
 10
236.9130245642
 20
44.293755465
 30
0.0
 11
-1.911515070417806
 21
1.911515070417813
 31
0.0
210
0.0
220
0.0
230
1.0
 40
0.998782766
 41
2.356803477777954
 42
3.638007032703327
  0
LINE
  5
335
330
1F
100
AcDbEntity
  8
0
  6
Continuous
 62
     7
370
    25
100
AcDbLine
 10
174.5527076033
 20
42.7928411483
 30
0.0
 11
191.1642436368
 21
42.7928411483
 31
0.0
  0
ELLIPSE
  5
336
330
1F
100
AcDbEntity
  8
0
  6
Continuous
 62
     7
370
    25
100
AcDbEllipse
 10
191.1636341085
 20
43.2931459207
 30
0.0
 11
-0.3539842722996127
 21
0.3539842722995914
 31
0.0
210
0.0
220
0.0
230
1.0
 40
0.998782766
 41
2.356803477777889
 42
3.926381829401608
  0
LINE
  5
337
330
1F
100
AcDbEntity
  8
0
  6
Continuous
 62
     7
370
    25
100
AcDbLine
 10
174.5512454269
 20
41.5921097412
 30
0.0
 11
192.364731474
 21
41.5921097412
 31
0.0
  0
ELLIPSE
  5
338
330
1F
100
AcDbEntity
  8
0
  6
Continuous
 62
     7
370
    25
100
AcDbEllipse
 10
192.3643655616
 20
41.8922925587
 30
0.0
 11
0.2123905633797563
 21
-0.2123905633797633
 31
0.0
210
0.0
220
0.0
230
1.0
 40
0.998782766
 41
5.498396131367841
 42
7.06797448299145
  0
LINE
  5
339
330
1F
100
AcDbEntity
  8
0
  6
Continuous
 62
     7
370
    25
100
AcDbLine
 10
192.6645484252
 20
43.5222681519
 30
0.0
 11
192.6645484252
 21
41.8919269252
 31
0.0
  0
ELLIPSE
  5
33A
330
1F
100
AcDbEntity
  8
0
  6
Continuous
 62
     7
370
    25
100
AcDbEllipse
 10
174.554536275
 20
44.293755465
 30
0.0
 11
1.911515070417835
 21
1.911515070417813
 31
0.0
210
0.0
220
0.0
230
1.0
 40
0.998782766
 41
2.645178274476281
 42
3.926381829401668
  0
LINE
  5
33B
330
1F
100
AcDbEntity
  8
0
  6
Continuous
 62
     7
370
    25
100
AcDbLine
 10
191.5871134458
 20
66.923731498
 30
0.0
 11
176.3837809173
 21
66.923731498
 31
0.0
  0
LINE
  5
33C
330
1F
100
AcDbEntity
  8
0
  6
Continuous
 62
     7
370
    25
100
AcDbLine
 10
191.5871134458
 20
61.9237306784
 30
0.0
 11
191.5871134458
 21
66.923731498
 31
0.0
  0
LINE
  5
33D
330
1F
100
AcDbEntity
  8
0
  6
Continuous
 62
     7
370
    25
100
AcDbLine
 10
188.5337798355
 20
61.9237306784
 30
0.0
 11
191.5871134458
 21
61.9237306784
 31
0.0
  0
LINE
  5
33E
330
1F
100
AcDbEntity
  8
0
  6
Continuous
 62
     7
370
    25
100
AcDbLine
 10
188.5337798355
 20
45.8237310196
 30
0.0
 11
188.5337798355
 21
61.9237306784
 31
0.0
  0
LINE
  5
33F
330
1F
100
AcDbEntity
  8
0
  6
Continuous
 62
     7
370
    25
100
AcDbLine
 10
174.9837795702
 20
65.5237301509
 30
0.0
 11
174.9837795702
 21
45.8237310196
 31
0.0
  0
ARC
  5
340
330
1F
100
AcDbEntity
  8
0
  6
Continuous
 62
     7
370
    25
100
AcDbCircle
 10
176.3837804196
 20
65.5237310627
 30
0.0
 40
1.40000000000002
100
AcDbArc
 50
90.0
 51
180.0
  0
ARC
  5
341
330
1F
100
AcDbEntity
  8
0
  6
Continuous
 62
     7
370
    25
100
AcDbCircle
 10
187.1337804196
 20
45.8237310627
 30
0.0
 40
1.400000000000034
100
AcDbArc
 50
270.0
 51
0.0
  0
ARC
  5
342
330
1F
100
AcDbEntity
  8
0
  6
Continuous
 62
     7
370
    25
100
AcDbCircle
 10
176.3837804196
 20
45.8237310627
 30
0.0
 40
1.399999999999999
100
AcDbArc
 50
180.0
 51
270.0
  0
LINE
  5
343
330
1F
100
AcDbEntity
  8
0
  6
Continuous
 62
     7
370
    25
100
AcDbLine
 10
176.3837809173
 20
44.4237310695
 30
0.0
 11
187.1337803511
 21
44.4237310695
 31
0.0
  0
LINE
  5
344
330
1F
100
AcDbEntity
  8
0
  6
Continuous
 62
     7
370
    25
100
AcDbLine
 10
219.8804473934
 20
61.9237306784
 30
0.0
 11
222.9337810037
 21
61.9237306784
 31
0.0
  0
LINE
  5
345
330
1F
100
AcDbEntity
  8
0
  6
Continuous
 62
     7
370
    25
100
AcDbLine
 10
219.8804473934
 20
66.923731498
 30
0.0
 11
219.8804473934
 21
61.9237306784
 31
0.0
  0
LINE
  5
346
330
1F
100
AcDbEntity
  8
0
  6
Continuous
 62
     7
370
    25
100
AcDbLine
 10
235.0837799219
 20
66.923731498
 30
0.0
 11
219.8804473934
 21
66.923731498
 31
0.0
  0
ARC
  5
347
330
1F
100
AcDbEntity
  8
0
  6
Continuous
 62
     7
370
    25
100
AcDbCircle
 10
235.0837804196
 20
65.5237310627
 30
0.0
 40
1.40000000000002
100
AcDbArc
 50
0.0
 51
90.0
  0
LINE
  5
348
330
1F
100
AcDbEntity
  8
0
  6
Continuous
 62
     7
370
    25
100
AcDbLine
 10
236.483781269
 20
45.8237310196
 30
0.0
 11
236.483781269
 21
65.5237301509
 31
0.0
  0
ARC
  5
349
330
1F
100
AcDbEntity
  8
0
  6
Continuous
 62
     7
370
    25
100
AcDbCircle
 10
235.0837804196
 20
45.8237310627
 30
0.0
 40
1.400000000000006
100
AcDbArc
 50
270.0
 51
0.0
  0
ARC
  5
34A
330
1F
100
AcDbEntity
  8
0
  6
Continuous
 62
     7
370
    25
100
AcDbCircle
 10
224.3337804196
 20
45.8237310627
 30
0.0
 40
1.400000000000006
100
AcDbArc
 50
180.0
 51
270.0
  0
LINE
  5
34B
330
1F
100
AcDbEntity
  8
0
  6
Continuous
 62
     7
370
    25
100
AcDbLine
 10
222.9337810037
 20
61.9237306784
 30
0.0
 11
222.9337810037
 21
45.8237310196
 31
0.0
  0
LINE
  5
34C
330
1F
100
AcDbEntity
  8
0
  6
Continuous
 62
     7
370
    25
100
AcDbLine
 10
224.3337804881
 20
44.4237310695
 30
0.0
 11
235.0837799219
 21
44.4237310695
 31
0.0
  0
SPLINE
  5
34D
330
1F
100
AcDbEntity
  8
0
  6
Continuous
 62
     7
370
    25
100
AcDbSpline
210
0.0
220
0.0
230
1.0
 70
     8
 71
     3
 72
    12
 73
     8
 74
     0
 42
0.000000001
 43
0.00000001
 40
0.0
 40
0.0
 40
0.0
 40
0.0
 40
0.2499999999999985
 40
0.2499999999999985
 40
0.499999999999997
 40
0.499999999999997
 40
1.0
 40
1.0
 40
1.0
 40
1.0
 10
191.5546335621054
 20
61.92373106269653
 30
0.0
 10
191.5501667403632
 20
61.92373106269652
 30
0.0
 10
191.5353565601713
 20
61.91309838023097
 30
0.0
 10
191.4943084963612
 20
61.87910793299525
 30
0.0
 10
191.4683781481913
 20
61.85606362889476
 30
0.0
 10
191.3839773526
 20
61.77850204156521
 30
0.0
 10
191.3190058347291
 20
61.71575699771662
 30
0.0
 10
191.2550379579105
 20
61.65212669813947
 30
0.0
  0
SPLINE
  5
34E
330
1F
100
AcDbEntity
  8
0
  6
Continuous
 62
     7
370
    25
100
AcDbSpline
210
0.0
220
0.0
230
1.0
 70
     8
 71
     3
 72
    12
 73
     8
 74
     0
 42
0.000000001
 43
0.00000001
 40
0.0
 40
0.0
 40
0.0
 40
0.0
 40
0.25
 40
0.25
 40
0.5
 40
0.5
 40
1.0
 40
1.0
 40
1.0
 40
1.0
 10
219.912927277099
 20
61.92373106269653
 30
0.0
 10
219.9173940988412
 20
61.92373106269653
 30
0.0
 10
219.9322042790331
 20
61.91309838023096
 30
0.0
 10
219.9732523428432
 20
61.87910793299524
 30
0.0
 10
219.999182691013
 20
61.85606362889474
 30
0.0
 10
220.0835834866044
 20
61.7785020415652
 30
0.0
 10
220.148555004472
 20
61.71575699771334
 30
0.0
 10
220.2125228812939
 20
61.65212669813947
 30
0.0
  0
ARC
  5
34F
330
1F
100
AcDbEntity
  8
0
  6
Continuous
 62
     7
370
    25
100
AcDbCircle
 10
213.8798381072
 20
57.8696668414
 30
0.0
 40
5.000000000000028
100
AcDbArc
 50
0.0
 51
90.0
  0
LINE
  5
350
330
1F
100
AcDbEntity
  8
0
  6
Continuous
 62
     7
370
    25
100
AcDbLine
 10
197.5877225829
 20
62.8696675668
 30
0.0
 11
213.8798382563
 21
62.8696675668
 31
0.0
  0
ARC
  5
351
330
1F
100
AcDbEntity
  8
0
  6
Continuous
 62
     7
370
    25
100
AcDbCircle
 10
197.587722732
 20
57.8696668414
 30
0.0
 40
5.0
100
AcDbArc
 50
90.0
 51
180.0
  0
LINE
  5
352
330
1F
100
AcDbEntity
  8
0
  6
Continuous
 62
     7
370
    25
100
AcDbLine
 10
191.5871134458
 20
65.2235294948
 30
0.0
 11
219.8804473934
 21
65.2235294948
 31
0.0
  0
SPLINE
  5
353
330
1F
100
AcDbEntity
  8
0
  6
Continuous
 62
     7
370
    25
100
AcDbSpline
210
0.0
220
0.0
230
1.0
 70
     8
 71
     3
 72
     8
 73
     4
 74
     0
 42
0.000000001
 43
0.00000001
 40
0.0
 40
0.0
 40
0.0
 40
0.0
 40
1.0
 40
1.0
 40
1.0
 40
1.0
 10
191.6412120488334
 20
65.97090895954507
 30
0.0
 10
191.6033197144251
 20
65.92433078237566
 30
0.0
 10
191.5871131877368
 20
65.86946740054829
 30
0.0
 10
191.5871131877368
 20
65.81130640899592
 30
0.0
  0
SPLINE
  5
354
330
1F
100
AcDbEntity
  8
0
  6
Continuous
 62
     7
370
    25
100
AcDbSpline
210
0.0
220
0.0
230
1.0
 70
     8
 71
     3
 72
     8
 73
     4
 74
     0
 42
0.000000001
 43
0.00000001
 40
0.0
 40
0.0
 40
0.0
 40
0.0
 40
1.0
 40
1.0
 40
1.0
 40
1.0
 10
219.8804476514675
 20
65.81130640899592
 30
0.0
 10
219.8804476514675
 20
65.86937243982776
 30
0.0
 10
219.8641500221779
 20
65.92444276790319
 30
0.0
 10
219.82634879037
 20
65.97090895954483
 30
0.0
  0
SPLINE
  5
355
330
1F
100
AcDbEntity
  8
0
  6
Continuous
 62
     7
370
    25
100
AcDbSpline
210
0.0
220
0.0
230
1.0
 70
     8
 71
     3
 72
    12
 73
     8
 74
     0
 42
0.000000001
 43
0.00000001
 40
0.0
 40
0.0
 40
0.0
 40
0.0
 40
0.2499999999999969
 40
0.2499999999999969
 40
0.4999999999999938
 40
0.4999999999999938
 40
1.0
 40
1.0
 40
1.0
 40
1.0
 10
219.8804476514675
 20
66.92896536286858
 30
0.0
 10
219.8804476514675
 20
66.93797708372176
 30
0.0
 10
219.8683728269709
 20
66.9584969714182
 30
0.0
 10
219.8292516196599
 20
67.01157569031639
 30
0.0
 10
219.8029693075268
 20
67.04332911852896
 30
0.0
 10
219.7157934735206
 20
67.14290516832337
 30
0.0
 10
219.6477031154683
 20
67.21405128364675
 30
0.0
 10
219.5804476514675
 20
67.28026740165707
 30
0.0
  0
LINE
  5
356
330
1F
100
AcDbEntity
  8
0
  6
Continuous
 62
     7
370
    25
100
AcDbLine
 10
219.8804473934
 20
66.923731498
 30
0.0
 11
219.8804473934
 21
66.9289655308
 31
0.0
  0
SPLINE
  5
357
330
1F
100
AcDbEntity
  8
0
  6
Continuous
 62
     7
370
    25
100
AcDbSpline
210
0.0
220
0.0
230
1.0
 70
     8
 71
     3
 72
    12
 73
     8
 74
     0
 42
0.000000001
 43
0.00000001
 40
0.0
 40
0.0
 40
0.0
 40
0.0
 40
0.2500000000000032
 40
0.2500000000000032
 40
0.5000000000000063
 40
0.5000000000000063
 40
1.0
 40
1.0
 40
1.0
 40
1.0
 10
191.5871131877369
 20
66.92896536286858
 30
0.0
 10
191.5871131877369
 20
66.93797708372175
 30
0.0
 10
191.5991880122335
 20
66.9584969714182
 30
0.0
 10
191.6383092195445
 20
67.0115756903164
 30
0.0
 10
191.6645915316776
 20
67.04332911852897
 30
0.0
 10
191.7517673656837
 20
67.1429051683234
 30
0.0
 10
191.8198577237337
 20
67.21405128364911
 30
0.0
 10
191.8871131877368
 20
67.28026740165713
 30
0.0
  0
LINE
  5
358
330
1F
100
AcDbEntity
  8
0
  6
Continuous
 62
     7
370
    25
100
AcDbLine
 10
191.5871134458
 20
66.9289655308
 30
0.0
 11
191.5871134458
 21
66.923731498
 31
0.0
  0
SPLINE
  5
359
330
1F
100
AcDbEntity
  8
0
  6
Continuous
 62
     7
370
    25
100
AcDbSpline
210
0.0
220
0.0
230
1.0
 70
     8
 71
     3
 72
     8
 73
     4
 74
     0
 42
0.000000001
 43
0.00000001
 40
0.0
 40
0.0
 40
0.0
 40
0.0
 40
1.0
 40
1.0
 40
1.0
 40
1.0
 10
191.6412120488334
 20
65.97090895954507
 30
0.0
 10
191.7050895901004
 20
66.04942878369252
 30
0.0
 10
191.7981779615072
 20
66.14769542865284
 30
0.0
 10
191.8871131877368
 20
66.23553995607053
 30
0.0
  0
SPLINE
  5
35A
330
1F
100
AcDbEntity
  8
0
  6
Continuous
 62
     7
370
    25
100
AcDbSpline
210
0.0
220
0.0
230
1.0
 70
     8
 71
     3
 72
     8
 73
     4
 74
     0
 42
0.000000001
 43
0.00000001
 40
0.0
 40
0.0
 40
0.0
 40
0.0
 40
1.0
 40
1.0
 40
1.0
 40
1.0
 10
219.8263487903709
 20
65.97090895954507
 30
0.0
 10
219.762471249104
 20
66.04942878369252
 30
0.0
 10
219.6693828776905
 20
66.1476954286462
 30
0.0
 10
219.5804476514675
 20
66.23553995607047
 30
0.0
  0
SPLINE
  5
35B
330
1F
100
AcDbEntity
  8
0
  6
Continuous
 62
     7
370
    25
100
AcDbSpline
210
0.0
220
0.0
230
1.0
 70
     8
 71
     3
 72
    12
 73
     8
 74
     0
 42
0.000000001
 43
0.00000001
 40
0.0
 40
0.0
 40
0.0
 40
0.0
 40
0.25
 40
0.25
 40
0.5
 40
0.5
 40
1.0
 40
1.0
 40
1.0
 40
1.0
 10
188.5351992298912
 20
61.92373106269653
 30
0.0
 10
188.5396452031354
 20
61.92373106269653
 30
0.0
 10
188.5543781574206
 20
61.91312109869747
 30
0.0
 10
188.5952475324728
 20
61.87916620992181
 30
0.0
 10
188.6210826083893
 20
61.85612979156917
 30
0.0
 10
188.7051928060263
 20
61.77857539295452
 30
0.0
 10
188.7699892962609
 20
61.71579077988982
 30
0.0
 10
188.8337804196022
 20
61.65212669813952
 30
0.0
  0
SPLINE
  5
35C
330
1F
100
AcDbEntity
  8
0
  6
Continuous
 62
     7
370
    25
100
AcDbSpline
210
0.0
220
0.0
230
1.0
 70
     8
 71
     3
 72
    12
 73
     8
 74
     0
 42
0.000000001
 43
0.00000001
 40
0.0
 40
0.0
 40
0.0
 40
0.0
 40
0.250000000000003
 40
0.250000000000003
 40
0.500000000000006
 40
0.500000000000006
 40
1.0
 40
1.0
 40
1.0
 40
1.0
 10
222.9323616093132
 20
61.92373106269653
 30
0.0
 10
222.927915636069
 20
61.92373106269653
 30
0.0
 10
222.9131826817838
 20
61.91312109869745
 30
0.0
 10
222.8723133067316
 20
61.87916620992179
 30
0.0
 10
222.8464782308151
 20
61.85612979156916
 30
0.0
 10
222.7623680331781
 20
61.77857539295451
 30
0.0
 10
222.6975715429428
 20
61.7157907798904
 30
0.0
 10
222.6337804196022
 20
61.65212669813947
 30
0.0
  0
LINE
  5
35D
330
1F
100
AcDbEntity
  8
0
  6
PHANTOM
 62
     8
370
    18
100
AcDbLine
 10
173.1323158798
 20
44.3706211192
 30
0.0
 11
172.9837811051
 21
44.2220858787
 31
0.0
  0
SPLINE
  5
35E
330
1F
100
AcDbEntity
  8
0
  6
PHANTOM
 62
     8
370
    18
100
AcDbSpline
210
0.0
220
0.0
230
1.0
 70
     8
 71
     3
 72
    18
 73
    14
 74
     0
 42
0.000000001
 43
0.00000001
 40
0.0
 40
0.0
 40
0.0
 40
0.0
 40
0.125
 40
0.125
 40
0.25
 40
0.25
 40
0.375
 40
0.375
 40
0.5
 40
0.5
 40
0.75
 40
0.75
 40
1.0
 40
1.0
 40
1.0
 40
1.0
 10
174.6225896134588
 20
42.8627225628659
 30
0.0
 10
174.5228475571284
 20
42.86274683587839
 30
0.0
 10
174.4248173414184
 20
42.87267779121161
 30
0.0
 10
174.2320470234346
 20
42.91158405299006
 30
0.0
 10
174.1362829320087
 20
42.94106971140526
 30
0.0
 10
173.9545868905333
 20
43.01764404580646
 30
0.0
 10
173.8684929084166
 20
43.06448031884755
 30
0.0
 10
173.7057442591717
 20
43.17514191854172
 30
0.0
 10
173.6293463471886
 20
43.23912471710293
 30
0.0
 10
173.4242012505627
 20
43.44847425388055
 30
0.0
 10
173.3146747681241
 20
43.61650853849619
 30
0.0
 10
173.1690739379648
 20
43.97754060762572
 30
0.0
 10
173.1312705512123
 20
44.17349049092249
 30
0.0
 10
173.1323157116388
 20
44.37062114210319
 30
0.0
  0
LINE
  5
35F
330
1F
100
AcDbEntity
  8
0
  6
PHANTOM
 62
     8
370
    18
100
AcDbLine
 10
174.5527076033
 20
42.7928411483
 30
0.0
 11
174.6225903241
 21
42.8627225594
 31
0.0
  0
LINE
  5
360
330
1F
100
AcDbEntity
  8
0
  6
PHANTOM
 62
     8
370
    18
100
AcDbLine
 10
236.8449705151
 20
42.8627225594
 30
0.0
 11
236.9148532359
 21
42.7928411483
 31
0.0
  0
SPLINE
  5
361
330
1F
100
AcDbEntity
  8
0
  6
PHANTOM
 62
     8
370
    18
100
AcDbSpline
210
0.0
220
0.0
230
1.0
 70
     8
 71
     3
 72
    18
 73
    14
 74
     0
 42
0.000000001
 43
0.00000001
 40
0.0
 40
0.0
 40
0.0
 40
0.0
 40
0.2500000000000024
 40
0.2500000000000024
 40
0.3750000000000021
 40
0.3750000000000021
 40
0.5000000000000017
 40
0.5000000000000017
 40
0.6250000000000012
 40
0.6250000000000012
 40
0.7500000000000008
 40
0.7500000000000008
 40
1.0
 40
1.0
 40
1.0
 40
1.0
 10
238.3352451275655
 20
44.37062114210319
 30
0.0
 10
238.336290797633
 20
44.17339436609194
 30
0.0
 10
238.2993141033065
 20
43.98003876145014
 30
0.0
 10
238.1895898703741
 20
43.70729801331854
 30
0.0
 10
238.1446475420097
 20
43.62098578158452
 30
0.0
 10
238.038159528889
 20
43.45747892591561
 30
0.0
 10
237.9758149371861
 20
43.3796464402718
 30
0.0
 10
237.8388779393301
 20
43.23970170115138
 30
0.0
 10
237.7640576488164
 20
43.1768930977499
 30
0.0
 10
237.6014528380732
 20
43.06588096405522
 30
0.0
 10
237.5137109895906
 20
43.0180481486067
 30
0.0
 10
237.2425349310567
 20
42.90348457092177
 30
0.0
 10
237.0445664723485
 20
42.86277113593619
 30
0.0
 10
236.8449712257456
 20
42.8627225628659
 30
0.0
  0
LINE
  5
362
330
1F
100
AcDbEntity
  8
0
  6
PHANTOM
 62
     8
370
    18
100
AcDbLine
 10
238.4837797341
 20
44.2220858787
 30
0.0
 11
238.3352449594
 21
44.3706211192
 31
0.0
  0
ELLIPSE
  5
363
330
1F
100
AcDbEntity
  8
0
  6
PHANTOM
 62
     8
370
    18
100
AcDbEllipse
 10
217.8372954567
 20
55.9729996095
 30
0.0
 11
2.842170943040401E-14
 21
59.7
 31
0.0
210
0.0
220
0.0
230
1.0
 40
0.0349207695
 41
4.4995794786362
 42
4.812232024613152
  0
LINE
  5
364
330
1F
100
AcDbEntity
  8
0
  6
PHANTOM
 62
     8
370
    18
100
AcDbLine
 10
219.8036216629
 20
43.2925365423
 30
0.0
 11
219.875035478
 21
43.3639504737
 31
0.0
  0
LINE
  5
365
330
1F
100
AcDbEntity
  8
0
  6
PHANTOM
 62
     8
370
    18
100
AcDbLine
 10
191.5925253613
 20
43.3639504737
 30
0.0
 11
191.6639391763
 21
43.2925365423
 31
0.0
  0
ELLIPSE
  5
366
330
1F
100
AcDbEntity
  8
0
  6
PHANTOM
 62
     8
370
    18
100
AcDbEllipse
 10
193.6302653825
 20
55.9729996095
 30
0.0
 11
-2.842170943040401E-14
 21
59.7
 31
0.0
210
0.0
220
0.0
230
1.0
 40
0.0349207695
 41
1.470953282566267
 42
1.783605828543407
  0
ELLIPSE
  5
367
330
1F
100
AcDbEntity
  8
0
  6
PHANTOM
 62
     8
370
    18
100
AcDbEllipse
 10
240.3802653825
 20
55.9729996095
 30
0.0
 11
0.0
 21
59.7
 31
0.0
210
0.0
220
0.0
230
1.0
 40
0.0349207695
 41
1.375206960254749
 42
1.766385693335039
  0
LINE
  5
368
330
1F
100
AcDbEntity
  8
0
  6
PHANTOM
 62
     8
370
    18
100
AcDbLine
 10
238.3352449594
 20
67.5753779034
 30
0.0
 11
238.4837797341
 21
67.7239126782
 31
0.0
  0
LINE
  5
369
330
1F
100
AcDbEntity
  8
0
  6
PHANTOM
 62
     8
370
    18
100
AcDbLine
 10
172.9837811051
 20
67.7239126782
 30
0.0
 11
173.1323158798
 21
67.5753779034
 31
0.0
  0
ELLIPSE
  5
36A
330
1F
100
AcDbEntity
  8
0
  6
PHANTOM
 62
     8
370
    18
100
AcDbEllipse
 10
171.0872954567
 20
55.9729996095
 30
0.0
 11
0.0
 21
59.7
 31
0.0
210
0.0
220
0.0
230
1.0
 40
0.0349207695
 41
4.516799613844569
 42
4.907978346924846
  0
LINE
  5
36B
330
1F
100
AcDbEntity
  8
0
  6
PHANTOM
 62
     8
370
    18
100
AcDbLine
 10
174.6225903241
 20
69.083276696
 30
0.0
 11
174.4828677235
 21
69.2229992966
 31
0.0
  0
SPLINE
  5
36C
330
1F
100
AcDbEntity
  8
0
  6
PHANTOM
 62
     8
370
    18
100
AcDbSpline
210
0.0
220
0.0
230
1.0
 70
     8
 71
     3
 72
    18
 73
    14
 74
     0
 42
0.000000001
 43
0.00000001
 40
0.0
 40
0.0
 40
0.0
 40
0.0
 40
0.250000000000003
 40
0.250000000000003
 40
0.3750000000000025
 40
0.3750000000000025
 40
0.500000000000002
 40
0.500000000000002
 40
0.6250000000000014
 40
0.6250000000000014
 40
0.750000000000001
 40
0.750000000000001
 40
1.0
 40
1.0
 40
1.0
 40
1.0
 10
173.1323157116388
 20
67.57537807697261
 30
0.0
 10
173.1312700415713
 20
67.77260485298387
 30
0.0
 10
173.1682467358979
 20
67.96596045762568
 30
0.0
 10
173.2779709688302
 20
68.23870120575728
 30
0.0
 10
173.3229132971947
 20
68.32501343749128
 30
0.0
 10
173.4294013103154
 20
68.48852029316019
 30
0.0
 10
173.4917459020183
 20
68.566352778804
 30
0.0
 10
173.6286828998743
 20
68.70629751792441
 30
0.0
 10
173.703503190388
 20
68.7691061213259
 30
0.0
 10
173.8661080011312
 20
68.88011825502059
 30
0.0
 10
173.9538498496137
 20
68.92795107046912
 30
0.0
 10
174.2250259081476
 20
69.04251464815405
 30
0.0
 10
174.4229943668559
 20
69.08322808313963
 30
0.0
 10
174.6225896134588
 20
69.08327665620992
 30
0.0
  0
SPLINE
  5
36D
330
1F
100
AcDbEntity
  8
0
  6
PHANTOM
 62
     8
370
    18
100
AcDbSpline
210
0.0
220
0.0
230
1.0
 70
     8
 71
     3
 72
    18
 73
    14
 74
     0
 42
0.000000001
 43
0.00000001
 40
0.0
 40
0.0
 40
0.0
 40
0.0
 40
0.125
 40
0.125
 40
0.25
 40
0.25
 40
0.375
 40
0.375
 40
0.5
 40
0.5
 40
0.75
 40
0.75
 40
1.0
 40
1.0
 40
1.0
 40
1.0
 10
236.8449712257456
 20
69.08327665620992
 30
0.0
 10
236.944713282076
 20
69.08325238319743
 30
0.0
 10
237.042743497786
 20
69.07332142786426
 30
0.0
 10
237.2355138157697
 20
69.0344151660858
 30
0.0
 10
237.3312779071957
 20
69.00492950767062
 30
0.0
 10
237.512973948671
 20
68.9283551732694
 30
0.0
 10
237.5990679307878
 20
68.88151890022833
 30
0.0
 10
237.7618165800327
 20
68.77085730053416
 30
0.0
 10
237.8382144920158
 20
68.70687450197293
 30
0.0
 10
238.0433595886416
 20
68.49752496519531
 30
0.0
 10
238.1528860710803
 20
68.32949068057968
 30
0.0
 10
238.2984869012396
 20
67.96845861145013
 30
0.0
 10
238.336290287992
 20
67.77250872815338
 30
0.0
 10
238.3352451275655
 20
67.57537807697267
 30
0.0
  0
LINE
  5
36E
330
1F
100
AcDbEntity
  8
0
  6
PHANTOM
 62
     8
370
    18
100
AcDbLine
 10
236.9846931157
 20
69.2229992966
 30
0.0
 11
236.8449705151
 21
69.083276696
 31
0.0
  0
LINE
  5
36F
330
1F
100
AcDbEntity
  8
0
  6
PHANTOM
 62
     8
370
    18
100
AcDbLine
 10
174.6225903241
 20
69.083276696
 30
0.0
 11
236.8449705151
 21
69.083276696
 31
0.0
  0
LINE
  5
370
330
1F
100
AcDbEntity
  8
0
  6
PHANTOM
 62
     8
370
    18
100
AcDbLine
 10
191.5871134458
 20
57.9237309541
 30
0.0
 11
192.5877226946
 21
57.9237309541
 31
0.0
  0
LINE
  5
371
330
1F
100
AcDbEntity
  8
0
  6
PHANTOM
 62
     8
370
    18
100
AcDbLine
 10
218.8798381446
 20
57.9237309541
 30
0.0
 11
219.8804473934
 21
57.9237309541
 31
0.0
  0
LINE
  5
372
330
1F
100
AcDbEntity
  8
0
  6
PHANTOM
 62
     8
370
    18
100
AcDbLine
 10
220.3731989918
 20
42.8627225594
 30
0.0
 11
220.3033172024
 21
42.7928411483
 31
0.0
  0
LINE
  5
373
330
1F
100
AcDbEntity
  8
0
  6
PHANTOM
 62
     8
370
    18
100
AcDbLine
 10
236.8449705151
 20
42.8627225594
 30
0.0
 11
220.3731989918
 21
42.8627225594
 31
0.0
  0
LINE
  5
374
330
1F
100
AcDbEntity
  8
0
  6
PHANTOM
 62
     8
370
    18
100
AcDbLine
 10
191.0943618474
 20
42.8627225594
 30
0.0
 11
174.6225903241
 21
42.8627225594
 31
0.0
  0
LINE
  5
375
330
1F
100
AcDbEntity
  8
0
  6
PHANTOM
 62
     8
370
    18
100
AcDbLine
 10
191.1642436368
 20
42.7928411483
 30
0.0
 11
191.0943618474
 21
42.8627225594
 31
0.0
  0
SPLINE
  5
376
330
1F
100
AcDbEntity
  8
0
  6
PHANTOM
 62
     8
370
    18
100
AcDbSpline
210
0.0
220
0.0
230
1.0
 70
     8
 71
     3
 72
    10
 73
     6
 74
     0
 42
0.000000001
 43
0.00000001
 40
0.0
 40
0.0
 40
0.0
 40
0.0
 40
0.5
 40
0.5
 40
1.0
 40
1.0
 40
1.0
 40
1.0
 10
191.5925249619006
 20
43.36395048074914
 30
0.0
 10
191.5928291289302
 20
43.23204879623862
 30
0.0
 10
191.5392088521487
 20
43.10247149501208
 30
0.0
 10
191.3557546548451
 20
42.91751930327666
 30
0.0
 10
191.2265398533623
 20
42.86281910937313
 30
0.0
 10
191.0943620527647
 20
42.8627225628659
 30
0.0
  0
SPLINE
  5
377
330
1F
100
AcDbEntity
  8
0
  6
PHANTOM
 62
     8
370
    18
100
AcDbSpline
210
0.0
220
0.0
230
1.0
 70
     8
 71
     3
 72
    10
 73
     6
 74
     0
 42
0.000000001
 43
0.00000001
 40
0.0
 40
0.0
 40
0.0
 40
0.0
 40
0.5
 40
0.5
 40
1.0
 40
1.0
 40
1.0
 40
1.0
 10
220.3731987864397
 20
42.8627225628659
 30
0.0
 10
220.2409424057167
 20
42.86281916677033
 30
0.0
 10
220.1116528307148
 20
42.91754007817709
 30
0.0
 10
219.927997601518
 20
43.10296297560645
 30
0.0
 10
219.8747315362469
 20
43.23197332949406
 30
0.0
 10
219.8750358773038
 20
43.36395048074914
 30
0.0
  0
LINE
  5
378
330
1F
100
AcDbEntity
  8
0
  6
PHANTOM
 62
     8
370
    18
100
AcDbLine
 10
236.8449705151
 20
42.8627225594
 30
0.0
 11
236.8449705151
 21
43.0981656502
 31
0.0
  0
SPLINE
  5
379
330
1F
100
AcDbEntity
  8
0
  6
PHANTOM
 62
     8
370
    18
100
AcDbSpline
210
0.0
220
0.0
230
1.0
 70
     8
 71
     3
 72
    14
 73
    10
 74
     0
 42
0.000000001
 43
0.00000001
 40
0.0
 40
0.0
 40
0.0
 40
0.0
 40
0.25
 40
0.25
 40
0.5
 40
0.5
 40
0.75
 40
0.75
 40
1.0
 40
1.0
 40
1.0
 40
1.0
 10
236.8449712257456
 20
43.09816564112959
 30
0.0
 10
237.0057992535027
 20
43.0981656411296
 30
0.0
 10
237.1652598838861
 20
43.13142362684734
 30
0.0
 10
237.4555521799796
 20
43.25577551140171
 30
0.0
 10
237.5885036631282
 20
43.34797926640651
 30
0.0
 10
237.8065114492782
 20
43.57423388952085
 30
0.0
 10
237.8924355460972
 20
43.70841934117217
 30
0.0
 10
238.0076847538662
 20
44.00012776970178
 30
0.0
 10
238.0365127939833
 20
44.15471802118481
 30
0.0
 10
238.0354278794598
 20
44.31231773271909
 30
0.0
  0
ARC
  5
37A
330
1F
100
AcDbEntity
  8
0
  6
PHANTOM
 62
     8
370
    18
100
AcDbCircle
 10
238.1011438436
 20
44.7744163725
 30
0.0
 40
0.4667482608467821
100
AcDbArc
 50
261.9059152427
 51
300.1031005153
  0
LINE
  5
37B
330
1F
100
AcDbEntity
  8
0
  6
PHANTOM
 62
     8
370
    18
100
AcDbLine
 10
174.6225903241
 20
69.083276696
 30
0.0
 11
174.6225903241
 21
68.8478327612
 31
0.0
  0
SPLINE
  5
37C
330
1F
100
AcDbEntity
  8
0
  6
PHANTOM
 62
     8
370
    18
100
AcDbSpline
210
0.0
220
0.0
230
1.0
 70
     8
 71
     3
 72
    14
 73
    10
 74
     0
 42
0.000000001
 43
0.00000001
 40
0.0
 40
0.0
 40
0.0
 40
0.0
 40
0.25
 40
0.25
 40
0.5
 40
0.5
 40
0.75
 40
0.75
 40
1.0
 40
1.0
 40
1.0
 40
1.0
 10
174.6225896134588
 20
68.84783357794628
 30
0.0
 10
174.4617615857017
 20
68.84783357794628
 30
0.0
 10
174.3023009553183
 20
68.81457559222851
 30
0.0
 10
174.0120086592248
 20
68.69022370767411
 30
0.0
 10
173.8790571760762
 20
68.59801995266932
 30
0.0
 10
173.6610493899261
 20
68.37176532955498
 30
0.0
 10
173.5751252931072
 20
68.23757987790366
 30
0.0
 10
173.4598760853382
 20
67.94587144937405
 30
0.0
 10
173.431048045221
 20
67.79128119789102
 30
0.0
 10
173.4321329597446
 20
67.63368148635672
 30
0.0
  0
ARC
  5
37D
330
1F
100
AcDbEntity
  8
0
  6
PHANTOM
 62
     8
370
    18
100
AcDbCircle
 10
173.3664153244
 20
67.1715857081
 30
0.0
 40
0.4667447770547475
100
AcDbArc
 50
81.9056472062
 51
120.1031113137
  0
ARC
  5
37E
330
1F
100
AcDbEntity
  8
0
  6
PHANTOM
 62
     8
370
    18
100
AcDbCircle
 10
173.3664169956
 20
44.7744163725
 30
0.0
 40
0.4667482608467746
100
AcDbArc
 50
239.8968994847
 51
278.0940847573
  0
SPLINE
  5
37F
330
1F
100
AcDbEntity
  8
0
  6
PHANTOM
 62
     8
370
    18
100
AcDbSpline
210
0.0
220
0.0
230
1.0
 70
     8
 71
     3
 72
    14
 73
    10
 74
     0
 42
0.000000001
 43
0.00000001
 40
0.0
 40
0.0
 40
0.0
 40
0.0
 40
0.25
 40
0.25
 40
0.5
 40
0.5
 40
0.75
 40
0.75
 40
1.0
 40
1.0
 40
1.0
 40
1.0
 10
173.4321329597446
 20
44.31231773271909
 30
0.0
 10
173.4310485051257
 20
44.15478482907645
 30
0.0
 10
173.4605337680613
 20
43.99810156510668
 30
0.0
 10
173.5752323650032
 20
43.70851228888986
 30
0.0
 10
173.6618299549686
 20
43.57325835828319
 30
0.0
 10
173.8794939235302
 20
43.34769236461748
 30
0.0
 10
174.0122578512338
 20
43.25551658788667
 30
0.0
 10
174.3039738442934
 20
43.13086019886197
 30
0.0
 10
174.4618487598794
 20
43.0981656411296
 30
0.0
 10
174.6225896134588
 20
43.09816564112959
 30
0.0
  0
LINE
  5
380
330
1F
100
AcDbEntity
  8
0
  6
PHANTOM
 62
     8
370
    18
100
AcDbLine
 10
174.6225903241
 20
42.8627225594
 30
0.0
 11
174.6225903241
 21
43.0981656502
 31
0.0
  0
ARC
  5
381
330
1F
100
AcDbEntity
  8
0
  6
PHANTOM
 62
     8
370
    18
100
AcDbCircle
 10
238.1011455148
 20
67.1715857081
 30
0.0
 40
0.4667447770547475
100
AcDbArc
 50
59.8968886863
 51
98.0943527938
  0
SPLINE
  5
382
330
1F
100
AcDbEntity
  8
0
  6
PHANTOM
 62
     8
370
    18
100
AcDbSpline
210
0.0
220
0.0
230
1.0
 70
     8
 71
     3
 72
    14
 73
    10
 74
     0
 42
0.000000001
 43
0.00000001
 40
0.0
 40
0.0
 40
0.0
 40
0.0
 40
0.25
 40
0.25
 40
0.5
 40
0.5
 40
0.75
 40
0.75
 40
1.0
 40
1.0
 40
1.0
 40
1.0
 10
238.0354278794598
 20
67.63368148635672
 30
0.0
 10
238.0365123340787
 20
67.79121438999937
 30
0.0
 10
238.0070270711431
 20
67.94789765396916
 30
0.0
 10
237.8923284742012
 20
68.237486930186
 30
0.0
 10
237.8057308842358
 20
68.37274086079267
 30
0.0
 10
237.5880669156742
 20
68.59830685445839
 30
0.0
 10
237.4553029879706
 20
68.6904826311892
 30
0.0
 10
237.1635869949109
 20
68.81513902021388
 30
0.0
 10
237.0057120793249
 20
68.84783357794628
 30
0.0
 10
236.8449712257456
 20
68.84783357794628
 30
0.0
  0
LINE
  5
383
330
1F
100
AcDbEntity
  8
0
  6
PHANTOM
 62
     8
370
    18
100
AcDbLine
 10
236.8449705151
 20
69.083276696
 30
0.0
 11
236.8449705151
 21
68.8478327612
 31
0.0
  0
ARC
  5
384
330
1F
100
AcDbEntity
  8
0
  6
PHANTOM
 62
     8
370
    18
100
AcDbCircle
 10
220.1096712304
 20
43.7331814509
 30
0.0
 40
0.4374762289008763
100
AcDbArc
 50
237.5652058865
 51
278.5687374298
  0
SPLINE
  5
385
330
1F
100
AcDbEntity
  8
0
  6
PHANTOM
 62
     8
370
    18
100
AcDbSpline
210
0.0
220
0.0
230
1.0
 70
     8
 71
     3
 72
    10
 73
     6
 74
     0
 42
0.000000001
 43
0.00000001
 40
0.0
 40
0.0
 40
0.0
 40
0.0
 40
0.5
 40
0.5
 40
1.0
 40
1.0
 40
1.0
 40
1.0
 10
220.1748531254096
 20
43.30058842482558
 30
0.0
 10
220.1744596607688
 20
43.24818236084979
 30
0.0
 10
220.1946728553295
 20
43.1965625357841
 30
0.0
 10
220.2673183714666
 20
43.12100891903557
 30
0.0
 10
220.3195235222212
 20
43.09816564112937
 30
0.0
 10
220.3731987864397
 20
43.09816564112936
 30
0.0
  0
LINE
  5
386
330
1F
100
AcDbEntity
  8
0
  6
PHANTOM
 62
     8
370
    18
100
AcDbLine
 10
220.3731989918
 20
42.8627225594
 30
0.0
 11
220.3731989918
 21
43.0981656502
 31
0.0
  0
LINE
  5
387
330
1F
100
AcDbEntity
  8
0
  6
PHANTOM
 62
     8
370
    18
100
AcDbLine
 10
191.0943618474
 20
42.8627225594
 30
0.0
 11
191.0943618474
 21
43.0981656502
 31
0.0
  0
SPLINE
  5
388
330
1F
100
AcDbEntity
  8
0
  6
PHANTOM
 62
     8
370
    18
100
AcDbSpline
210
0.0
220
0.0
230
1.0
 70
     8
 71
     3
 72
    10
 73
     6
 74
     0
 42
0.000000001
 43
0.00000001
 40
0.0
 40
0.0
 40
0.0
 40
0.0
 40
0.5
 40
0.5
 40
1.0
 40
1.0
 40
1.0
 40
1.0
 10
191.0943620527647
 20
43.09816564112959
 30
0.0
 10
191.148006434054
 20
43.09816564112959
 30
0.0
 10
191.2002025130566
 20
43.12102443947519
 30
0.0
 10
191.2727195457323
 20
43.19633044411108
 30
0.0
 10
191.2931010092221
 20
43.2482048986229
 30
0.0
 10
191.2927077137948
 20
43.30058842482558
 30
0.0
  0
ARC
  5
389
330
1F
100
AcDbEntity
  8
0
  6
PHANTOM
 62
     8
370
    18
100
AcDbCircle
 10
191.3578896088
 20
43.7331814509
 30
0.0
 40
0.4374762289008611
100
AcDbArc
 50
261.4312625702
 51
302.4347941135
  0
LINE
  5
38A
330
1F
100
AcDbEntity
  8
0
  6
PHANTOM
 62
     8
370
    18
100
AcDbLine
 10
174.6225903241
 20
43.0981656502
 30
0.0
 11
191.0943618474
 21
43.0981656502
 31
0.0
  0
LINE
  5
38B
330
1F
100
AcDbEntity
  8
0
  6
PHANTOM
 62
     8
370
    18
100
AcDbLine
 10
220.3731989918
 20
43.0981656502
 30
0.0
 11
236.8449705151
 21
43.0981656502
 31
0.0
  0
LINE
  5
38C
330
1F
100
AcDbEntity
  8
0
  6
PHANTOM
 62
     8
370
    18
100
AcDbLine
 10
236.8449705151
 20
68.8478327612
 30
0.0
 11
174.6225903241
 21
68.8478327612
 31
0.0
  0
ELLIPSE
  5
38D
330
1F
100
AcDbEntity
  8
0
  6
PHANTOM
 62
     8
370
    18
100
AcDbEllipse
 10
193.3304481344
 20
55.9729996095
 30
0.0
 11
-2.842170943040401E-14
 21
59.99999999999999
 31
0.0
210
0.0
220
0.0
230
1.0
 40
0.0347461656
 41
1.476002304048837
 42
1.783605828543398
  0
ELLIPSE
  5
38E
330
1F
100
AcDbEntity
  8
0
  6
PHANTOM
 62
     8
370
    18
100
AcDbEllipse
 10
218.1371127048
 20
55.9729996095
 30
0.0
 11
2.842170943040401E-14
 21
59.99999999999999
 31
0.0
210
0.0
220
0.0
230
1.0
 40
0.0347461656
 41
4.499579478636203
 42
4.807183003130754
  0
SPLINE
  5
38F
330
1F
100
AcDbEntity
  8
0
  6
PHANTOM
 62
     8
370
    18
100
AcDbSpline
210
0.0
220
0.0
230
1.0
 70
     8
 71
     3
 72
    20
 73
    16
 74
     0
 42
0.000000001
 43
0.00000001
 40
0.0
 40
0.0
 40
0.0
 40
0.0
 40
0.2499999999999974
 40
0.2499999999999974
 40
0.3749999999999979
 40
0.3749999999999979
 40
0.4999999999999984
 40
0.4999999999999984
 40
0.6249999999999988
 40
0.6249999999999988
 40
0.7499999999999992
 40
0.7499999999999992
 40
0.8749999999999996
 40
0.8749999999999996
 40
1.0
 40
1.0
 40
1.0
 40
1.0
 10
224.3337804196022
 20
44.06418699964705
 30
0.0
 10
224.1066794303389
 20
44.06418699964705
 30
0.0
 10
223.8813625578131
 20
44.11063072090854
 30
0.0
 10
223.5730281841189
 20
44.24070723738303
 30
0.0
 10
223.473369663617
 20
44.29490158542468
 30
0.0
 10
223.2882194381756
 20
44.42086828427131
 30
0.0
 10
223.2030591965125
 20
44.49206008570265
 30
0.0
 10
223.0471738192652
 20
44.65045883548618
 30
0.0
 10
222.9761049771386
 20
44.73852918083359
 30
0.0
 10
222.854433948874
 20
44.92366583362361
 30
0.0
 10
222.8029894442393
 20
45.02136345084802
 30
0.0
 10
222.7190017869943
 20
45.22711043127354
 30
0.0
 10
222.6869788610358
 20
45.33455531679596
 30
0.0
 10
222.6445990714117
 20
45.55093230371944
 30
0.0
 10
222.6337804196021
 20
45.6609010016363
 30
0.0
 10
222.6337804196022
 20
45.77272971321558
 30
0.0
  0
ARC
  5
390
330
1F
100
AcDbEntity
  8
0
  6
PHANTOM
 62
     8
370
    18
100
AcDbCircle
 10
222.7066126044
 20
46.2521484429
 30
0.0
 40
0.4849195502986995
100
AcDbArc
 50
261.3617175477
 51
297.9347776063
  0
LINE
  5
391
330
1F
100
AcDbEntity
  8
0
  6
PHANTOM
 62
     8
370
    18
100
AcDbLine
 10
224.3337804881
 20
44.0641870047
 30
0.0
 11
224.3337804881
 21
44.4237310695
 31
0.0
  0
SPLINE
  5
392
330
1F
100
AcDbEntity
  8
0
  6
PHANTOM
 62
     8
370
    18
100
AcDbSpline
210
0.0
220
0.0
230
1.0
 70
     8
 71
     3
 72
    20
 73
    16
 74
     0
 42
0.000000001
 43
0.00000001
 40
0.0
 40
0.0
 40
0.0
 40
0.0
 40
0.2500000000000003
 40
0.2500000000000003
 40
0.3750000000000003
 40
0.3750000000000003
 40
0.5000000000000004
 40
0.5000000000000004
 40
0.6250000000000003
 40
0.6250000000000003
 40
0.7500000000000002
 40
0.7500000000000002
 40
0.8750000000000002
 40
0.8750000000000002
 40
1.0
 40
1.0
 40
1.0
 40
1.0
 10
176.3837804196022
 20
44.06418699964705
 30
0.0
 10
176.1566794303389
 20
44.06418699964705
 30
0.0
 10
175.9313625578131
 20
44.11063072090854
 30
0.0
 10
175.6230281841189
 20
44.24070723738303
 30
0.0
 10
175.523369663617
 20
44.29490158542468
 30
0.0
 10
175.3382194381757
 20
44.42086828427131
 30
0.0
 10
175.2530591965125
 20
44.49206008570265
 30
0.0
 10
175.0971738192652
 20
44.65045883548618
 30
0.0
 10
175.0261049771386
 20
44.73852918083359
 30
0.0
 10
174.904433948874
 20
44.92366583362362
 30
0.0
 10
174.8529894442393
 20
45.02136345084802
 30
0.0
 10
174.7690017869943
 20
45.22711043127355
 30
0.0
 10
174.7369788610357
 20
45.33455531679596
 30
0.0
 10
174.6945990714117
 20
45.55093230371944
 30
0.0
 10
174.6837804196021
 20
45.6609010016363
 30
0.0
 10
174.6837804196022
 20
45.77272971321558
 30
0.0
  0
ARC
  5
393
330
1F
100
AcDbEntity
  8
0
  6
PHANTOM
 62
     8
370
    18
100
AcDbCircle
 10
174.7566131721
 20
46.2521393315
 30
0.0
 40
0.4849105630097031
100
AcDbArc
 50
261.3615396641
 51
297.9350730464
  0
LINE
  5
394
330
1F
100
AcDbEntity
  8
0
  6
PHANTOM
 62
     8
370
    18
100
AcDbLine
 10
176.3837809173
 20
44.0641870047
 30
0.0
 11
176.3837809173
 21
44.4237310695
 31
0.0
  0
SPLINE
  5
395
330
1F
100
AcDbEntity
  8
0
  6
PHANTOM
 62
     8
370
    18
100
AcDbSpline
210
0.0
220
0.0
230
1.0
 70
     8
 71
     3
 72
    18
 73
    14
 74
     0
 42
0.000000001
 43
0.00000001
 40
0.0
 40
0.0
 40
0.0
 40
0.0
 40
0.2499999999999999
 40
0.2499999999999999
 40
0.4999999999999998
 40
0.4999999999999998
 40
0.6249999999999998
 40
0.6249999999999998
 40
0.7499999999999999
 40
0.7499999999999999
 40
0.8749999999999999
 40
0.8749999999999999
 40
1.0
 40
1.0
 40
1.0
 40
1.0
 10
188.8337804196022
 20
45.77272971321558
 30
0.0
 10
188.8337804196023
 20
45.5491378644356
 30
0.0
 10
188.7895671965962
 20
45.32705830212362
 30
0.0
 10
188.6224247022467
 20
44.91862994162584
 30
0.0
 10
188.4973856166979
 20
44.72848112106645
 30
0.0
 10
188.2637355579594
 20
44.4913914051647
 30
0.0
 10
188.1766961144028
 20
44.41882433036999
 30
0.0
 10
187.9916831082326
 20
44.29344636548038
 30
0.0
 10
187.8937799238035
 20
44.24028477671546
 30
0.0
 10
187.687018694671
 20
44.15326995499981
 30
0.0
 10
187.5780974697111
 20
44.11975001081809
 30
0.0
 10
187.358828014793
 20
44.07549905377291
 30
0.0
 10
187.2472966230461
 20
44.06418699964705
 30
0.0
 10
187.1337804196022
 20
44.06418699964705
 30
0.0
  0
LINE
  5
396
330
1F
100
AcDbEntity
  8
0
  6
PHANTOM
 62
     8
370
    18
100
AcDbLine
 10
187.1337803511
 20
44.0641870047
 30
0.0
 11
187.1337803511
 21
44.4237310695
 31
0.0
  0
ARC
  5
397
330
1F
100
AcDbEntity
  8
0
  6
PHANTOM
 62
     8
370
    18
100
AcDbCircle
 10
188.7609482348
 20
46.2521484429
 30
0.0
 40
0.4849195502987066
100
AcDbArc
 50
242.0652223937
 51
278.6382824523
  0
SPLINE
  5
398
330
1F
100
AcDbEntity
  8
0
  6
PHANTOM
 62
     8
370
    18
100
AcDbSpline
210
0.0
220
0.0
230
1.0
 70
     8
 71
     3
 72
    18
 73
    14
 74
     0
 42
0.000000001
 43
0.00000001
 40
0.0
 40
0.0
 40
0.0
 40
0.0
 40
0.2500000000000001
 40
0.2500000000000001
 40
0.5000000000000002
 40
0.5000000000000002
 40
0.6250000000000001
 40
0.6250000000000001
 40
0.7500000000000001
 40
0.7500000000000001
 40
0.875
 40
0.875
 40
1.0
 40
1.0
 40
1.0
 40
1.0
 10
236.7837804196022
 20
45.77272971321558
 30
0.0
 10
236.7837804196023
 20
45.5491378644356
 30
0.0
 10
236.7395671965962
 20
45.32705830212362
 30
0.0
 10
236.5724247022466
 20
44.91862994162584
 30
0.0
 10
236.4473856166979
 20
44.72848112106646
 30
0.0
 10
236.2137355579594
 20
44.4913914051647
 30
0.0
 10
236.1266961144028
 20
44.41882433037
 30
0.0
 10
235.9416831082326
 20
44.29344636548038
 30
0.0
 10
235.8437799238035
 20
44.24028477671546
 30
0.0
 10
235.637018694671
 20
44.15326995499981
 30
0.0
 10
235.5280974697111
 20
44.11975001081809
 30
0.0
 10
235.308828014793
 20
44.07549905377291
 30
0.0
 10
235.1972966230462
 20
44.06418699964705
 30
0.0
 10
235.0837804196022
 20
44.06418699964705
 30
0.0
  0
LINE
  5
399
330
1F
100
AcDbEntity
  8
0
  6
PHANTOM
 62
     8
370
    18
100
AcDbLine
 10
235.0837799219
 20
44.0641870047
 30
0.0
 11
235.0837799219
 21
44.4237310695
 31
0.0
  0
ARC
  5
39A
330
1F
100
AcDbEntity
  8
0
  6
PHANTOM
 62
     8
370
    18
100
AcDbCircle
 10
236.7109476671
 20
46.2521393315
 30
0.0
 40
0.4849105630097049
100
AcDbArc
 50
242.0649269536
 51
278.6384603359
  0
LINE
  5
39B
330
1F
100
AcDbEntity
  8
0
  6
PHANTOM
 62
     8
370
    18
100
AcDbLine
 10
235.0837799219
 20
44.0641870047
 30
0.0
 11
224.3337804881
 21
44.0641870047
 31
0.0
  0
LINE
  5
39C
330
1F
100
AcDbEntity
  8
0
  6
PHANTOM
 62
     8
370
    18
100
AcDbLine
 10
187.1337803511
 20
44.0641870047
 30
0.0
 11
176.3837809173
 21
44.0641870047
 31
0.0
  0
LINE
  5
39D
330
1F
100
AcDbEntity
  8
0
  6
PHANTOM
 62
     8
370
    18
100
AcDbLine
 10
219.8263487277
 20
65.9709084104
 30
0.0
 11
191.6412121115
 21
65.9709084104
 31
0.0
  0
LINE
  5
39E
330
1F
100
AcDbEntity
  8
0
  6
PHANTOM
 62
     8
370
    18
100
AcDbLine
 10
236.7837807593
 20
65.5717249284
 30
0.0
 11
236.7837807593
 21
45.7727297
 31
0.0
  0
SPLINE
  5
39F
330
1F
100
AcDbEntity
  8
0
  6
PHANTOM
 62
     8
370
    18
100
AcDbSpline
210
0.0
220
0.0
230
1.0
 70
     8
 71
     3
 72
    20
 73
    16
 74
     0
 42
0.000000001
 43
0.00000001
 40
0.0
 40
0.0
 40
0.0
 40
0.0
 40
0.2500000000000038
 40
0.2500000000000038
 40
0.3750000000000032
 40
0.3750000000000032
 40
0.5000000000000026
 40
0.5000000000000026
 40
0.6250000000000019
 40
0.6250000000000019
 40
0.7500000000000012
 40
0.7500000000000012
 40
0.8750000000000007
 40
0.8750000000000007
 40
1.0
 40
1.0
 40
1.0
 40
1.0
 10
235.0837804196022
 20
67.28026740165713
 30
0.0
 10
235.3106587901145
 20
67.28026740165713
 30
0.0
 10
235.5357943024262
 20
67.23391504715121
 30
0.0
 10
235.8439700373317
 20
67.10402389720237
 30
0.0
 10
235.9435590159672
 20
67.04992411227242
 30
0.0
 10
236.1287572836104
 20
66.92404192812634
 30
0.0
 10
236.2139455657168
 20
66.85288964097013
 30
0.0
 10
236.369894077691
 20
66.69456570572977
 30
0.0
 10
236.4410209303563
 20
66.6065076636835
 30
0.0
 10
236.5628254600801
 20
66.42132610658956
 30
0.0
 10
236.614330292929
 20
66.32359575811343
 30
0.0
 10
236.6984229941118
 20
66.1177627181928
 30
0.0
 10
236.7305002699864
 20
66.01023065123967
 30
0.0
 10
236.7729451607072
 20
65.79369229748525
 30
0.0
 10
236.7837804196019
 20
65.68363995810172
 30
0.0
 10
236.7837804196022
 20
65.57172468809378
 30
0.0
  0
LINE
  5
3A0
330
1F
100
AcDbEntity
  8
0
  6
PHANTOM
 62
     8
370
    18
100
AcDbLine
 10
219.5804479031
 20
67.2802678565
 30
0.0
 11
235.0837799219
 21
67.2802678565
 31
0.0
  0
LINE
  5
3A1
330
1F
100
AcDbEntity
  8
0
  6
PHANTOM
 62
     8
370
    18
100
AcDbLine
 10
219.5804479031
 20
66.2355399947
 30
0.0
 11
219.5804479031
 21
67.2802678565
 31
0.0
  0
LINE
  5
3A2
330
1F
100
AcDbEntity
  8
0
  6
PHANTOM
 62
     8
370
    18
100
AcDbLine
 10
191.8871129362
 20
66.2355399947
 30
0.0
 11
219.5804479031
 21
66.2355399947
 31
0.0
  0
LINE
  5
3A3
330
1F
100
AcDbEntity
  8
0
  6
PHANTOM
 62
     8
370
    18
100
AcDbLine
 10
191.8871129362
 20
67.2802678565
 30
0.0
 11
191.8871129362
 21
66.2355399947
 31
0.0
  0
LINE
  5
3A4
330
1F
100
AcDbEntity
  8
0
  6
PHANTOM
 62
     8
370
    18
100
AcDbLine
 10
176.3837809173
 20
67.2802678565
 30
0.0
 11
191.8871129362
 21
67.2802678565
 31
0.0
  0
SPLINE
  5
3A5
330
1F
100
AcDbEntity
  8
0
  6
PHANTOM
 62
     8
370
    18
100
AcDbSpline
210
0.0
220
0.0
230
1.0
 70
     8
 71
     3
 72
    18
 73
    14
 74
     0
 42
0.000000001
 43
0.00000001
 40
0.0
 40
0.0
 40
0.0
 40
0.0
 40
0.2500000000000013
 40
0.2500000000000013
 40
0.5000000000000027
 40
0.5000000000000027
 40
0.625000000000002
 40
0.625000000000002
 40
0.7500000000000013
 40
0.7500000000000013
 40
0.8750000000000007
 40
0.8750000000000007
 40
1.0
 40
1.0
 40
1.0
 40
1.0
 10
174.6837804196022
 20
65.57172468809378
 30
0.0
 10
174.6837804196028
 20
65.79549659066905
 30
0.0
 10
174.7280745336448
 20
66.01776430587275
 30
0.0
 10
174.8954355239378
 20
66.4263851098993
 30
0.0
 10
175.0206160487725
 20
66.61655958012805
 30
0.0
 10
175.2543951976639
 20
66.8535714574384
 30
0.0
 10
175.3414770210657
 20
66.92610211850824
 30
0.0
 10
175.5264604615956
 20
67.05134545321583
 30
0.0
 10
175.6243367831553
 20
67.10444353656733
 30
0.0
 10
175.8310161107584
 20
67.19134373705448
 30
0.0
 10
175.939850937277
 20
67.22480296508473
 30
0.0
 10
176.1589386401474
 20
67.26897646895316
 30
0.0
 10
176.2703714250457
 20
67.28026740165711
 30
0.0
 10
176.3837804196022
 20
67.28026740165713
 30
0.0
  0
LINE
  5
3A6
330
1F
100
AcDbEntity
  8
0
  6
PHANTOM
 62
     8
370
    18
100
AcDbLine
 10
174.6837800799
 20
45.7727297
 30
0.0
 11
174.6837800799
 21
65.5717249284
 31
0.0
  0
LINE
  5
3A7
330
1F
100
AcDbEntity
  8
0
  6
PHANTOM
 62
     8
370
    18
100
AcDbLine
 10
188.8337811885
 20
61.6521272133
 30
0.0
 11
188.8337811885
 21
45.7727297
 31
0.0
  0
LINE
  5
3A8
330
1F
100
AcDbEntity
  8
0
  6
PHANTOM
 62
     8
370
    18
100
AcDbLine
 10
191.2550382746
 20
61.6521272133
 30
0.0
 11
188.8337811885
 21
61.6521272133
 31
0.0
  0
ELLIPSE
  5
3A9
330
1F
100
AcDbEntity
  8
0
  6
PHANTOM
 62
     8
370
    18
100
AcDbEllipse
 10
171.3871127048
 20
55.9729996095
 30
0.0
 11
0.0
 21
59.99999999999999
 31
0.0
210
0.0
220
0.0
230
1.0
 40
0.0347461656
 41
4.516799613844566
 42
4.907978346924844
  0
ELLIPSE
  5
3AA
330
1F
100
AcDbEntity
  8
0
  6
PHANTOM
 62
     8
370
    18
100
AcDbEllipse
 10
240.0804481344
 20
55.9729996095
 30
0.0
 11
0.0
 21
59.99999999999999
 31
0.0
210
0.0
220
0.0
230
1.0
 40
0.0347461656
 41
1.375206960254755
 42
1.766385693335039
  0
LINE
  5
3AB
330
1F
100
AcDbEntity
  8
0
  6
PHANTOM
 62
     8
370
    18
100
AcDbLine
 10
222.6337796507
 20
61.6521272133
 30
0.0
 11
220.2125225646
 21
61.6521272133
 31
0.0
  0
LINE
  5
3AC
330
1F
100
AcDbEntity
  8
0
  6
PHANTOM
 62
     8
370
    18
100
AcDbLine
 10
222.6337796507
 20
45.7727297
 30
0.0
 11
222.6337796507
 21
61.6521272133
 31
0.0
  0
ARC
  5
3AD
330
1F
100
AcDbEntity
  8
0
  6
PHANTOM
 62
     8
370
    18
100
AcDbCircle
 10
236.7106970581
 20
65.0669507725
 30
0.0
 40
0.5100374259737052
100
AcDbArc
 50
81.7616808417
 51
116.4169583276
  0
LINE
  5
3AE
330
1F
100
AcDbEntity
  8
0
  6
PHANTOM
 62
     8
370
    18
100
AcDbLine
 10
235.0837799219
 20
67.2802678565
 30
0.0
 11
235.0837799219
 21
66.923731498
 31
0.0
  0
LINE
  5
3AF
330
1F
100
AcDbEntity
  8
0
  6
PHANTOM
 62
     8
370
    18
100
AcDbLine
 10
176.3837809173
 20
67.2802678565
 30
0.0
 11
176.3837809173
 21
66.923731498
 31
0.0
  0
ARC
  5
3B0
330
1F
100
AcDbEntity
  8
0
  6
PHANTOM
 62
     8
370
    18
100
AcDbCircle
 10
174.7568637811
 20
65.0669507725
 30
0.0
 40
0.5100374259737088
100
AcDbArc
 50
63.5830416724
 51
98.2383191583
  0
ENDSEC
  0
SECTION
  2
OBJECTS
  0
DICTIONARY
  5
C
330
0
100
AcDbDictionary
281
     1
  3
ACAD_GROUP
350
D
  3
ACAD_LAYOUT
350
1A
  3
ACAD_MLINESTYLE
350
17
  3
ACAD_PLOTSETTINGS
350
19
  3
ACAD_PLOTSTYLENAME
350
E
  3
ACAD_SCALELIST
350
47
  0
DICTIONARY
  5
D
102
{ACAD_REACTORS
330
C
102
}
330
C
100
AcDbDictionary
281
     1
  0
DICTIONARY
  5
1A
102
{ACAD_REACTORS
330
C
102
}
330
C
100
AcDbDictionary
281
     1
  3
Layout1
350
1E
  3
Layout2
350
26
  3
Model
350
22
  0
DICTIONARY
  5
17
102
{ACAD_REACTORS
330
C
102
}
330
C
100
AcDbDictionary
281
     1
  3
Standard
350
18
  0
DICTIONARY
  5
19
102
{ACAD_REACTORS
330
C
102
}
330
C
100
AcDbDictionary
281
     1
  0
ACDBDICTIONARYWDFLT
  5
E
102
{ACAD_REACTORS
330
C
102
}
330
C
100
AcDbDictionary
281
     1
  3
Normal
350
F
100
AcDbDictionaryWithDefault
340
F
  0
DICTIONARY
  5
47
102
{ACAD_REACTORS
330
C
102
}
330
C
100
AcDbDictionary
281
     1
  3
A0
350
48
  3
A1
350
49
  3
A2
350
4A
  3
A3
350
4B
  3
A4
350
4C
  3
A5
350
4D
  3
A6
350
4E
  3
A7
350
4F
  3
A8
350
50
  3
A9
350
51
  3
B0
350
52
  3
B1
350
53
  3
B2
350
54
  3
B3
350
55
  3
B4
350
56
  3
B5
350
57
  3
B6
350
58
  3
B7
350
59
  3
B8
350
5A
  3
B9
350
5B
  3
C0
350
5C
  3
C1
350
5D
  3
C2
350
5E
  3
C3
350
5F
  3
C4
350
60
  3
C5
350
61
  3
C6
350
62
  3
C7
350
63
  3
C8
350
64
  3
C9
350
65
  3
D0
350
66
  3
D1
350
67
  3
D2
350
68
  0
LAYOUT
  5
1E
102
{ACAD_REACTORS
330
1A
102
}
330
1A
100
AcDbPlotSettings
  1

  2
none_device
  4

  6

 40
0.0
 41
0.0
 42
0.0
 43
0.0
 44
0.0
 45
0.0
 46
0.0
 47
0.0
 48
0.0
 49
0.0
140
0.0
141
0.0
142
1.0
143
1.0
 70
   688
 72
     1
 73
     0
 74
     5
  7

 75
    16
147
1.0
148
0.0
149
0.0
100
AcDbLayout
  1
Layout1
 70
     1
 71
     1
 10
0.0
 20
0.0
 11
420.0
 21
297.0
 12
0.0
 22
0.0
 32
0.0
 14
1.0000000000E+20
 24
1.0000000000E+20
 34
1.0000000000E+20
 15
-1.0000000000E+20
 25
-1.0000000000E+20
 35
-1.0000000000E+20
146
0.0
 13
0.0
 23
0.0
 33
0.0
 16
1.0
 26
0.0
 36
0.0
 17
0.0
 27
1.0
 37
0.0
 76
     0
330
1B
  0
LAYOUT
  5
26
102
{ACAD_REACTORS
330
1A
102
}
330
1A
100
AcDbPlotSettings
  1

  2
none_device
  4

  6

 40
0.0
 41
0.0
 42
0.0
 43
0.0
 44
0.0
 45
0.0
 46
0.0
 47
0.0
 48
0.0
 49
0.0
140
0.0
141
0.0
142
1.0
143
1.0
 70
   688
 72
     1
 73
     0
 74
     5
  7

 75
    16
147
1.0
148
0.0
149
0.0
100
AcDbLayout
  1
Layout2
 70
     1
 71
     2
 10
0.0
 20
0.0
 11
0.0
 21
0.0
 12
0.0
 22
0.0
 32
0.0
 14
0.0
 24
0.0
 34
0.0
 15
0.0
 25
0.0
 35
0.0
146
0.0
 13
0.0
 23
0.0
 33
0.0
 16
1.0
 26
0.0
 36
0.0
 17
0.0
 27
1.0
 37
0.0
 76
     0
330
23
  0
LAYOUT
  5
22
102
{ACAD_REACTORS
330
1A
102
}
330
1A
100
AcDbPlotSettings
  1

  2
none_device
  4
Letter_(8.50_x_11.00_Inches)
  6

 40
6.35
 41
6.35
 42
6.35000508
 43
6.35000508
 44
215.9
 45
279.4
 46
0.0
 47
0.0
 48
0.0
 49
0.0
140
0.0
141
0.0
142
1.0
143
1.0
 70
  1712
 72
     1
 73
     0
 74
     0
  7

 75
     0
147
1.0
148
0.0
149
0.0
100
AcDbLayout
  1
Model
 70
     1
 71
     0
 10
0.0
 20
0.0
 11
1189.0
 21
841.0
 12
0.0
 22
0.0
 32
0.0
 14
0.0
 24
0.0
 34
0.0
 15
1189.0
 25
841.0
 35
0.0
146
0.0
 13
0.0
 23
0.0
 33
0.0
 16
1.0
 26
0.0
 36
0.0
 17
0.0
 27
1.0
 37
0.0
 76
     0
330
1F
331
29
  0
MLINESTYLE
  5
18
102
{ACAD_REACTORS
330
17
102
}
330
17
100
AcDbMlineStyle
  2
Standard
 70
     0
  3

 62
   256
 51
90.0
 52
90.0
 71
     2
 49
0.5
 62
   256
  6
BYLAYER
 49
-0.5
 62
   256
  6
BYLAYER
  0
ACDBPLACEHOLDER
  5
F
102
{ACAD_REACTORS
330
E
102
}
330
E
  0
SCALE
  5
48
102
{ACAD_REACTORS
330
47
102
}
330
47
100
AcDbScale
 70
     0
300
1:1
140
1.0
141
1.0
290
     1
  0
SCALE
  5
49
102
{ACAD_REACTORS
330
47
102
}
330
47
100
AcDbScale
 70
     0
300
1:2
140
1.0
141
2.0
290
     0
  0
SCALE
  5
4A
102
{ACAD_REACTORS
330
47
102
}
330
47
100
AcDbScale
 70
     0
300
1:4
140
1.0
141
4.0
290
     0
  0
SCALE
  5
4B
102
{ACAD_REACTORS
330
47
102
}
330
47
100
AcDbScale
 70
     0
300
1:5
140
1.0
141
5.0
290
     0
  0
SCALE
  5
4C
102
{ACAD_REACTORS
330
47
102
}
330
47
100
AcDbScale
 70
     0
300
1:8
140
1.0
141
8.0
290
     0
  0
SCALE
  5
4D
102
{ACAD_REACTORS
330
47
102
}
330
47
100
AcDbScale
 70
     0
300
1:10
140
1.0
141
10.0
290
     0
  0
SCALE
  5
4E
102
{ACAD_REACTORS
330
47
102
}
330
47
100
AcDbScale
 70
     0
300
1:16
140
1.0
141
16.0
290
     0
  0
SCALE
  5
4F
102
{ACAD_REACTORS
330
47
102
}
330
47
100
AcDbScale
 70
     0
300
1:20
140
1.0
141
20.0
290
     0
  0
SCALE
  5
50
102
{ACAD_REACTORS
330
47
102
}
330
47
100
AcDbScale
 70
     0
300
1:30
140
1.0
141
30.0
290
     0
  0
SCALE
  5
51
102
{ACAD_REACTORS
330
47
102
}
330
47
100
AcDbScale
 70
     0
300
1:40
140
1.0
141
40.0
290
     0
  0
SCALE
  5
52
102
{ACAD_REACTORS
330
47
102
}
330
47
100
AcDbScale
 70
     0
300
1:50
140
1.0
141
50.0
290
     0
  0
SCALE
  5
53
102
{ACAD_REACTORS
330
47
102
}
330
47
100
AcDbScale
 70
     0
300
1:100
140
1.0
141
100.0
290
     0
  0
SCALE
  5
54
102
{ACAD_REACTORS
330
47
102
}
330
47
100
AcDbScale
 70
     0
300
2:1
140
2.0
141
1.0
290
     0
  0
SCALE
  5
55
102
{ACAD_REACTORS
330
47
102
}
330
47
100
AcDbScale
 70
     0
300
4:1
140
4.0
141
1.0
290
     0
  0
SCALE
  5
56
102
{ACAD_REACTORS
330
47
102
}
330
47
100
AcDbScale
 70
     0
300
8:1
140
8.0
141
1.0
290
     0
  0
SCALE
  5
57
102
{ACAD_REACTORS
330
47
102
}
330
47
100
AcDbScale
 70
     0
300
10:1
140
10.0
141
1.0
290
     0
  0
SCALE
  5
58
102
{ACAD_REACTORS
330
47
102
}
330
47
100
AcDbScale
 70
     0
300
100:1
140
100.0
141
1.0
290
     0
  0
SCALE
  5
59
102
{ACAD_REACTORS
330
47
102
}
330
47
100
AcDbScale
 70
     0
300
1/128" = 1'-0"
140
0.0078125
141
12.0
290
     0
  0
SCALE
  5
5A
102
{ACAD_REACTORS
330
47
102
}
330
47
100
AcDbScale
 70
     0
300
1/64" = 1'-0"
140
0.015625
141
12.0
290
     0
  0
SCALE
  5
5B
102
{ACAD_REACTORS
330
47
102
}
330
47
100
AcDbScale
 70
     0
300
1/32" = 1'-0"
140
0.03125
141
12.0
290
     0
  0
SCALE
  5
5C
102
{ACAD_REACTORS
330
47
102
}
330
47
100
AcDbScale
 70
     0
300
1/16" = 1'-0"
140
0.0625
141
12.0
290
     0
  0
SCALE
  5
5D
102
{ACAD_REACTORS
330
47
102
}
330
47
100
AcDbScale
 70
     0
300
3/32" = 1'-0"
140
0.09375
141
12.0
290
     0
  0
SCALE
  5
5E
102
{ACAD_REACTORS
330
47
102
}
330
47
100
AcDbScale
 70
     0
300
1/8" = 1'-0"
140
0.125
141
12.0
290
     0
  0
SCALE
  5
5F
102
{ACAD_REACTORS
330
47
102
}
330
47
100
AcDbScale
 70
     0
300
3/16" = 1'-0"
140
0.1875
141
12.0
290
     0
  0
SCALE
  5
60
102
{ACAD_REACTORS
330
47
102
}
330
47
100
AcDbScale
 70
     0
300
1/4" = 1'-0"
140
0.25
141
12.0
290
     0
  0
SCALE
  5
61
102
{ACAD_REACTORS
330
47
102
}
330
47
100
AcDbScale
 70
     0
300
3/8" = 1'-0"
140
0.375
141
12.0
290
     0
  0
SCALE
  5
62
102
{ACAD_REACTORS
330
47
102
}
330
47
100
AcDbScale
 70
     0
300
1/2" = 1'-0"
140
0.5
141
12.0
290
     0
  0
SCALE
  5
63
102
{ACAD_REACTORS
330
47
102
}
330
47
100
AcDbScale
 70
     0
300
3/4" = 1'-0"
140
0.75
141
12.0
290
     0
  0
SCALE
  5
64
102
{ACAD_REACTORS
330
47
102
}
330
47
100
AcDbScale
 70
     0
300
1" = 1'-0"
140
1.0
141
12.0
290
     0
  0
SCALE
  5
65
102
{ACAD_REACTORS
330
47
102
}
330
47
100
AcDbScale
 70
     0
300
1-1/2" = 1'-0"
140
1.5
141
12.0
290
     0
  0
SCALE
  5
66
102
{ACAD_REACTORS
330
47
102
}
330
47
100
AcDbScale
 70
     0
300
3" = 1'-0"
140
3.0
141
12.0
290
     0
  0
SCALE
  5
67
102
{ACAD_REACTORS
330
47
102
}
330
47
100
AcDbScale
 70
     0
300
6" = 1'-0"
140
6.0
141
12.0
290
     0
  0
SCALE
  5
68
102
{ACAD_REACTORS
330
47
102
}
330
47
100
AcDbScale
 70
     0
300
1'-0" = 1'-0"
140
12.0
141
12.0
290
     0
  0
ENDSEC
  0
EOF
