  0
SECTION
  2
HEADER
  9
$ACADVER
  1
AC1015
  9
$ACADMAINTVER
 70
     6
  9
$DWGCODEPAGE
  3
DOS932
  9
$INSBASE
 10
0.0
 20
0.0
 30
0.0
  9
$EXTMIN
 10
0.0
 20
0.0
 30
0.0
  9
$EXTMAX
 10
1189.0
 20
841.0
 30
0.0
  9
$LIMMIN
 10
0.0
 20
0.0
  9
$LIMMAX
 10
1189.0
 20
841.0
  9
$ORTHOMODE
 70
     0
  9
$REGENMODE
 70
     1
  9
$FILLMODE
 70
     1
  9
$QTEXTMODE
 70
     0
  9
$MIRRTEXT
 70
     1
  9
$LTSCALE
 40
1.0
  9
$ATTMODE
 70
     1
  9
$TEXTSIZE
 40
4.0
  9
$TRACEWID
 40
1.0
  9
$TEXTSTYLE
  7
Standard
  9
$CLAYER
  8
0
  9
$CELTYPE
  6
ByLayer
  9
$CECOLOR
 62
   256
  9
$CELTSCALE
 40
1.0
  9
$DISPSILH
 70
     0
  9
$DIMSCALE
 40
1.0
  9
$DIMASZ
 40
3.0
  9
$DIMEXO
 40
0.0
  9
$DIMDLI
 40
3.75
  9
$DIMRND
 40
0.0
  9
$DIMDLE
 40
0.0
  9
$DIMEXE
 40
1.0
  9
$DIMTP
 40
0.0
  9
$DIMTM
 40
0.0
  9
$DIMTXT
 40
4.0
  9
$DIMCEN
 40
2.5
  9
$DIMTSZ
 40
0.0
  9
$DIMTOL
 70
     0
  9
$DIMLIM
 70
     0
  9
$DIMTIH
 70
     1
  9
$DIMTOH
 70
     1
  9
$DIMSE1
 70
     0
  9
$DIMSE2
 70
     0
  9
$DIMTAD
 70
     1
  9
$DIMZIN
 70
     0
  9
$DIMBLK
  1

  9
$DIMASO
 70
     1
  9
$DIMSHO
 70
     1
  9
$DIMPOST
  1

  9
$DIMAPOST
  1

  9
$DIMALT
 70
     0
  9
$DIMALTD
 70
     3
  9
$DIMALTF
 40
0.0393700787
  9
$DIMLFAC
 40
0.2
  9
$DIMTOFL
 70
     1
  9
$DIMTVP
 40
0.0
  9
$DIMTIX
 70
     0
  9
$DIMSOXD
 70
     0
  9
$DIMSAH
 70
     0
  9
$DIMBLK1
  1

  9
$DIMBLK2
  1

  9
$DIMSTYLE
  2
ISO-25
  9
$DIMCLRD
 70
     0
  9
$DIMCLRE
 70
     0
  9
$DIMCLRT
 70
     0
  9
$DIMTFAC
 40
1.0
  9
$DIMGAP
 40
1.0
  9
$DIMJUST
 70
     0
  9
$DIMSD1
 70
     0
  9
$DIMSD2
 70
     0
  9
$DIMTOLJ
 70
     0
  9
$DIMTZIN
 70
     0
  9
$DIMALTZ
 70
     0
  9
$DIMALTTZ
 70
     0
  9
$DIMUPT
 70
     0
  9
$DIMDEC
 70
     2
  9
$DIMTDEC
 70
     2
  9
$DIMALTU
 70
     2
  9
$DIMALTTD
 70
     3
  9
$DIMTXSTY
  7
Standard
  9
$DIMAUNIT
 70
     0
  9
$DIMADEC
 70
     2
  9
$DIMALTRND
 40
0.0
  9
$DIMAZIN
 70
     0
  9
$DIMDSEP
 70
    44
  9
$DIMATFIT
 70
     3
  9
$DIMFRAC
 70
     0
  9
$DIMLDRBLK
  1

  9
$DIMLUNIT
 70
     2
  9
$DIMLWD
 70
    -2
  9
$DIMLWE
 70
    -2
  9
$DIMTMOVE
 70
     0
  9
$LUNITS
 70
     2
  9
$LUPREC
 70
     2
  9
$SKETCHINC
 40
1.0
  9
$FILLETRAD
 40
0.0
  9
$AUNITS
 70
     0
  9
$AUPREC
 70
     2
  9
$MENU
  1
.
  9
$ELEVATION
 40
0.0
  9
$PELEVATION
 40
0.0
  9
$THICKNESS
 40
0.0
  9
$LIMCHECK
 70
     0
  9
$CHAMFERA
 40
0.0
  9
$CHAMFERB
 40
0.0
  9
$CHAMFERC
 40
0.0
  9
$CHAMFERD
 40
0.0
  9
$SKPOLY
 70
     0
  9
$TDCREATE
 40
2460200.620150648
  9
$TDUCREATE
 40
2460200.245150648
  9
$TDUPDATE
 40
2460200.620151875
  9
$TDUUPDATE
 40
2460200.245151875
  9
$TDINDWG
 40
0.0000000116
  9
$TDUSRTIMER
 40
0.0000000116
  9
$USRTIMER
 70
     1
  9
$ANGBASE
 50
0.0
  9
$ANGDIR
 70
     0
  9
$PDMODE
 70
     0
  9
$PDSIZE
 40
-1.0
  9
$PLINEWID
 40
0.0
  9
$SPLFRAME
 70
     0
  9
$SPLINETYPE
 70
     6
  9
$SPLINESEGS
 70
     8
  9
$HANDSEED
  5
413
  9
$SURFTAB1
 70
     6
  9
$SURFTAB2
 70
     6
  9
$SURFTYPE
 70
     6
  9
$SURFU
 70
     6
  9
$SURFV
 70
     6
  9
$UCSBASE
  2

  9
$UCSNAME
  2

  9
$UCSORG
 10
0.0
 20
0.0
 30
0.0
  9
$UCSXDIR
 10
1.0
 20
0.0
 30
0.0
  9
$UCSYDIR
 10
0.0
 20
1.0
 30
0.0
  9
$UCSORTHOREF
  2

  9
$UCSORTHOVIEW
 70
     0
  9
$UCSORGTOP
 10
0.0
 20
0.0
 30
0.0
  9
$UCSORGBOTTOM
 10
0.0
 20
0.0
 30
0.0
  9
$UCSORGLEFT
 10
0.0
 20
0.0
 30
0.0
  9
$UCSORGRIGHT
 10
0.0
 20
0.0
 30
0.0
  9
$UCSORGFRONT
 10
0.0
 20
0.0
 30
0.0
  9
$UCSORGBACK
 10
0.0
 20
0.0
 30
0.0
  9
$PUCSBASE
  2

  9
$PUCSNAME
  2

  9
$PUCSORG
 10
0.0
 20
0.0
 30
0.0
  9
$PUCSXDIR
 10
1.0
 20
0.0
 30
0.0
  9
$PUCSYDIR
 10
0.0
 20
1.0
 30
0.0
  9
$PUCSORTHOREF
  2

  9
$PUCSORTHOVIEW
 70
     0
  9
$PUCSORGTOP
 10
0.0
 20
0.0
 30
0.0
  9
$PUCSORGBOTTOM
 10
0.0
 20
0.0
 30
0.0
  9
$PUCSORGLEFT
 10
0.0
 20
0.0
 30
0.0
  9
$PUCSORGRIGHT
 10
0.0
 20
0.0
 30
0.0
  9
$PUCSORGFRONT
 10
0.0
 20
0.0
 30
0.0
  9
$PUCSORGBACK
 10
0.0
 20
0.0
 30
0.0
  9
$USERI1
 70
     0
  9
$USERI2
 70
     0
  9
$USERI3
 70
     0
  9
$USERI4
 70
     0
  9
$USERI5
 70
     0
  9
$USERR1
 40
0.0
  9
$USERR2
 40
0.0
  9
$USERR3
 40
0.0
  9
$USERR4
 40
0.0
  9
$USERR5
 40
0.0
  9
$WORLDVIEW
 70
     1
  9
$SHADEDGE
 70
     3
  9
$SHADEDIF
 70
    70
  9
$TILEMODE
 70
     1
  9
$MAXACTVP
 70
    64
  9
$PINSBASE
 10
0.0
 20
0.0
 30
0.0
  9
$PLIMCHECK
 70
     0
  9
$PEXTMIN
 10
1.0000000000E+20
 20
1.0000000000E+20
 30
1.0000000000E+20
  9
$PEXTMAX
 10
-1.0000000000E+20
 20
-1.0000000000E+20
 30
-1.0000000000E+20
  9
$PLIMMIN
 10
0.0
 20
0.0
  9
$PLIMMAX
 10
420.0
 20
297.0
  9
$UNITMODE
 70
     0
  9
$VISRETAIN
 70
     1
  9
$PLINEGEN
 70
     0
  9
$PSLTSCALE
 70
     1
  9
$TREEDEPTH
 70
  3020
  9
$CMLSTYLE
  2
Standard
  9
$CMLJUST
 70
     0
  9
$CMLSCALE
 40
20.0
  9
$PROXYGRAPHICS
 70
     1
  9
$MEASUREMENT
 70
     1
  9
$CELWEIGHT
370
    -1
  9
$ENDCAPS
280
     0
  9
$JOINSTYLE
280
     0
  9
$LWDISPLAY
290
     1
  9
$INSUNITS
 70
     4
  9
$HYPERLINKBASE
  1

  9
$STYLESHEET
  1

  9
$XEDIT
290
     1
  9
$CEPSNTYPE
380
     0
  9
$PSTYLEMODE
290
     1
  9
$FINGERPRINTGUID
  2
{d15acbb4-10bc-416f-a9e6-70610f3290dd}
  9
$VERSIONGUID
  2
{FAEB1C32-E019-11D5-929B-00C0DF256EC4}
  9
$EXTNAMES
290
     1
  9
$PSVPSCALE
 40
0.0
  9
$OLESTARTUP
290
     0
  0
ENDSEC
  0
SECTION
  2
CLASSES
  0
CLASS
  1
ACDBDICTIONARYWDFLT
  2
AcDbDictionaryWithDefault
  3
ObjectDBX Classes
 90
        0
280
     0
281
     0
  0
CLASS
  1
VISUALSTYLE
  2
AcDbVisualStyle
  3
ObjectDBX Classes
 90
     4095
280
     0
281
     0
  0
CLASS
  1
MATERIAL
  2
AcDbMaterial
  3
ObjectDBX Classes
 90
     1153
280
     0
281
     0
  0
CLASS
  1
SCALE
  2
AcDbScale
  3
ObjectDBX Classes
 90
     1153
280
     0
281
     0
  0
CLASS
  1
TABLESTYLE
  2
AcDbTableStyle
  3
ObjectDBX Classes
 90
     4095
280
     0
281
     0
  0
CLASS
  1
MLEADERSTYLE
  2
AcDbMLeaderStyle
  3
ACDB_MLEADERSTYLE_CLASS
 90
     4095
280
     0
281
     0
  0
CLASS
  1
SUN
  2
AcDbSun
  3
SCENEOE
 90
     1153
280
     0
281
     0
  0
CLASS
  1
ACDBPLACEHOLDER
  2
AcDbPlaceHolder
  3
ObjectDBX Classes
 90
        0
280
     0
281
     0
  0
CLASS
  1
LAYOUT
  2
AcDbLayout
  3
ObjectDBX Classes
 90
        0
280
     0
281
     0
  0
ENDSEC
  0
SECTION
  2
TABLES
  0
TABLE
  2
VPORT
  5
8
330
0
100
AcDbSymbolTable
 70
     1
  0
VPORT
  5
29
330
8
100
AcDbSymbolTableRecord
100
AcDbViewportTableRecord
  2
*Active
 70
     0
 10
0.0
 20
0.0
 11
1.0
 21
1.0
 12
594.5
 22
420.5
 13
0.0
 23
0.0
 14
10.0
 24
10.0
 15
10.0
 25
10.0
 16
0.0
 26
0.0
 36
1.0
 17
0.0
 27
0.0
 37
0.0
 40
841.0
 41
1.4137931034
 42
50.0
 43
0.0
 44
0.0
 50
0.0
 51
0.0
 71
     0
 72
  2000
 73
     1
 74
     3
 75
     0
 76
     0
 77
     0
 78
     0
281
     0
 65
     1
110
0.0
120
0.0
130
0.0
111
1.0
121
0.0
131
0.0
112
0.0
122
1.0
132
0.0
 79
     0
146
0.0
  0
ENDTAB
  0
TABLE
  2
LTYPE
  5
5
330
0
100
AcDbSymbolTable
 70
     6
  0
LTYPE
  5
14
330
5
100
AcDbSymbolTableRecord
100
AcDbLinetypeTableRecord
  2
ByBlock
 70
     0
  3

 72
    65
 73
     0
 40
0.0
  0
LTYPE
  5
15
330
5
100
AcDbSymbolTableRecord
100
AcDbLinetypeTableRecord
  2
ByLayer
 70
     0
  3

 72
    65
 73
     0
 40
0.0
  0
LTYPE
  5
16
330
5
100
AcDbSymbolTableRecord
100
AcDbLinetypeTableRecord
  2
Continuous
 70
     0
  3
Solid line
 72
    65
 73
     0
 40
0.0
  0
LTYPE
  5
5E
330
5
100
AcDbSymbolTableRecord
100
AcDbLinetypeTableRecord
  2
HIDDEN
 70
     0
  3
Hidden __ __ __ __ __ __ __ __ __ __ __ __ __ __
 72
    65
 73
     2
 40
1.905
 49
1.27
 74
     0
 49
-0.635
 74
     0
  0
LTYPE
  5
5F
330
5
100
AcDbSymbolTableRecord
100
AcDbLinetypeTableRecord
  2
PHANTOM
 70
     0
  3
Phantom ______  __  __  ______  __  __  ______
 72
    65
 73
     6
 40
12.7
 49
6.35
 74
     0
 49
-1.27
 74
     0
 49
1.27
 74
     0
 49
-1.27
 74
     0
 49
1.27
 74
     0
 49
-1.27
 74
     0
  0
LTYPE
  5
60
330
5
100
AcDbSymbolTableRecord
100
AcDbLinetypeTableRecord
  2
CENTER
 70
     0
  3
Center ____ _ ____ _ ____ _ ____ _ ____ _ ____
 72
    65
 73
     4
 40
10.16
 49
6.35
 74
     0
 49
-1.27
 74
     0
 49
1.27
 74
     0
 49
-1.27
 74
     0
  0
LTYPE
  5
61
330
5
100
AcDbSymbolTableRecord
100
AcDbLinetypeTableRecord
  2
CENTERX2
 70
     0
  3
Center (2x) ________  __  ________  __  _____
 72
    65
 73
     4
 40
20.32
 49
12.7
 74
     0
 49
-2.54
 74
     0
 49
2.54
 74
     0
 49
-2.54
 74
     0
  0
LTYPE
  5
62
330
5
100
AcDbSymbolTableRecord
100
AcDbLinetypeTableRecord
  2
DOT2
 70
     0
  3
Dot (.5x) ........................................
 72
    65
 73
     2
 40
0.635
 49
0.0
 74
     0
 49
-0.635
 74
     0
  0
ENDTAB
  0
TABLE
  2
LAYER
  5
2
330
0
100
AcDbSymbolTable
 70
     6
  0
LAYER
  5
10
330
2
100
AcDbSymbolTableRecord
100
AcDbLayerTableRecord
  2
0
 70
     0
 62
     7
  6
Continuous
370
    -3
390
F
  0
LAYER
  5
63
330
2
100
AcDbSymbolTableRecord
100
AcDbLayerTableRecord
  2
SLD-0
 70
     0
 62
     7
  6
Continuous
370
    -3
390
F
  0
LAYER
  5
64
330
2
100
AcDbSymbolTableRecord
100
AcDbLayerTableRecord
  2
8
 70
     0
 62
     7
  6
Continuous
370
    25
390
F
  0
LAYER
  5
65
330
2
100
AcDbSymbolTableRecord
100
AcDbLayerTableRecord
  2
9
 70
     0
 62
     7
  6
Continuous
370
    -3
390
F
  0
LAYER
  5
66
330
2
100
AcDbSymbolTableRecord
100
AcDbLayerTableRecord
  2
10
 70
     0
 62
     1
  6
Continuous
370
    -3
390
F
  0
LAYER
  5
67
330
2
100
AcDbSymbolTableRecord
100
AcDbLayerTableRecord
  2
11
 70
     0
 62
     7
  6
Continuous
370
    -3
390
F
  0
ENDTAB
  0
TABLE
  2
STYLE
  5
3
330
0
100
AcDbSymbolTable
 70
     2
  0
STYLE
  5
11
330
3
100
AcDbSymbolTableRecord
100
AcDbTextStyleTableRecord
  2
Standard
 70
     0
 40
0.0
 41
1.0
 50
0.0
 71
     0
 42
4.0
  3
txt
  4
bigfont
  0
STYLE
  5
72
330
3
100
AcDbSymbolTableRecord
100
AcDbTextStyleTableRecord
  2
SLDTEXTSTYLE0
 70
     0
 40
0.0
 41
0.7
 50
0.0
 71
     0
 42
4.0
  3
TXT
  4
bigfont
  0
ENDTAB
  0
TABLE
  2
VIEW
  5
6
330
0
100
AcDbSymbolTable
 70
     0
  0
ENDTAB
  0
TABLE
  2
UCS
  5
7
330
0
100
AcDbSymbolTable
 70
     0
  0
ENDTAB
  0
TABLE
  2
APPID
  5
9
330
0
100
AcDbSymbolTable
 70
     1
  0
APPID
  5
12
330
9
100
AcDbSymbolTableRecord
100
AcDbRegAppTableRecord
  2
ACAD
 70
     0
  0
ENDTAB
  0
TABLE
  2
DIMSTYLE
  5
A
330
0
100
AcDbSymbolTable
 70
     1
100
AcDbDimStyleTable
  0
DIMSTYLE
105
27
330
A
100
AcDbSymbolTableRecord
100
AcDbDimStyleTableRecord
  2
ISO-25
 70
     0
 41
2.5
 42
0.625
 43
3.75
 44
1.25
 73
     0
 74
     0
 77
     1
 78
     8
140
2.5
141
2.5
143
0.0393700787
147
0.625
171
     3
172
     1
178
     0
271
     2
272
     2
274
     3
278
    44
283
     0
284
     8
340
11
  0
ENDTAB
  0
TABLE
  2
BLOCK_RECORD
  5
1
330
0
100
AcDbSymbolTable
 70
     4
  0
BLOCK_RECORD
  5
1F
330
1
100
AcDbSymbolTableRecord
100
AcDbBlockTableRecord
  2
*Model_Space
340
22
  0
BLOCK_RECORD
  5
1B
330
1
100
AcDbSymbolTableRecord
100
AcDbBlockTableRecord
  2
*Paper_Space
340
1E
  0
BLOCK_RECORD
  5
23
330
1
100
AcDbSymbolTableRecord
100
AcDbBlockTableRecord
  2
*Paper_Space0
340
26
  0
BLOCK_RECORD
  5
68
330
1
100
AcDbSymbolTableRecord
100
AcDbBlockTableRecord
  2
ﾌﾞﾛｯｸ2
340
0
102
{BLKREFS
331
166
102
}
  0
BLOCK_RECORD
  5
7A
330
1
100
AcDbSymbolTableRecord
100
AcDbBlockTableRecord
  2
新SUGATSUNEロゴ
340
0
102
{BLKREFS
331
165
102
}
  0
BLOCK_RECORD
  5
158
330
1
100
AcDbSymbolTableRecord
100
AcDbBlockTableRecord
  2
ﾌﾞﾛｯｸ1
340
0
102
{BLKREFS
331
164
102
}
  0
ENDTAB
  0
ENDSEC
  0
SECTION
  2
BLOCKS
  0
BLOCK
  5
20
330
1F
100
AcDbEntity
  8
0
100
AcDbBlockBegin
  2
*Model_Space
 70
     0
 10
0.0
 20
0.0
 30
0.0
  3
*Model_Space
  1

  0
ENDBLK
  5
21
330
1F
100
AcDbEntity
  8
0
100
AcDbBlockEnd
  0
BLOCK
  5
1C
330
1B
100
AcDbEntity
 67
     1
  8
0
100
AcDbBlockBegin
  2
*Paper_Space
 70
     0
 10
0.0
 20
0.0
 30
0.0
  3
*Paper_Space
  1

  0
ENDBLK
  5
1D
330
1B
100
AcDbEntity
 67
     1
  8
0
100
AcDbBlockEnd
  0
BLOCK
  5
24
330
23
100
AcDbEntity
  8
0
100
AcDbBlockBegin
  2
*Paper_Space0
 70
     0
 10
0.0
 20
0.0
 30
0.0
  3
*Paper_Space0
  1

  0
ENDBLK
  5
25
330
23
100
AcDbEntity
  8
0
100
AcDbBlockEnd
  0
BLOCK
  5
69
330
68
100
AcDbEntity
  8
0
100
AcDbBlockBegin
  2
ﾌﾞﾛｯｸ2
 70
     2
 10
0.0
 20
0.0
 30
0.0
  3
ﾌﾞﾛｯｸ2
  1

  0
LINE
  5
6B
330
68
100
AcDbEntity
  8
8
100
AcDbLine
 10
0.0
 20
21.0
 30
0.0
 11
135.0
 21
21.0
 31
0.0
  0
LINE
  5
6C
330
68
100
AcDbEntity
  8
8
100
AcDbLine
 10
0.0
 20
0.0
 30
0.0
 11
135.0
 21
0.0
 31
0.0
  0
LINE
  5
6D
330
68
100
AcDbEntity
  8
8
100
AcDbLine
 10
135.0
 20
21.0
 30
0.0
 11
135.0
 21
0.0
 31
0.0
  0
LINE
  5
6E
330
68
100
AcDbEntity
  8
9
100
AcDbLine
 10
36.0
 20
7.0
 30
0.0
 11
135.0
 21
7.0
 31
0.0
  0
LINE
  5
6F
330
68
100
AcDbEntity
  8
9
100
AcDbLine
 10
36.0
 20
0.0
 30
0.0
 11
36.0
 21
21.0
 31
0.0
  0
LINE
  5
70
330
68
100
AcDbEntity
  8
9
100
AcDbLine
 10
65.0
 20
21.0
 30
0.0
 11
65.0
 21
0.0
 31
0.0
  0
LINE
  5
71
330
68
100
AcDbEntity
  8
8
  6
Continuous
 62
     7
100
AcDbLine
 10
0.0
 20
21.0
 30
0.0
 11
0.0
 21
0.0
 31
0.0
  0
ATTDEF
  5
73
330
68
100
AcDbEntity
  8
SLD-0
 62
     7
100
AcDbText
 10
78.3050930978
 20
15.1674944846
 30
0.0
 40
4.0
  1
J95SC-0GR,J95SC-0NI
 41
0.7
  7
SLDTEXTSTYLE0
 11
78.3050930978
 21
19.1674944846
 31
0.0
100
AcDbAttributeDefinition
  3

  2
AUTOATTR0
 70
     0
 74
     3
  0
ATTDEF
  5
74
330
68
100
AcDbEntity
  8
SLD-0
 62
     7
100
AcDbText
 10
78.3050930978
 20
9.1199365041
 30
0.0
 40
4.0
  1
J95SC-0BN
 41
0.7
  7
SLDTEXTSTYLE0
 11
78.3050930978
 21
13.1199365041
 31
0.0
100
AcDbAttributeDefinition
  3

  2
AUTOATTR0
 70
     0
 74
     3
  0
ATTDEF
  5
75
330
68
100
AcDbEntity
  8
SLD-0
 62
     7
100
AcDbText
 10
66.9646413579
 20
16.3913621251
 30
0.0
 40
2.38125
  1
Title
 41
0.7
  7
SLDTEXTSTYLE0
 11
66.9646413579
 21
18.7726121251
 31
0.0
100
AcDbAttributeDefinition
  3

  2
AUTOATTR0
 70
     0
 74
     3
  0
ATTDEF
  5
76
330
68
100
AcDbEntity
  8
SLD-0
 62
     7
100
AcDbText
 10
66.9646413579
 20
2.0000964735
 30
0.0
 40
2.38125
  1
Date
 41
0.7
  7
SLDTEXTSTYLE0
 11
66.9646413579
 21
4.3813464735
 31
0.0
100
AcDbAttributeDefinition
  3

  2
AUTOATTR0
 70
     0
 74
     3
  0
ATTDEF
  5
77
330
68
100
AcDbEntity
  8
SLD-0
 62
     7
100
AcDbText
 10
51.857512217
 20
1.2697526003
 30
0.0
 40
4.0
  1
5:1
 41
0.7
  7
SLDTEXTSTYLE0
 11
51.857512217
 21
5.2697526003
 31
0.0
100
AcDbAttributeDefinition
  3

  2
AUTOATTR0
 70
     0
 74
     3
  0
ATTDEF
  5
78
330
68
100
AcDbEntity
  8
SLD-0
 62
     7
100
AcDbText
 10
38.4275608796
 20
2.0000964735
 30
0.0
 40
2.38125
  1
Scale
 41
0.7
  7
SLDTEXTSTYLE0
 11
38.4275608796
 21
4.3813464735
 31
0.0
100
AcDbAttributeDefinition
  3

  2
AUTOATTR0
 70
     0
 74
     3
  0
ATTDEF
  5
79
330
68
100
AcDbEntity
  8
SLD-0
 62
     7
100
AcDbText
 10
0.0
 20
0.0
 30
0.0
 40
4.0
  1

100
AcDbAttributeDefinition
  3

  2
AUTOATTR0
 70
     0
  0
INSERT
  5
164
330
68
100
AcDbEntity
  8
0
  6
Continuous
 62
     7
100
AcDbBlockReference
  2
ﾌﾞﾛｯｸ1
 10
39.5300077037
 20
10.3519919558
 30
0.0
  0
INSERT
  5
165
330
68
100
AcDbEntity
  8
0
  6
Continuous
 62
     7
100
AcDbBlockReference
  2
新SUGATSUNEロゴ
 10
0.0273220162
 20
-1.67308293
 30
0.0
  0
ENDBLK
  5
6A
330
68
100
AcDbEntity
  8
0
100
AcDbBlockEnd
  0
BLOCK
  5
7B
330
7A
100
AcDbEntity
  8
0
100
AcDbBlockBegin
  2
新SUGATSUNEロゴ
 70
     0
 10
0.0
 20
0.0
 30
0.0
  3
新SUGATSUNEロゴ
  1

  0
LINE
  5
7D
330
7A
100
AcDbEntity
  8
0
100
AcDbLine
 10
32.7336985468
 20
9.4483046908
 30
0.0
 11
31.5209513067
 21
9.4483046908
 31
0.0
  0
LINE
  5
7E
330
7A
100
AcDbEntity
  8
0
100
AcDbLine
 10
31.5209513067
 20
9.4483046908
 30
0.0
 11
31.5209513067
 21
11.8677744187
 31
0.0
  0
LINE
  5
7F
330
7A
100
AcDbEntity
  8
0
100
AcDbLine
 10
31.5209513067
 20
11.8677744187
 30
0.0
 11
32.484911708
 21
11.8677744187
 31
0.0
  0
LINE
  5
80
330
7A
100
AcDbEntity
  8
0
100
AcDbLine
 10
32.484911708
 20
11.8677744187
 30
0.0
 11
32.484911708
 21
12.7076957977
 31
0.0
  0
LINE
  5
81
330
7A
100
AcDbEntity
  8
0
100
AcDbLine
 10
32.484911708
 20
12.7076957977
 30
0.0
 11
31.5209513067
 21
12.7076957977
 31
0.0
  0
LINE
  5
82
330
7A
100
AcDbEntity
  8
0
100
AcDbLine
 10
31.5209513067
 20
12.7076957977
 30
0.0
 11
31.5209513067
 21
14.492440129
 31
0.0
  0
LINE
  5
83
330
7A
100
AcDbEntity
  8
0
100
AcDbLine
 10
31.5209513067
 20
14.492440129
 30
0.0
 11
32.5596186391
 21
14.492440129
 31
0.0
  0
LINE
  5
84
330
7A
100
AcDbEntity
  8
0
100
AcDbLine
 10
32.5596186391
 20
14.492440129
 30
0.0
 11
32.5596186391
 21
15.3325032669
 31
0.0
  0
LINE
  5
85
330
7A
100
AcDbEntity
  8
0
100
AcDbLine
 10
32.5596186391
 20
15.3325032669
 30
0.0
 11
30.6808881687
 21
15.3325032669
 31
0.0
  0
LINE
  5
86
330
7A
100
AcDbEntity
  8
0
100
AcDbLine
 10
30.6808881687
 20
15.3325032669
 30
0.0
 11
30.6808881687
 21
8.5904508131
 31
0.0
  0
LINE
  5
87
330
7A
100
AcDbEntity
  8
0
100
AcDbLine
 10
30.6808881687
 20
8.5904508131
 30
0.0
 11
32.7336985468
 21
8.5896002598
 31
0.0
  0
LINE
  5
88
330
7A
100
AcDbEntity
  8
0
100
AcDbLine
 10
32.7336985468
 20
8.5896002598
 30
0.0
 11
32.7336985468
 21
9.4483046908
 31
0.0
  0
LINE
  5
89
330
7A
100
AcDbEntity
  8
0
100
AcDbLine
 10
21.049364412
 20
15.3325032669
 30
0.0
 11
18.7355759311
 21
15.3325032669
 31
0.0
  0
LINE
  5
8A
330
7A
100
AcDbEntity
  8
0
100
AcDbLine
 10
18.7355759311
 20
15.3325032669
 30
0.0
 11
18.7355759311
 21
14.492440129
 31
0.0
  0
LINE
  5
8B
330
7A
100
AcDbEntity
  8
0
100
AcDbLine
 10
18.7355759311
 20
14.492440129
 30
0.0
 11
19.4922848461
 21
14.492440129
 31
0.0
  0
LINE
  5
8C
330
7A
100
AcDbEntity
  8
0
100
AcDbLine
 10
19.4922848461
 20
14.492440129
 30
0.0
 11
19.4922848461
 21
8.5904508131
 31
0.0
  0
LINE
  5
8D
330
7A
100
AcDbEntity
  8
0
100
AcDbLine
 10
19.4922848461
 20
8.5904508131
 30
0.0
 11
20.3323479841
 21
8.5904508131
 31
0.0
  0
LINE
  5
8E
330
7A
100
AcDbEntity
  8
0
100
AcDbLine
 10
20.3323479841
 20
8.5904508131
 30
0.0
 11
20.3323479841
 21
14.492440129
 31
0.0
  0
LINE
  5
8F
330
7A
100
AcDbEntity
  8
0
100
AcDbLine
 10
20.3323479841
 20
14.492440129
 30
0.0
 11
21.049364412
 21
14.492440129
 31
0.0
  0
LINE
  5
90
330
7A
100
AcDbEntity
  8
0
100
AcDbLine
 10
21.049364412
 20
14.492440129
 30
0.0
 11
21.049364412
 21
15.3325032669
 31
0.0
  0
LINE
  5
91
330
7A
100
AcDbEntity
  8
0
100
AcDbLine
 10
29.175550595
 20
15.3418593532
 30
0.0
 11
29.175550595
 21
10.4115562977
 31
0.0
  0
LINE
  5
92
330
7A
100
AcDbEntity
  8
0
100
AcDbLine
 10
29.175550595
 20
10.4115562977
 30
0.0
 11
28.3179093556
 21
15.3418593532
 31
0.0
  0
LINE
  5
93
330
7A
100
AcDbEntity
  8
0
100
AcDbLine
 10
28.3179093556
 20
15.3418593532
 30
0.0
 11
26.9115194818
 21
15.3418593532
 31
0.0
  0
LINE
  5
94
330
7A
100
AcDbEntity
  8
0
100
AcDbLine
 10
26.9115194818
 20
15.3418593532
 30
0.0
 11
26.9115194818
 21
8.5904508131
 31
0.0
  0
LINE
  5
95
330
7A
100
AcDbEntity
  8
0
100
AcDbLine
 10
26.9115194818
 20
8.5904508131
 30
0.0
 11
27.7517243787
 21
8.5904508131
 31
0.0
  0
LINE
  5
96
330
7A
100
AcDbEntity
  8
0
100
AcDbLine
 10
27.7517243787
 20
8.5904508131
 30
0.0
 11
27.7517243787
 21
13.7348097812
 31
0.0
  0
LINE
  5
97
330
7A
100
AcDbEntity
  8
0
100
AcDbLine
 10
27.7517243787
 20
13.7348097812
 30
0.0
 11
28.6387097068
 21
8.5883244299
 31
0.0
  0
LINE
  5
98
330
7A
100
AcDbEntity
  8
0
100
AcDbLine
 10
28.6387097068
 20
8.5883244299
 30
0.0
 11
30.0157554918
 21
8.5904508131
 31
0.0
  0
LINE
  5
99
330
7A
100
AcDbEntity
  8
0
100
AcDbLine
 10
30.0157554918
 20
8.5904508131
 30
0.0
 11
30.0157554918
 21
15.3418593532
 31
0.0
  0
LINE
  5
9A
330
7A
100
AcDbEntity
  8
0
100
AcDbLine
 10
30.0157554918
 20
15.3418593532
 30
0.0
 11
29.175550595
 21
15.3418593532
 31
0.0
  0
LINE
  5
9B
330
7A
100
AcDbEntity
  8
0
100
AcDbLine
 10
3.3854988525
 20
9.4534080106
 30
0.0
 11
3.292575905
 21
9.4549673583
 31
0.0
  0
LINE
  5
9C
330
7A
100
AcDbEntity
  8
0
100
AcDbLine
 10
3.292575905
 20
9.4549673583
 30
0.0
 11
3.292575905
 21
8.5959794095
 31
0.0
  0
LINE
  5
9D
330
7A
100
AcDbEntity
  8
0
100
AcDbLine
 10
3.292575905
 20
8.5959794095
 30
0.0
 11
3.4568035704
 21
8.5959794095
 31
0.0
  0
LINE
  5
9E
330
7A
100
AcDbEntity
  8
0
100
AcDbLine
 10
4.9498790008
 20
9.2970479632
 30
0.0
 11
4.9498790008
 21
9.2973314809
 31
0.0
  0
LINE
  5
9F
330
7A
100
AcDbEntity
  8
0
100
AcDbLine
 10
4.9498790008
 20
14.5159721035
 30
0.0
 11
4.9498790008
 21
15.3285340182
 31
0.0
  0
LINE
  5
A0
330
7A
100
AcDbEntity
  8
0
100
AcDbLine
 10
4.9498790008
 20
15.3285340182
 30
0.0
 11
4.6043417246
 21
15.3285340182
 31
0.0
  0
LINE
  5
A1
330
7A
100
AcDbEntity
  8
0
100
AcDbLine
 10
21.230390505
 20
9.4534080106
 30
0.0
 11
21.1375384369
 21
9.4549673583
 31
0.0
  0
LINE
  5
A2
330
7A
100
AcDbEntity
  8
0
100
AcDbLine
 10
21.1375384369
 20
9.4549673583
 30
0.0
 11
21.1375384369
 21
8.5959794095
 31
0.0
  0
LINE
  5
A3
330
7A
100
AcDbEntity
  8
0
100
AcDbLine
 10
21.1375384369
 20
8.5959794095
 30
0.0
 11
21.301553464
 21
8.5959794095
 31
0.0
  0
LINE
  5
A4
330
7A
100
AcDbEntity
  8
0
100
AcDbLine
 10
22.7946997739
 20
9.2970479632
 30
0.0
 11
22.7946997739
 21
9.2973314809
 31
0.0
  0
LINE
  5
A5
330
7A
100
AcDbEntity
  8
0
100
AcDbLine
 10
22.7946997739
 20
14.5159721035
 30
0.0
 11
22.7946997739
 21
15.3285340182
 31
0.0
  0
LINE
  5
A6
330
7A
100
AcDbEntity
  8
0
100
AcDbLine
 10
22.7946997739
 20
15.3285340182
 30
0.0
 11
22.4490916182
 21
15.3285340182
 31
0.0
  0
LINE
  5
A7
330
7A
100
AcDbEntity
  8
0
 62
     1
100
AcDbLine
 10
12.1710764777
 20
17.9278248886
 30
0.0
 11
9.7662787942
 21
17.9278248886
 31
0.0
  0
LINE
  5
A8
330
7A
100
AcDbEntity
  8
0
 62
     1
100
AcDbLine
 10
9.7662787942
 20
17.9278248886
 30
0.0
 11
9.7662787942
 21
20.3329060898
 31
0.0
  0
LINE
  5
A9
330
7A
100
AcDbEntity
  8
0
 62
     1
100
AcDbLine
 10
9.7662787942
 20
20.3329060898
 30
0.0
 11
12.1710764777
 21
20.3329060898
 31
0.0
  0
LINE
  5
AA
330
7A
100
AcDbEntity
  8
0
 62
     1
100
AcDbLine
 10
12.1710764777
 20
20.3329060898
 30
0.0
 11
12.1710764777
 21
17.9278248886
 31
0.0
  0
LINE
  5
AB
330
7A
100
AcDbEntity
  8
0
 62
     1
100
AcDbLine
 10
12.1710764777
 20
3.67
 30
0.0
 11
9.7662787942
 21
3.67
 31
0.0
  0
LINE
  5
AC
330
7A
100
AcDbEntity
  8
0
 62
     1
100
AcDbLine
 10
9.7662787942
 20
3.67
 30
0.0
 11
9.7662787942
 21
6.0749394424
 31
0.0
  0
LINE
  5
AD
330
7A
100
AcDbEntity
  8
0
 62
     1
100
AcDbLine
 10
9.7662787942
 20
6.0749394424
 30
0.0
 11
12.1710764777
 21
6.0749394424
 31
0.0
  0
LINE
  5
AE
330
7A
100
AcDbEntity
  8
0
 62
     1
100
AcDbLine
 10
12.1710764777
 20
6.0749394424
 30
0.0
 11
12.1710764777
 21
3.67
 31
0.0
  0
LINE
  5
AF
330
7A
100
AcDbEntity
  8
0
 62
     1
100
AcDbLine
 10
25.8269222715
 20
17.9278248886
 30
0.0
 11
23.422124588
 21
17.9278248886
 31
0.0
  0
LINE
  5
B0
330
7A
100
AcDbEntity
  8
0
 62
     1
100
AcDbLine
 10
23.422124588
 20
17.9278248886
 30
0.0
 11
23.422124588
 21
20.3329060898
 31
0.0
  0
LINE
  5
B1
330
7A
100
AcDbEntity
  8
0
 62
     1
100
AcDbLine
 10
23.422124588
 20
20.3329060898
 30
0.0
 11
25.8269222715
 21
20.3329060898
 31
0.0
  0
LINE
  5
B2
330
7A
100
AcDbEntity
  8
0
 62
     1
100
AcDbLine
 10
25.8269222715
 20
20.3329060898
 30
0.0
 11
25.8269222715
 21
17.9278248886
 31
0.0
  0
LINE
  5
B3
330
7A
100
AcDbEntity
  8
0
 62
     1
100
AcDbLine
 10
25.8269222715
 20
3.67
 30
0.0
 11
23.422124588
 21
3.67
 31
0.0
  0
LINE
  5
B4
330
7A
100
AcDbEntity
  8
0
 62
     1
100
AcDbLine
 10
23.422124588
 20
3.67
 30
0.0
 11
23.422124588
 21
6.0749394424
 31
0.0
  0
LINE
  5
B5
330
7A
100
AcDbEntity
  8
0
 62
     1
100
AcDbLine
 10
23.422124588
 20
6.0749394424
 30
0.0
 11
25.8269222715
 21
6.0749394424
 31
0.0
  0
LINE
  5
B6
330
7A
100
AcDbEntity
  8
0
 62
     1
100
AcDbLine
 10
25.8269222715
 20
6.0749394424
 30
0.0
 11
25.8269222715
 21
3.67
 31
0.0
  0
LINE
  5
B7
330
7A
100
AcDbEntity
  8
0
100
AcDbLine
 10
8.2465526938
 20
15.3418593532
 30
0.0
 11
7.4064186764
 21
15.3418593532
 31
0.0
  0
LINE
  5
B8
330
7A
100
AcDbEntity
  8
0
100
AcDbLine
 10
7.4064186764
 20
15.3418593532
 30
0.0
 11
7.4025203072
 21
9.7790281638
 31
0.0
  0
LINE
  5
B9
330
7A
100
AcDbEntity
  8
0
100
AcDbLine
 10
6.5577791261
 20
9.7866831435
 30
0.0
 11
6.554873069
 21
15.3418593532
 31
0.0
  0
LINE
  5
BA
330
7A
100
AcDbEntity
  8
0
100
AcDbLine
 10
6.554873069
 20
15.3418593532
 30
0.0
 11
5.7147390516
 21
15.3418593532
 31
0.0
  0
LINE
  5
BB
330
7A
100
AcDbEntity
  8
0
100
AcDbLine
 10
26.1769249525
 20
15.3418593532
 30
0.0
 11
25.3368618145
 21
15.3418593532
 31
0.0
  0
LINE
  5
BC
330
7A
100
AcDbEntity
  8
0
100
AcDbLine
 10
25.3368618145
 20
15.3418593532
 30
0.0
 11
25.3327508069
 21
9.7790281638
 31
0.0
  0
LINE
  5
BD
330
7A
100
AcDbEntity
  8
0
100
AcDbLine
 10
24.4880096259
 20
9.7866831435
 30
0.0
 11
24.4851744482
 21
15.3418593532
 31
0.0
  0
LINE
  5
BE
330
7A
100
AcDbEntity
  8
0
100
AcDbLine
 10
24.4851744482
 20
15.3418593532
 30
0.0
 11
23.6451113103
 21
15.3418593532
 31
0.0
  0
LINE
  5
BF
330
7A
100
AcDbEntity
  8
0
100
AcDbLine
 10
12.9538690271
 20
12.6636087853
 30
0.0
 11
11.909956616
 21
11.8235456473
 31
0.0
  0
LINE
  5
C0
330
7A
100
AcDbEntity
  8
0
100
AcDbLine
 10
11.909956616
 20
11.8235456473
 30
0.0
 11
14.4506301884
 21
11.8235456473
 31
0.0
  0
LINE
  5
C1
330
7A
100
AcDbEntity
  8
0
100
AcDbLine
 10
14.4506301884
 20
11.8235456473
 30
0.0
 11
14.4506301884
 21
10.4153837876
 31
0.0
  0
LINE
  5
C2
330
7A
100
AcDbEntity
  8
0
100
AcDbLine
 10
14.5099562808
 20
13.5421594598
 30
0.0
 11
15.2200265234
 21
14.0836783912
 31
0.0
  0
LINE
  5
C3
330
7A
100
AcDbEntity
  8
0
100
AcDbLine
 10
15.2916856385
 20
10.0266809316
 30
0.0
 11
15.2905515675
 21
12.6636087853
 31
0.0
  0
LINE
  5
C4
330
7A
100
AcDbEntity
  8
0
100
AcDbLine
 10
15.2905515675
 20
12.6636087853
 30
0.0
 11
12.9538690271
 21
12.6636087853
 31
0.0
  0
LINE
  5
C5
330
7A
100
AcDbEntity
  8
0
100
AcDbLine
 10
17.7875634041
 20
15.3342043735
 30
0.0
 11
16.3643042233
 21
15.3342043735
 31
0.0
  0
LINE
  5
C6
330
7A
100
AcDbEntity
  8
0
100
AcDbLine
 10
16.3643042233
 20
15.3342043735
 30
0.0
 11
15.5117663037
 21
8.5904508131
 31
0.0
  0
LINE
  5
C7
330
7A
100
AcDbEntity
  8
0
100
AcDbLine
 10
15.5117663037
 20
8.5904508131
 30
0.0
 11
16.3519003211
 21
8.5904508131
 31
0.0
  0
LINE
  5
C8
330
7A
100
AcDbEntity
  8
0
100
AcDbLine
 10
16.3519003211
 20
8.5904508131
 30
0.0
 11
16.5956547196
 21
10.5190095307
 31
0.0
  0
LINE
  5
C9
330
7A
100
AcDbEntity
  8
0
100
AcDbLine
 10
16.5956547196
 20
10.5190095307
 30
0.0
 11
17.5561420283
 21
10.5190095307
 31
0.0
  0
LINE
  5
CA
330
7A
100
AcDbEntity
  8
0
100
AcDbLine
 10
17.5561420283
 20
10.5190095307
 30
0.0
 11
17.8000381857
 21
8.5904508131
 31
0.0
  0
LINE
  5
CB
330
7A
100
AcDbEntity
  8
0
100
AcDbLine
 10
17.8000381857
 20
8.5904508131
 30
0.0
 11
18.6401722031
 21
8.5904508131
 31
0.0
  0
LINE
  5
CC
330
7A
100
AcDbEntity
  8
0
100
AcDbLine
 10
18.6401722031
 20
8.5904508131
 30
0.0
 11
17.7875634041
 21
15.3342043735
 31
0.0
  0
LINE
  5
CD
330
7A
100
AcDbEntity
  8
0
100
AcDbLine
 10
16.7253640972
 20
11.5449894431
 30
0.0
 11
17.0745162249
 21
14.306594234
 31
0.0
  0
LINE
  5
CE
330
7A
100
AcDbEntity
  8
0
100
AcDbLine
 10
17.0745162249
 20
14.306594234
 30
0.0
 11
17.4265035302
 21
11.5449894431
 31
0.0
  0
LINE
  5
CF
330
7A
100
AcDbEntity
  8
0
100
AcDbLine
 10
17.4265035302
 20
11.5449894431
 30
0.0
 11
16.7253640972
 21
11.5449894431
 31
0.0
  0
LINE
  5
D0
330
7A
100
AcDbEntity
  8
0
370
    18
100
AcDbLine
 10
32.7336985468
 20
9.4483046908
 30
0.0
 11
31.5209513067
 21
9.4483046908
 31
0.0
  0
LINE
  5
D1
330
7A
100
AcDbEntity
  8
0
370
    18
100
AcDbLine
 10
31.5209513067
 20
9.4483046908
 30
0.0
 11
31.5209513067
 21
11.8677744187
 31
0.0
  0
LINE
  5
D2
330
7A
100
AcDbEntity
  8
0
370
    18
100
AcDbLine
 10
31.5209513067
 20
11.8677744187
 30
0.0
 11
32.484911708
 21
11.8677744187
 31
0.0
  0
LINE
  5
D3
330
7A
100
AcDbEntity
  8
0
370
    18
100
AcDbLine
 10
32.484911708
 20
11.8677744187
 30
0.0
 11
32.484911708
 21
12.7076957977
 31
0.0
  0
LINE
  5
D4
330
7A
100
AcDbEntity
  8
0
370
    18
100
AcDbLine
 10
32.484911708
 20
12.7076957977
 30
0.0
 11
31.5209513067
 21
12.7076957977
 31
0.0
  0
LINE
  5
D5
330
7A
100
AcDbEntity
  8
0
370
    18
100
AcDbLine
 10
31.5209513067
 20
12.7076957977
 30
0.0
 11
31.5209513067
 21
14.492440129
 31
0.0
  0
LINE
  5
D6
330
7A
100
AcDbEntity
  8
0
370
    18
100
AcDbLine
 10
31.5209513067
 20
14.492440129
 30
0.0
 11
32.5596186391
 21
14.492440129
 31
0.0
  0
LINE
  5
D7
330
7A
100
AcDbEntity
  8
0
370
    18
100
AcDbLine
 10
32.5596186391
 20
14.492440129
 30
0.0
 11
32.5596186391
 21
15.3325032669
 31
0.0
  0
LINE
  5
D8
330
7A
100
AcDbEntity
  8
0
370
    18
100
AcDbLine
 10
32.5596186391
 20
15.3325032669
 30
0.0
 11
30.6808881687
 21
15.3325032669
 31
0.0
  0
LINE
  5
D9
330
7A
100
AcDbEntity
  8
0
370
    18
100
AcDbLine
 10
30.6808881687
 20
15.3325032669
 30
0.0
 11
30.6808881687
 21
8.5904508131
 31
0.0
  0
LINE
  5
DA
330
7A
100
AcDbEntity
  8
0
370
    18
100
AcDbLine
 10
30.6808881687
 20
8.5904508131
 30
0.0
 11
32.7336985468
 21
8.5896002598
 31
0.0
  0
LINE
  5
DB
330
7A
100
AcDbEntity
  8
0
370
    18
100
AcDbLine
 10
32.7336985468
 20
8.5896002598
 30
0.0
 11
32.7336985468
 21
9.4483046908
 31
0.0
  0
LINE
  5
DC
330
7A
100
AcDbEntity
  8
0
370
    18
100
AcDbLine
 10
21.049364412
 20
15.3325032669
 30
0.0
 11
18.7355759311
 21
15.3325032669
 31
0.0
  0
LINE
  5
DD
330
7A
100
AcDbEntity
  8
0
370
    18
100
AcDbLine
 10
18.7355759311
 20
15.3325032669
 30
0.0
 11
18.7355759311
 21
14.492440129
 31
0.0
  0
LINE
  5
DE
330
7A
100
AcDbEntity
  8
0
370
    18
100
AcDbLine
 10
18.7355759311
 20
14.492440129
 30
0.0
 11
19.4922848461
 21
14.492440129
 31
0.0
  0
LINE
  5
DF
330
7A
100
AcDbEntity
  8
0
370
    18
100
AcDbLine
 10
19.4922848461
 20
14.492440129
 30
0.0
 11
19.4922848461
 21
8.5904508131
 31
0.0
  0
LINE
  5
E0
330
7A
100
AcDbEntity
  8
0
370
    18
100
AcDbLine
 10
19.4922848461
 20
8.5904508131
 30
0.0
 11
20.3323479841
 21
8.5904508131
 31
0.0
  0
LINE
  5
E1
330
7A
100
AcDbEntity
  8
0
370
    18
100
AcDbLine
 10
20.3323479841
 20
8.5904508131
 30
0.0
 11
20.3323479841
 21
14.492440129
 31
0.0
  0
LINE
  5
E2
330
7A
100
AcDbEntity
  8
0
370
    18
100
AcDbLine
 10
20.3323479841
 20
14.492440129
 30
0.0
 11
21.049364412
 21
14.492440129
 31
0.0
  0
LINE
  5
E3
330
7A
100
AcDbEntity
  8
0
370
    18
100
AcDbLine
 10
21.049364412
 20
14.492440129
 30
0.0
 11
21.049364412
 21
15.3325032669
 31
0.0
  0
LINE
  5
E4
330
7A
100
AcDbEntity
  8
0
370
    18
100
AcDbLine
 10
29.175550595
 20
15.3418593532
 30
0.0
 11
29.175550595
 21
10.4115562977
 31
0.0
  0
LINE
  5
E5
330
7A
100
AcDbEntity
  8
0
370
    18
100
AcDbLine
 10
29.175550595
 20
10.4115562977
 30
0.0
 11
28.3179093556
 21
15.3418593532
 31
0.0
  0
LINE
  5
E6
330
7A
100
AcDbEntity
  8
0
370
    18
100
AcDbLine
 10
28.3179093556
 20
15.3418593532
 30
0.0
 11
26.9115194818
 21
15.3418593532
 31
0.0
  0
LINE
  5
E7
330
7A
100
AcDbEntity
  8
0
370
    18
100
AcDbLine
 10
26.9115194818
 20
15.3418593532
 30
0.0
 11
26.9115194818
 21
8.5904508131
 31
0.0
  0
LINE
  5
E8
330
7A
100
AcDbEntity
  8
0
370
    18
100
AcDbLine
 10
26.9115194818
 20
8.5904508131
 30
0.0
 11
27.7517243787
 21
8.5904508131
 31
0.0
  0
LINE
  5
E9
330
7A
100
AcDbEntity
  8
0
370
    18
100
AcDbLine
 10
27.7517243787
 20
8.5904508131
 30
0.0
 11
27.7517243787
 21
13.7348097812
 31
0.0
  0
LINE
  5
EA
330
7A
100
AcDbEntity
  8
0
370
    18
100
AcDbLine
 10
27.7517243787
 20
13.7348097812
 30
0.0
 11
28.6387097068
 21
8.5883244299
 31
0.0
  0
LINE
  5
EB
330
7A
100
AcDbEntity
  8
0
370
    18
100
AcDbLine
 10
28.6387097068
 20
8.5883244299
 30
0.0
 11
30.0157554918
 21
8.5904508131
 31
0.0
  0
LINE
  5
EC
330
7A
100
AcDbEntity
  8
0
370
    18
100
AcDbLine
 10
30.0157554918
 20
8.5904508131
 30
0.0
 11
30.0157554918
 21
15.3418593532
 31
0.0
  0
LINE
  5
ED
330
7A
100
AcDbEntity
  8
0
370
    18
100
AcDbLine
 10
30.0157554918
 20
15.3418593532
 30
0.0
 11
29.175550595
 21
15.3418593532
 31
0.0
  0
LINE
  5
EE
330
7A
100
AcDbEntity
  8
0
370
    18
100
AcDbLine
 10
3.3854988525
 20
9.4534080106
 30
0.0
 11
3.292575905
 21
9.4549673583
 31
0.0
  0
LINE
  5
EF
330
7A
100
AcDbEntity
  8
0
370
    18
100
AcDbLine
 10
3.292575905
 20
9.4549673583
 30
0.0
 11
3.292575905
 21
8.5959794095
 31
0.0
  0
LINE
  5
F0
330
7A
100
AcDbEntity
  8
0
370
    18
100
AcDbLine
 10
3.292575905
 20
8.5959794095
 30
0.0
 11
3.4568035704
 21
8.5959794095
 31
0.0
  0
LINE
  5
F1
330
7A
100
AcDbEntity
  8
0
370
    18
100
AcDbLine
 10
4.9498790008
 20
9.2970479632
 30
0.0
 11
4.9498790008
 21
9.2973314809
 31
0.0
  0
LINE
  5
F2
330
7A
100
AcDbEntity
  8
0
370
    18
100
AcDbLine
 10
4.9498790008
 20
14.5159721035
 30
0.0
 11
4.9498790008
 21
15.3285340182
 31
0.0
  0
LINE
  5
F3
330
7A
100
AcDbEntity
  8
0
370
    18
100
AcDbLine
 10
4.9498790008
 20
15.3285340182
 30
0.0
 11
4.6043417246
 21
15.3285340182
 31
0.0
  0
LINE
  5
F4
330
7A
100
AcDbEntity
  8
0
370
    18
100
AcDbLine
 10
21.230390505
 20
9.4534080106
 30
0.0
 11
21.1375384369
 21
9.4549673583
 31
0.0
  0
LINE
  5
F5
330
7A
100
AcDbEntity
  8
0
370
    18
100
AcDbLine
 10
21.1375384369
 20
9.4549673583
 30
0.0
 11
21.1375384369
 21
8.5959794095
 31
0.0
  0
LINE
  5
F6
330
7A
100
AcDbEntity
  8
0
370
    18
100
AcDbLine
 10
21.1375384369
 20
8.5959794095
 30
0.0
 11
21.301553464
 21
8.5959794095
 31
0.0
  0
LINE
  5
F7
330
7A
100
AcDbEntity
  8
0
370
    18
100
AcDbLine
 10
22.7946997739
 20
9.2970479632
 30
0.0
 11
22.7946997739
 21
9.2973314809
 31
0.0
  0
LINE
  5
F8
330
7A
100
AcDbEntity
  8
0
370
    18
100
AcDbLine
 10
22.7946997739
 20
14.5159721035
 30
0.0
 11
22.7946997739
 21
15.3285340182
 31
0.0
  0
LINE
  5
F9
330
7A
100
AcDbEntity
  8
0
370
    18
100
AcDbLine
 10
22.7946997739
 20
15.3285340182
 30
0.0
 11
22.4490916182
 21
15.3285340182
 31
0.0
  0
LINE
  5
FA
330
7A
100
AcDbEntity
  8
0
 62
     1
370
    18
100
AcDbLine
 10
12.1710764777
 20
17.9278248886
 30
0.0
 11
9.7662787942
 21
17.9278248886
 31
0.0
  0
LINE
  5
FB
330
7A
100
AcDbEntity
  8
0
 62
     1
370
    18
100
AcDbLine
 10
9.7662787942
 20
17.9278248886
 30
0.0
 11
9.7662787942
 21
20.3329060898
 31
0.0
  0
LINE
  5
FC
330
7A
100
AcDbEntity
  8
0
 62
     1
370
    18
100
AcDbLine
 10
9.7662787942
 20
20.3329060898
 30
0.0
 11
12.1710764777
 21
20.3329060898
 31
0.0
  0
LINE
  5
FD
330
7A
100
AcDbEntity
  8
0
 62
     1
370
    18
100
AcDbLine
 10
12.1710764777
 20
20.3329060898
 30
0.0
 11
12.1710764777
 21
17.9278248886
 31
0.0
  0
LINE
  5
FE
330
7A
100
AcDbEntity
  8
0
 62
     1
370
    18
100
AcDbLine
 10
12.1710764777
 20
3.67
 30
0.0
 11
9.7662787942
 21
3.67
 31
0.0
  0
LINE
  5
FF
330
7A
100
AcDbEntity
  8
0
 62
     1
370
    18
100
AcDbLine
 10
9.7662787942
 20
3.67
 30
0.0
 11
9.7662787942
 21
6.0749394424
 31
0.0
  0
LINE
  5
100
330
7A
100
AcDbEntity
  8
0
 62
     1
370
    18
100
AcDbLine
 10
9.7662787942
 20
6.0749394424
 30
0.0
 11
12.1710764777
 21
6.0749394424
 31
0.0
  0
LINE
  5
101
330
7A
100
AcDbEntity
  8
0
 62
     1
370
    18
100
AcDbLine
 10
12.1710764777
 20
6.0749394424
 30
0.0
 11
12.1710764777
 21
3.67
 31
0.0
  0
LINE
  5
102
330
7A
100
AcDbEntity
  8
0
 62
     1
370
    18
100
AcDbLine
 10
25.8269222715
 20
17.9278248886
 30
0.0
 11
23.422124588
 21
17.9278248886
 31
0.0
  0
LINE
  5
103
330
7A
100
AcDbEntity
  8
0
 62
     1
370
    18
100
AcDbLine
 10
23.422124588
 20
17.9278248886
 30
0.0
 11
23.422124588
 21
20.3329060898
 31
0.0
  0
LINE
  5
104
330
7A
100
AcDbEntity
  8
0
 62
     1
370
    18
100
AcDbLine
 10
23.422124588
 20
20.3329060898
 30
0.0
 11
25.8269222715
 21
20.3329060898
 31
0.0
  0
LINE
  5
105
330
7A
100
AcDbEntity
  8
0
 62
     1
370
    18
100
AcDbLine
 10
25.8269222715
 20
20.3329060898
 30
0.0
 11
25.8269222715
 21
17.9278248886
 31
0.0
  0
LINE
  5
106
330
7A
100
AcDbEntity
  8
0
 62
     1
370
    18
100
AcDbLine
 10
25.8269222715
 20
3.67
 30
0.0
 11
23.422124588
 21
3.67
 31
0.0
  0
LINE
  5
107
330
7A
100
AcDbEntity
  8
0
 62
     1
370
    18
100
AcDbLine
 10
23.422124588
 20
3.67
 30
0.0
 11
23.422124588
 21
6.0749394424
 31
0.0
  0
LINE
  5
108
330
7A
100
AcDbEntity
  8
0
 62
     1
370
    18
100
AcDbLine
 10
23.422124588
 20
6.0749394424
 30
0.0
 11
25.8269222715
 21
6.0749394424
 31
0.0
  0
LINE
  5
109
330
7A
100
AcDbEntity
  8
0
 62
     1
370
    18
100
AcDbLine
 10
25.8269222715
 20
6.0749394424
 30
0.0
 11
25.8269222715
 21
3.67
 31
0.0
  0
LINE
  5
10A
330
7A
100
AcDbEntity
  8
0
370
    18
100
AcDbLine
 10
8.2465526938
 20
15.3418593532
 30
0.0
 11
7.4064186764
 21
15.3418593532
 31
0.0
  0
LINE
  5
10B
330
7A
100
AcDbEntity
  8
0
370
    18
100
AcDbLine
 10
7.4064186764
 20
15.3418593532
 30
0.0
 11
7.4025203072
 21
9.7790281638
 31
0.0
  0
LINE
  5
10C
330
7A
100
AcDbEntity
  8
0
370
    18
100
AcDbLine
 10
6.5577791261
 20
9.7866831435
 30
0.0
 11
6.554873069
 21
15.3418593532
 31
0.0
  0
LINE
  5
10D
330
7A
100
AcDbEntity
  8
0
370
    18
100
AcDbLine
 10
6.554873069
 20
15.3418593532
 30
0.0
 11
5.7147390516
 21
15.3418593532
 31
0.0
  0
LINE
  5
10E
330
7A
100
AcDbEntity
  8
0
370
    18
100
AcDbLine
 10
26.1769249525
 20
15.3418593532
 30
0.0
 11
25.3368618145
 21
15.3418593532
 31
0.0
  0
LINE
  5
10F
330
7A
100
AcDbEntity
  8
0
370
    18
100
AcDbLine
 10
25.3368618145
 20
15.3418593532
 30
0.0
 11
25.3327508069
 21
9.7790281638
 31
0.0
  0
LINE
  5
110
330
7A
100
AcDbEntity
  8
0
370
    18
100
AcDbLine
 10
24.4880096259
 20
9.7866831435
 30
0.0
 11
24.4851744482
 21
15.3418593532
 31
0.0
  0
LINE
  5
111
330
7A
100
AcDbEntity
  8
0
370
    18
100
AcDbLine
 10
24.4851744482
 20
15.3418593532
 30
0.0
 11
23.6451113103
 21
15.3418593532
 31
0.0
  0
LINE
  5
112
330
7A
100
AcDbEntity
  8
0
370
    18
100
AcDbLine
 10
12.9538690271
 20
12.6636087853
 30
0.0
 11
11.909956616
 21
11.8235456473
 31
0.0
  0
LINE
  5
113
330
7A
100
AcDbEntity
  8
0
370
    18
100
AcDbLine
 10
11.909956616
 20
11.8235456473
 30
0.0
 11
14.4506301884
 21
11.8235456473
 31
0.0
  0
LINE
  5
114
330
7A
100
AcDbEntity
  8
0
370
    18
100
AcDbLine
 10
14.4506301884
 20
11.8235456473
 30
0.0
 11
14.4506301884
 21
10.4153837876
 31
0.0
  0
LINE
  5
115
330
7A
100
AcDbEntity
  8
0
370
    18
100
AcDbLine
 10
14.5099562808
 20
13.5421594598
 30
0.0
 11
15.2200265234
 21
14.0836783912
 31
0.0
  0
LINE
  5
116
330
7A
100
AcDbEntity
  8
0
370
    18
100
AcDbLine
 10
15.2916856385
 20
10.0266809316
 30
0.0
 11
15.2905515675
 21
12.6636087853
 31
0.0
  0
LINE
  5
117
330
7A
100
AcDbEntity
  8
0
370
    18
100
AcDbLine
 10
15.2905515675
 20
12.6636087853
 30
0.0
 11
12.9538690271
 21
12.6636087853
 31
0.0
  0
LINE
  5
118
330
7A
100
AcDbEntity
  8
0
370
    18
100
AcDbLine
 10
17.7875634041
 20
15.3342043735
 30
0.0
 11
16.3643042233
 21
15.3342043735
 31
0.0
  0
LINE
  5
119
330
7A
100
AcDbEntity
  8
0
370
    18
100
AcDbLine
 10
16.3643042233
 20
15.3342043735
 30
0.0
 11
15.5117663037
 21
8.5904508131
 31
0.0
  0
LINE
  5
11A
330
7A
100
AcDbEntity
  8
0
370
    18
100
AcDbLine
 10
15.5117663037
 20
8.5904508131
 30
0.0
 11
16.3519003211
 21
8.5904508131
 31
0.0
  0
LINE
  5
11B
330
7A
100
AcDbEntity
  8
0
370
    18
100
AcDbLine
 10
16.3519003211
 20
8.5904508131
 30
0.0
 11
16.5956547196
 21
10.5190095307
 31
0.0
  0
LINE
  5
11C
330
7A
100
AcDbEntity
  8
0
370
    18
100
AcDbLine
 10
16.5956547196
 20
10.5190095307
 30
0.0
 11
17.5561420283
 21
10.5190095307
 31
0.0
  0
LINE
  5
11D
330
7A
100
AcDbEntity
  8
0
370
    18
100
AcDbLine
 10
17.5561420283
 20
10.5190095307
 30
0.0
 11
17.8000381857
 21
8.5904508131
 31
0.0
  0
LINE
  5
11E
330
7A
100
AcDbEntity
  8
0
370
    18
100
AcDbLine
 10
17.8000381857
 20
8.5904508131
 30
0.0
 11
18.6401722031
 21
8.5904508131
 31
0.0
  0
LINE
  5
11F
330
7A
100
AcDbEntity
  8
0
370
    18
100
AcDbLine
 10
18.6401722031
 20
8.5904508131
 30
0.0
 11
17.7875634041
 21
15.3342043735
 31
0.0
  0
LINE
  5
120
330
7A
100
AcDbEntity
  8
0
370
    18
100
AcDbLine
 10
16.7253640972
 20
11.5449894431
 30
0.0
 11
17.0745162249
 21
14.306594234
 31
0.0
  0
LINE
  5
121
330
7A
100
AcDbEntity
  8
0
370
    18
100
AcDbLine
 10
17.0745162249
 20
14.306594234
 30
0.0
 11
17.4265035302
 21
11.5449894431
 31
0.0
  0
LINE
  5
122
330
7A
100
AcDbEntity
  8
0
370
    18
100
AcDbLine
 10
17.4265035302
 20
11.5449894431
 30
0.0
 11
16.7253640972
 21
11.5449894431
 31
0.0
  0
SPLINE
  5
123
330
7A
100
AcDbEntity
  8
0
370
    18
100
AcDbSpline
210
0.0
220
0.0
230
1.0
 70
     8
 71
     3
 72
     8
 73
     4
 74
     0
 42
0.00000001
 43
0.00000001
 40
0.0
 40
0.0
 40
0.0
 40
0.0
 40
1.0
 40
1.0
 40
1.0
 40
1.0
 10
3.610044922460022
 20
12.39688944776983
 30
0.0
 10
4.129095070897104
 20
11.47510231402356
 30
0.0
 10
4.338118543209125
 20
11.01807167669972
 30
0.0
 10
4.392341315782439
 20
10.69273504125985
 30
0.0
  0
SPLINE
  5
124
330
7A
100
AcDbEntity
  8
0
100
AcDbSpline
210
0.0
220
0.0
230
1.0
 70
     8
 71
     3
 72
     8
 73
     4
 74
     0
 42
0.00000001
 43
0.00000001
 40
0.0
 40
0.0
 40
0.0
 40
0.0
 40
1.0
 40
1.0
 40
1.0
 40
1.0
 10
3.456803570429299
 20
8.59597940954257
 30
0.0
 10
4.008670900175461
 20
8.625890533759485
 30
0.0
 10
4.525665544815639
 20
8.733627284493354
 30
0.0
 10
4.949879000830379
 20
9.297047963166914
 30
0.0
  0
SPLINE
  5
125
330
7A
100
AcDbEntity
  8
0
370
    18
100
AcDbSpline
210
0.0
220
0.0
230
1.0
 70
     8
 71
     3
 72
     8
 73
     4
 74
     0
 42
0.00000001
 43
0.00000001
 40
1.0
 40
1.0
 40
1.0
 40
1.0
 40
2.0
 40
2.0
 40
2.0
 40
2.0
 10
4.392341315782439
 20
10.69273504125985
 30
0.0
 10
4.44656408835575
 20
10.36732752637871
 30
0.0
 10
4.45662896901642
 20
9.982593919152642
 30
0.0
 10
4.129095070897104
 20
9.654989141592026
 30
0.0
  0
SPLINE
  5
126
330
7A
100
AcDbEntity
  8
0
100
AcDbSpline
210
0.0
220
0.0
230
1.0
 70
     8
 71
     3
 72
     8
 73
     4
 74
     0
 42
0.00000001
 43
0.00000001
 40
0.0
 40
0.0
 40
0.0
 40
0.0
 40
1.0
 40
1.0
 40
1.0
 40
1.0
 10
21.30155346402704
 20
8.59597940954257
 30
0.0
 10
21.85327903489065
 20
8.625890533759485
 30
0.0
 10
22.37041543841338
 20
8.733627284493354
 30
0.0
 10
22.79469977386939
 20
9.297047963166914
 30
0.0
  0
SPLINE
  5
127
330
7A
100
AcDbEntity
  8
0
370
    18
100
AcDbSpline
210
0.0
220
0.0
230
1.0
 70
     8
 71
     2
 72
     6
 73
     3
 74
     0
 42
0.00000001
 43
0.00000001
 40
2.0
 40
2.0
 40
2.0
 40
3.0
 40
3.0
 40
3.0
 10
4.129095070897104
 20
9.654989141592026
 30
0.0
 10
3.919858960261265
 20
9.445611272073664
 30
0.0
 10
3.385498852509362
 20
9.453408010613625
 30
0.0
  0
SPLINE
  5
128
330
7A
100
AcDbEntity
  8
0
370
    18
100
AcDbSpline
210
0.0
220
0.0
230
1.0
 70
     8
 71
     3
 72
     8
 73
     4
 74
     0
 42
0.00000001
 43
0.00000001
 40
6.0
 40
6.0
 40
6.0
 40
6.0
 40
7.0
 40
7.0
 40
7.0
 40
7.0
 10
3.456803570429299
 20
8.59597940954257
 30
0.0
 10
4.008670900175461
 20
8.625890533759485
 30
0.0
 10
4.525665544815639
 20
8.733627284493354
 30
0.0
 10
4.949879000830379
 20
9.297047963166914
 30
0.0
  0
SPLINE
  5
129
330
7A
100
AcDbEntity
  8
0
100
AcDbSpline
210
0.0
220
0.0
230
1.0
 70
     8
 71
     2
 72
     6
 73
     3
 74
     0
 42
0.00000001
 43
0.00000001
 40
0.0
 40
0.0
 40
0.0
 40
1.0
 40
1.0
 40
1.0
 10
14.45063018841125
 20
10.41538378756133
 30
0.0
 10
14.35969186525889
 20
10.27064796848328
 30
0.0
 10
14.18199710598922
 20
10.09600102518832
 30
0.0
  0
SPLINE
  5
12A
330
7A
100
AcDbEntity
  8
0
370
    18
100
AcDbSpline
210
0.0
220
0.0
230
1.0
 70
     8
 71
     3
 72
     8
 73
     4
 74
     0
 42
0.00000001
 43
0.00000001
 40
8.0
 40
8.0
 40
8.0
 40
8.0
 40
9.0
 40
9.0
 40
9.0
 40
9.0
 10
4.949879000830379
 20
9.297331480932005
 30
0.0
 10
5.118713829941009
 20
9.538605099022927
 30
0.0
 10
5.231270382681425
 20
9.822689899642315
 30
0.0
 10
5.267560656612845
 20
10.088629563296
 30
0.0
  0
SPLINE
  5
12B
330
7A
100
AcDbEntity
  8
0
370
    18
100
AcDbSpline
210
0.0
220
0.0
230
1.0
 70
     8
 71
     3
 72
     8
 73
     4
 74
     0
 42
0.00000001
 43
0.00000001
 40
9.0
 40
9.0
 40
9.0
 40
9.0
 40
10.0
 40
10.0
 40
10.0
 40
10.0
 10
5.267560656612845
 20
10.088629563296
 30
0.0
 10
5.314057570087478
 20
10.42941791693324
 30
0.0
 10
5.252038058974208
 20
10.71612525687973
 30
0.0
 10
5.182363568203539
 20
11.01041669704231
 30
0.0
  0
SPLINE
  5
12C
330
7A
100
AcDbEntity
  8
0
370
    18
100
AcDbSpline
210
0.0
220
0.0
230
1.0
 70
     8
 71
     3
 72
     8
 73
     4
 74
     0
 42
0.00000001
 43
0.00000001
 40
10.0
 40
10.0
 40
10.0
 40
10.0
 40
11.0
 40
11.0
 40
11.0
 40
11.0
 10
5.182363568203539
 20
11.01041669704231
 30
0.0
 10
5.137851279084528
 20
11.19796369864881
 30
0.0
 10
4.872478650961024
 20
11.82099398743238
 30
0.0
 10
4.833849355467621
 20
11.90122951495261
 30
0.0
  0
SPLINE
  5
12D
330
7A
100
AcDbEntity
  8
0
370
    18
100
AcDbSpline
210
0.0
220
0.0
230
1.0
 70
     8
 71
     3
 72
     8
 73
     4
 74
     0
 42
0.00000001
 43
0.00000001
 40
11.0
 40
11.0
 40
11.0
 40
11.0
 40
12.0
 40
12.0
 40
12.0
 40
12.0
 10
4.833849355467621
 20
11.90122951495261
 30
0.0
 10
4.648145219334186
 20
12.28582136329613
 30
0.0
 10
4.291692509175768
 20
12.88482352148837
 30
0.0
 10
4.175521104930461
 20
13.22568275456688
 30
0.0
  0
SPLINE
  5
12E
330
7A
100
AcDbEntity
  8
0
370
    18
100
AcDbSpline
210
0.0
220
0.0
230
1.0
 70
     8
 71
     3
 72
     8
 73
     4
 74
     0
 42
0.00000001
 43
0.00000001
 40
12.0
 40
12.0
 40
12.0
 40
12.0
 40
13.0
 40
13.0
 40
13.0
 40
13.0
 10
4.175521104930461
 20
13.22568275456688
 30
0.0
 10
4.059349700685156
 20
13.56640022876286
 30
0.0
 10
4.098049875619833
 20
13.97693395261202
 30
0.0
 10
4.160069386733099
 20
14.14711549110683
 30
0.0
  0
SPLINE
  5
12F
330
7A
100
AcDbEntity
  8
0
370
    18
100
AcDbSpline
210
0.0
220
0.0
230
1.0
 70
     8
 71
     3
 72
     8
 73
     4
 74
     0
 42
0.00000001
 43
0.00000001
 40
13.0
 40
13.0
 40
13.0
 40
13.0
 40
14.0
 40
14.0
 40
14.0
 40
14.0
 10
4.160069386733099
 20
14.14711549110683
 30
0.0
 10
4.222018018405095
 20
14.31750966792545
 30
0.0
 10
4.40006717488112
 20
14.46493890577188
 30
0.0
 10
4.578258090239689
 20
14.50349732182399
 30
0.0
  0
SPLINE
  5
130
330
7A
100
AcDbEntity
  8
0
370
    18
100
AcDbSpline
210
0.0
220
0.0
230
1.0
 70
     8
 71
     3
 72
     8
 73
     4
 74
     0
 42
0.00000001
 43
0.00000001
 40
14.0
 40
14.0
 40
14.0
 40
14.0
 40
15.0
 40
15.0
 40
15.0
 40
15.0
 10
4.578258090239689
 20
14.50349732182399
 30
0.0
 10
4.678694258522547
 20
14.52539906917713
 30
0.0
 10
4.815845977384454
 20
14.52242213264369
 30
0.0
 10
4.949879000830379
 20
14.51597210348793
 30
0.0
  0
SPLINE
  5
131
330
7A
100
AcDbEntity
  8
0
370
    18
100
AcDbSpline
210
0.0
220
0.0
230
1.0
 70
     8
 71
     3
 72
     8
 73
     4
 74
     0
 42
0.00000001
 43
0.00000001
 40
17.0
 40
17.0
 40
17.0
 40
17.0
 40
18.0
 40
18.0
 40
18.0
 40
18.0
 10
4.604341724627901
 20
15.3285340182336
 30
0.0
 10
4.293818892413936
 20
15.3285340182336
 30
0.0
 10
3.922056222940704
 20
15.17954543267921
 30
0.0
 10
3.648886856277244
 20
14.89078258893584
 30
0.0
  0
SPLINE
  5
132
330
7A
100
AcDbEntity
  8
0
370
    18
100
AcDbSpline
210
0.0
220
0.0
230
1.0
 70
     8
 71
     3
 72
     8
 73
     4
 74
     0
 42
0.00000001
 43
0.00000001
 40
18.0
 40
18.0
 40
18.0
 40
18.0
 40
19.0
 40
19.0
 40
19.0
 40
19.0
 10
3.648886856277244
 20
14.89078258893584
 30
0.0
 10
3.355091572203543
 20
14.5804723950457
 30
0.0
 10
3.176404500756066
 20
14.23252521783996
 30
0.0
 10
3.230627273329383
 20
13.57412608786154
 30
0.0
  0
SPLINE
  5
133
330
7A
100
AcDbEntity
  8
0
370
    18
100
AcDbSpline
210
0.0
220
0.0
230
1.0
 70
     8
 71
     3
 72
     8
 73
     4
 74
     0
 42
0.00000001
 43
0.00000001
 40
19.0
 40
19.0
 40
19.0
 40
19.0
 40
20.0
 40
20.0
 40
20.0
 40
20.0
 10
3.230627273329383
 20
13.57412608786154
 30
0.0
 10
3.261530709724104
 20
13.17124734366976
 30
0.0
 10
3.356792678794077
 20
12.84683214096644
 30
0.0
 10
3.610044922460022
 20
12.39688944776983
 30
0.0
  0
SPLINE
  5
134
330
7A
100
AcDbEntity
  8
0
370
    18
100
AcDbSpline
210
0.0
220
0.0
230
1.0
 70
     8
 71
     3
 72
     8
 73
     4
 74
     0
 42
0.00000001
 43
0.00000001
 40
0.0
 40
0.0
 40
0.0
 40
0.0
 40
1.0
 40
1.0
 40
1.0
 40
1.0
 10
21.45465305717521
 20
12.39688944776983
 30
0.0
 10
21.97377408505358
 20
11.47510231402356
 30
0.0
 10
22.18301019568941
 20
11.01807167669972
 30
0.0
 10
22.23716208882146
 20
10.69273504125985
 30
0.0
  0
SPLINE
  5
135
330
7A
100
AcDbEntity
  8
0
370
    18
100
AcDbSpline
210
0.0
220
0.0
230
1.0
 70
     8
 71
     3
 72
     8
 73
     4
 74
     0
 42
0.00000001
 43
0.00000001
 40
1.0
 40
1.0
 40
1.0
 40
1.0
 40
2.0
 40
2.0
 40
2.0
 40
2.0
 10
22.23716208882146
 20
10.69273504125985
 30
0.0
 10
22.29117222307095
 20
10.36732752637871
 30
0.0
 10
22.30137886261416
 20
9.982593919152642
 30
0.0
 10
21.97377408505358
 20
9.654989141592026
 30
0.0
  0
SPLINE
  5
136
330
7A
100
AcDbEntity
  8
0
370
    18
100
AcDbSpline
210
0.0
220
0.0
230
1.0
 70
     8
 71
     2
 72
     6
 73
     3
 74
     0
 42
0.00000001
 43
0.00000001
 40
2.0
 40
2.0
 40
2.0
 40
3.0
 40
3.0
 40
3.0
 10
21.97377408505358
 20
9.654989141592026
 30
0.0
 10
21.76453797441773
 20
9.445611272073664
 30
0.0
 10
21.23039050498965
 20
9.453408010613625
 30
0.0
  0
SPLINE
  5
137
330
7A
100
AcDbEntity
  8
0
370
    18
100
AcDbSpline
210
0.0
220
0.0
230
1.0
 70
     8
 71
     3
 72
     8
 73
     4
 74
     0
 42
0.00000001
 43
0.00000001
 40
6.0
 40
6.0
 40
6.0
 40
6.0
 40
7.0
 40
7.0
 40
7.0
 40
7.0
 10
21.30155346402704
 20
8.59597940954257
 30
0.0
 10
21.85327903489065
 20
8.625890533759485
 30
0.0
 10
22.37041543841338
 20
8.733627284493354
 30
0.0
 10
22.79469977386939
 20
9.297047963166914
 30
0.0
  0
SPLINE
  5
138
330
7A
100
AcDbEntity
  8
0
370
    18
100
AcDbSpline
210
0.0
220
0.0
230
1.0
 70
     8
 71
     3
 72
     8
 73
     4
 74
     0
 42
0.00000001
 43
0.00000001
 40
8.0
 40
8.0
 40
8.0
 40
8.0
 40
9.0
 40
9.0
 40
9.0
 40
9.0
 10
22.79469977386939
 20
9.297331480932005
 30
0.0
 10
22.96353460298002
 20
9.538605099022927
 30
0.0
 10
23.07609115572044
 20
9.822689899642315
 30
0.0
 10
23.11238142965186
 20
10.088629563296
 30
0.0
  0
SPLINE
  5
139
330
7A
100
AcDbEntity
  8
0
370
    18
100
AcDbSpline
210
0.0
220
0.0
230
1.0
 70
     8
 71
     3
 72
     8
 73
     4
 74
     0
 42
0.00000001
 43
0.00000001
 40
9.0
 40
9.0
 40
9.0
 40
9.0
 40
10.0
 40
10.0
 40
10.0
 40
10.0
 10
23.11238142965186
 20
10.088629563296
 30
0.0
 10
23.15887834312649
 20
10.42941791693324
 30
0.0
 10
23.09678795257196
 20
10.71612525687973
 30
0.0
 10
23.02704258236
 20
11.01041669704231
 30
0.0
  0
SPLINE
  5
13A
330
7A
100
AcDbEntity
  8
0
370
    18
100
AcDbSpline
210
0.0
220
0.0
230
1.0
 70
     8
 71
     3
 72
     8
 73
     4
 74
     0
 42
0.00000001
 43
0.00000001
 40
10.0
 40
10.0
 40
10.0
 40
10.0
 40
11.0
 40
11.0
 40
11.0
 40
11.0
 10
23.02704258236
 20
11.01041669704231
 30
0.0
 10
22.982530293241
 20
11.19796369864881
 30
0.0
 10
22.7171576651175
 20
11.82099398743238
 30
0.0
 10
22.67859924906536
 20
11.90122951495261
 30
0.0
  0
SPLINE
  5
13B
330
7A
100
AcDbEntity
  8
0
370
    18
100
AcDbSpline
210
0.0
220
0.0
230
1.0
 70
     8
 71
     3
 72
     8
 73
     4
 74
     0
 42
0.00000001
 43
0.00000001
 40
11.0
 40
11.0
 40
11.0
 40
11.0
 40
12.0
 40
12.0
 40
12.0
 40
12.0
 10
22.67859924906536
 20
11.90122951495261
 30
0.0
 10
22.49289511293193
 20
12.28582136329613
 30
0.0
 10
22.13651328221478
 20
12.88482352148837
 30
0.0
 10
22.02041275741075
 20
13.22568275456688
 30
0.0
  0
SPLINE
  5
13C
330
7A
100
AcDbEntity
  8
0
370
    18
100
AcDbSpline
210
0.0
220
0.0
230
1.0
 70
     8
 71
     3
 72
     8
 73
     4
 74
     0
 42
0.00000001
 43
0.00000001
 40
12.0
 40
12.0
 40
12.0
 40
12.0
 40
13.0
 40
13.0
 40
13.0
 40
13.0
 10
22.02041275741075
 20
13.22568275456688
 30
0.0
 10
21.90417047372417
 20
13.56640022876286
 30
0.0
 10
21.9427288897763
 20
13.97693395261202
 30
0.0
 10
22.00467752144829
 20
14.14711549110683
 30
0.0
  0
SPLINE
  5
13D
330
7A
100
AcDbEntity
  8
0
370
    18
100
AcDbSpline
210
0.0
220
0.0
230
1.0
 70
     8
 71
     3
 72
     8
 73
     4
 74
     0
 42
0.00000001
 43
0.00000001
 40
13.0
 40
13.0
 40
13.0
 40
13.0
 40
14.0
 40
14.0
 40
14.0
 40
14.0
 10
22.00467752144829
 20
14.14711549110683
 30
0.0
 10
22.06676791200283
 20
14.31750966792545
 30
0.0
 10
22.24481706847886
 20
14.46493890577188
 30
0.0
 10
22.42286622495489
 20
14.50349732182399
 30
0.0
  0
SPLINE
  5
13E
330
7A
100
AcDbEntity
  8
0
370
    18
100
AcDbSpline
210
0.0
220
0.0
230
1.0
 70
     8
 71
     3
 72
     8
 73
     4
 74
     0
 42
0.00000001
 43
0.00000001
 40
14.0
 40
14.0
 40
14.0
 40
14.0
 40
15.0
 40
15.0
 40
15.0
 40
15.0
 10
22.42286622495489
 20
14.50349732182399
 30
0.0
 10
22.52351503156157
 20
14.52539906917713
 30
0.0
 10
22.6605958709822
 20
14.52242213264369
 30
0.0
 10
22.79469977386939
 20
14.51597210348793
 30
0.0
  0
SPLINE
  5
13F
330
7A
100
AcDbEntity
  8
0
370
    18
100
AcDbSpline
210
0.0
220
0.0
230
1.0
 70
     8
 71
     3
 72
     8
 73
     4
 74
     0
 42
0.00000001
 43
0.00000001
 40
17.0
 40
17.0
 40
17.0
 40
17.0
 40
18.0
 40
18.0
 40
18.0
 40
18.0
 10
22.44909161822564
 20
15.3285340182336
 30
0.0
 10
22.13849790657041
 20
15.3285340182336
 30
0.0
 10
21.76680611653844
 20
15.17954543267921
 30
0.0
 10
21.49363674987499
 20
14.89078258893584
 30
0.0
  0
SPLINE
  5
140
330
7A
100
AcDbEntity
  8
0
370
    18
100
AcDbSpline
210
0.0
220
0.0
230
1.0
 70
     8
 71
     3
 72
     8
 73
     4
 74
     0
 42
0.00000001
 43
0.00000001
 40
18.0
 40
18.0
 40
18.0
 40
18.0
 40
19.0
 40
19.0
 40
19.0
 40
19.0
 10
21.49363674987499
 20
14.89078258893584
 30
0.0
 10
21.19977058636001
 20
14.5804723950457
 30
0.0
 10
21.02115439435381
 20
14.23252521783996
 30
0.0
 10
21.07530628748584
 20
13.57412608786154
 30
0.0
  0
SPLINE
  5
141
330
7A
100
AcDbEntity
  8
0
370
    18
100
AcDbSpline
210
0.0
220
0.0
230
1.0
 70
     8
 71
     3
 72
     8
 73
     4
 74
     0
 42
0.00000001
 43
0.00000001
 40
19.0
 40
19.0
 40
19.0
 40
19.0
 40
20.0
 40
20.0
 40
20.0
 40
20.0
 10
21.07530628748584
 20
13.57412608786154
 30
0.0
 10
21.10620972388057
 20
13.17124734366976
 30
0.0
 10
21.20147169295055
 20
12.84683214096644
 30
0.0
 10
21.45465305717521
 20
12.39688944776983
 30
0.0
  0
SPLINE
  5
142
330
7A
100
AcDbEntity
  8
0
370
    18
100
AcDbSpline
210
0.0
220
0.0
230
1.0
 70
     8
 71
     3
 72
     8
 73
     4
 74
     0
 42
0.00000001
 43
0.00000001
 40
2.0
 40
2.0
 40
2.0
 40
2.0
 40
3.0
 40
3.0
 40
3.0
 40
3.0
 10
7.402520307175909
 20
9.779028163818586
 30
0.0
 10
7.391392234896158
 20
9.555332647163173
 30
0.0
 10
7.206893049264348
 20
9.376999972922052
 30
0.0
 10
6.980291475516796
 20
9.376999972922052
 30
0.0
  0
SPLINE
  5
143
330
7A
100
AcDbEntity
  8
0
370
    18
100
AcDbSpline
210
0.0
220
0.0
230
1.0
 70
     8
 71
     3
 72
     8
 73
     4
 74
     0
 42
0.00000001
 43
0.00000001
 40
3.0
 40
3.0
 40
3.0
 40
3.0
 40
4.0
 40
4.0
 40
4.0
 40
4.0
 10
6.980291475516796
 20
9.376999972922052
 30
0.0
 10
6.751138241883437
 20
9.376999972922052
 30
0.0
 10
6.564937949661092
 20
9.559301895874432
 30
0.0
 10
6.557779126092594
 20
9.786683143475988
 30
0.0
  0
SPLINE
  5
144
330
7A
100
AcDbEntity
  8
0
370
    18
100
AcDbSpline
210
0.0
220
0.0
230
1.0
 70
     8
 71
     2
 72
     6
 73
     3
 74
     0
 42
0.00000001
 43
0.00000001
 40
6.0
 40
6.0
 40
6.0
 40
7.0
 40
7.0
 40
7.0
 10
5.714739051599811
 20
15.34185935319279
 30
0.0
 10
5.713888498304544
 20
9.698509118533215
 30
0.0
 10
5.713888498304544
 20
9.695815699764879
 30
0.0
  0
SPLINE
  5
145
330
7A
100
AcDbEntity
  8
0
370
    18
100
AcDbSpline
210
0.0
220
0.0
230
1.0
 70
     8
 71
     3
 72
     8
 73
     4
 74
     0
 42
0.00000001
 43
0.00000001
 40
7.0
 40
7.0
 40
7.0
 40
7.0
 40
8.0
 40
8.0
 40
8.0
 40
8.0
 10
5.713888498304544
 20
9.695815699764879
 30
0.0
 10
5.713888498304544
 20
8.997582323791436
 30
0.0
 10
6.279931716305157
 20
8.431680864673364
 30
0.0
 10
6.978094212837349
 20
8.431680864673364
 30
0.0
  0
SPLINE
  5
146
330
7A
100
AcDbEntity
  8
0
370
    18
100
AcDbSpline
210
0.0
220
0.0
230
1.0
 70
     8
 71
     3
 72
     8
 73
     4
 74
     0
 42
0.00000001
 43
0.00000001
 40
8.0
 40
8.0
 40
8.0
 40
8.0
 40
9.0
 40
9.0
 40
9.0
 40
9.0
 10
6.978094212837349
 20
8.431680864673364
 30
0.0
 10
7.676256709369548
 20
8.431680864673364
 30
0.0
 10
8.242299927370162
 20
8.997298806026343
 30
0.0
 10
8.242299927370162
 20
9.695815699764879
 30
0.0
  0
SPLINE
  5
147
330
7A
100
AcDbEntity
  8
0
370
    18
100
AcDbSpline
210
0.0
220
0.0
230
1.0
 70
     8
 71
     2
 72
     6
 73
     3
 74
     0
 42
0.00000001
 43
0.00000001
 40
9.0
 40
9.0
 40
9.0
 40
10.0
 40
10.0
 40
10.0
 10
8.242299927370162
 20
9.695815699764879
 30
0.0
 10
8.242299927370162
 20
9.701060778419045
 30
0.0
 10
8.246552693846501
 20
15.34185935319279
 30
0.0
  0
SPLINE
  5
148
330
7A
100
AcDbEntity
  8
0
370
    18
100
AcDbSpline
210
0.0
220
0.0
230
1.0
 70
     8
 71
     3
 72
     8
 73
     4
 74
     0
 42
0.00000001
 43
0.00000001
 40
2.0
 40
2.0
 40
2.0
 40
2.0
 40
3.0
 40
3.0
 40
3.0
 40
3.0
 10
25.33275080694805
 20
9.779028163818586
 30
0.0
 10
25.32155185522702
 20
9.555332647163173
 30
0.0
 10
25.13726530791903
 20
9.376999972922052
 30
0.0
 10
24.91073461361275
 20
9.376999972922052
 30
0.0
  0
SPLINE
  5
149
330
7A
100
AcDbEntity
  8
0
370
    18
100
AcDbSpline
210
0.0
220
0.0
230
1.0
 70
     8
 71
     3
 72
     8
 73
     4
 74
     0
 42
0.00000001
 43
0.00000001
 40
3.0
 40
3.0
 40
3.0
 40
3.0
 40
4.0
 40
4.0
 40
4.0
 40
4.0
 10
24.91073461361275
 20
9.376999972922052
 30
0.0
 10
24.68136874165558
 20
9.376999972922052
 30
0.0
 10
24.4952393288745
 20
9.559301895874432
 30
0.0
 10
24.48800962586473
 20
9.786683143475988
 30
0.0
  0
SPLINE
  5
14A
330
7A
100
AcDbEntity
  8
0
370
    18
100
AcDbSpline
210
0.0
220
0.0
230
1.0
 70
     8
 71
     2
 72
     6
 73
     3
 74
     0
 42
0.00000001
 43
0.00000001
 40
6.0
 40
6.0
 40
6.0
 40
7.0
 40
7.0
 40
7.0
 10
23.64511131025449
 20
15.34185935319279
 30
0.0
 10
23.64426075695922
 20
9.698509118533215
 30
0.0
 10
23.64426075695922
 20
9.695815699764879
 30
0.0
  0
SPLINE
  5
14B
330
7A
100
AcDbEntity
  8
0
370
    18
100
AcDbSpline
210
0.0
220
0.0
230
1.0
 70
     8
 71
     3
 72
     8
 73
     4
 74
     0
 42
0.00000001
 43
0.00000001
 40
7.0
 40
7.0
 40
7.0
 40
7.0
 40
8.0
 40
8.0
 40
8.0
 40
8.0
 10
23.64426075695922
 20
9.695815699764879
 30
0.0
 10
23.64426075695922
 20
8.997582323791436
 30
0.0
 10
24.2101622160773
 20
8.431680864673364
 30
0.0
 10
24.9083247126095
 20
8.431680864673364
 30
0.0
  0
SPLINE
  5
14C
330
7A
100
AcDbEntity
  8
0
370
    18
100
AcDbSpline
210
0.0
220
0.0
230
1.0
 70
     8
 71
     3
 72
     8
 73
     4
 74
     0
 42
0.00000001
 43
0.00000001
 40
8.0
 40
8.0
 40
8.0
 40
8.0
 40
9.0
 40
9.0
 40
9.0
 40
9.0
 10
24.9083247126095
 20
8.431680864673364
 30
0.0
 10
25.60648720914169
 20
8.431680864673364
 30
0.0
 10
26.17267218602484
 20
8.997298806026343
 30
0.0
 10
26.17267218602484
 20
9.695815699764879
 30
0.0
  0
SPLINE
  5
14D
330
7A
100
AcDbEntity
  8
0
370
    18
100
AcDbSpline
210
0.0
220
0.0
230
1.0
 70
     8
 71
     2
 72
     6
 73
     3
 74
     0
 42
0.00000001
 43
0.00000001
 40
9.0
 40
9.0
 40
9.0
 40
10.0
 40
10.0
 40
10.0
 10
26.17267218602484
 20
9.695815699764879
 30
0.0
 10
26.17267218602484
 20
9.701060778419045
 30
0.0
 10
26.17692495250119
 20
15.34185935319279
 30
0.0
  0
SPLINE
  5
14E
330
7A
100
AcDbEntity
  8
0
370
    18
100
AcDbSpline
210
0.0
220
0.0
230
1.0
 70
     8
 71
     2
 72
     6
 73
     3
 74
     0
 42
0.00000001
 43
0.00000001
 40
3.0
 40
3.0
 40
3.0
 40
4.0
 40
4.0
 40
4.0
 10
14.45063018841125
 20
10.41538378756133
 30
0.0
 10
14.35969186525889
 20
10.27064796848328
 30
0.0
 10
14.18199710598922
 20
10.09600102518832
 30
0.0
  0
SPLINE
  5
14F
330
7A
100
AcDbEntity
  8
0
370
    18
100
AcDbSpline
210
0.0
220
0.0
230
1.0
 70
     8
 71
     3
 72
     8
 73
     4
 74
     0
 42
0.00000001
 43
0.00000001
 40
4.0
 40
4.0
 40
4.0
 40
4.0
 40
5.0
 40
5.0
 40
5.0
 40
5.0
 10
14.18199710598922
 20
10.09600102518832
 30
0.0
 10
13.69647293327394
 20
9.605231773818897
 30
0.0
 10
13.01900723359326
 20
9.300450176347976
 30
0.0
 10
12.26938626269738
 20
9.300450176347976
 30
0.0
  0
SPLINE
  5
150
330
7A
100
AcDbEntity
  8
0
370
    18
100
AcDbSpline
210
0.0
220
0.0
230
1.0
 70
     8
 71
     3
 72
     8
 73
     4
 74
     0
 42
0.00000001
 43
0.00000001
 40
5.0
 40
5.0
 40
5.0
 40
5.0
 40
6.0
 40
6.0
 40
6.0
 40
6.0
 10
12.26938626269738
 20
9.300450176347976
 30
0.0
 10
10.79254222434765
 20
9.300450176347976
 30
0.0
 10
9.595246702375896
 20
10.48300277453512
 30
0.0
 10
9.595246702375896
 20
11.94219783200801
 30
0.0
  0
SPLINE
  5
151
330
7A
100
AcDbEntity
  8
0
370
    18
100
AcDbSpline
210
0.0
220
0.0
230
1.0
 70
     8
 71
     3
 72
     8
 73
     4
 74
     0
 42
0.00000001
 43
0.00000001
 40
6.0
 40
6.0
 40
6.0
 40
6.0
 40
7.0
 40
7.0
 40
7.0
 40
7.0
 10
9.595246702375896
 20
11.94219783200801
 30
0.0
 10
9.595246702375896
 20
13.40096761283331
 30
0.0
 10
10.79254222434765
 20
14.58366196990294
 30
0.0
 10
12.26938626269738
 20
14.58366196990294
 30
0.0
  0
SPLINE
  5
152
330
7A
100
AcDbEntity
  8
0
370
    18
100
AcDbSpline
210
0.0
220
0.0
230
1.0
 70
     8
 71
     3
 72
     8
 73
     4
 74
     0
 42
0.00000001
 43
0.00000001
 40
7.0
 40
7.0
 40
7.0
 40
7.0
 40
8.0
 40
8.0
 40
8.0
 40
8.0
 10
12.26938626269738
 20
14.58366196990294
 30
0.0
 10
13.16296337881731
 20
14.58366196990294
 30
0.0
 10
13.95355266676859
 20
14.15037594540535
 30
0.0
 10
14.50995628075617
 20
13.54215945984774
 30
0.0
  0
SPLINE
  5
153
330
7A
100
AcDbEntity
  8
0
370
    18
100
AcDbSpline
210
0.0
220
0.0
230
1.0
 70
     8
 71
     3
 72
     8
 73
     4
 74
     0
 42
0.00000001
 43
0.00000001
 40
9.0
 40
9.0
 40
9.0
 40
9.0
 40
10.0
 40
10.0
 40
10.0
 40
10.0
 10
15.22002652342211
 20
14.08367839116812
 30
0.0
 10
14.4993952440066
 20
14.90127274624418
 30
0.0
 10
13.45172622256067
 20
15.46922970915913
 30
0.0
 10
12.26938626269738
 20
15.46922970915913
 30
0.0
  0
SPLINE
  5
154
330
7A
100
AcDbEntity
  8
0
370
    18
100
AcDbSpline
210
0.0
220
0.0
230
1.0
 70
     8
 71
     3
 72
     8
 73
     4
 74
     0
 42
0.00000001
 43
0.00000001
 40
10.0
 40
10.0
 40
10.0
 40
10.0
 40
11.0
 40
11.0
 40
11.0
 40
11.0
 10
12.26938626269738
 20
15.46922970915913
 30
0.0
 10
10.2974493270606
 20
15.46922970915913
 30
0.0
 10
8.698692649722526
 20
13.89010663705348
 30
0.0
 10
8.698692649722526
 20
11.94219783200801
 30
0.0
  0
SPLINE
  5
155
330
7A
100
AcDbEntity
  8
0
370
    18
100
AcDbSpline
210
0.0
220
0.0
230
1.0
 70
     8
 71
     3
 72
     8
 73
     4
 74
     0
 42
0.00000001
 43
0.00000001
 40
11.0
 40
11.0
 40
11.0
 40
11.0
 40
12.0
 40
12.0
 40
12.0
 40
12.0
 10
8.698692649722526
 20
11.94219783200801
 30
0.0
 10
8.698692649722526
 20
9.993934629756218
 30
0.0
 10
10.2974493270606
 20
8.414811557650523
 30
0.0
 10
12.26938626269738
 20
8.414811557650523
 30
0.0
  0
SPLINE
  5
156
330
7A
100
AcDbEntity
  8
0
370
    18
100
AcDbSpline
210
0.0
220
0.0
230
1.0
 70
     8
 71
     3
 72
     8
 73
     4
 74
     0
 42
0.00000001
 43
0.00000001
 40
12.0
 40
12.0
 40
12.0
 40
12.0
 40
13.0
 40
13.0
 40
13.0
 40
13.0
 10
12.26938626269738
 20
8.414811557650523
 30
0.0
 10
13.33966582590916
 20
8.414811557650523
 30
0.0
 10
14.33247415981032
 20
8.880489486809598
 30
0.0
 10
14.98683316163622
 20
9.61742303771775
 30
0.0
  0
SPLINE
  5
157
330
7A
100
AcDbEntity
  8
0
370
    18
100
AcDbSpline
210
0.0
220
0.0
230
1.0
 70
     8
 71
     2
 72
     6
 73
     3
 74
     0
 42
0.00000001
 43
0.00000001
 40
13.0
 40
13.0
 40
13.0
 40
14.0
 40
14.0
 40
14.0
 10
14.98683316163622
 20
9.61742303771775
 30
0.0
 10
15.15226577756578
 20
9.800291996200263
 30
0.0
 10
15.29168563854841
 20
10.02668093162401
 30
0.0
  0
ENDBLK
  5
7C
330
7A
100
AcDbEntity
  8
0
100
AcDbBlockEnd
  0
BLOCK
  5
159
330
158
100
AcDbEntity
  8
0
100
AcDbBlockBegin
  2
ﾌﾞﾛｯｸ1
 70
     0
 10
0.0
 20
0.0
 30
0.0
  3
ﾌﾞﾛｯｸ1
  1

  0
CIRCLE
  5
15B
330
158
100
AcDbEntity
  8
9
  6
Continuous
 62
   179
100
AcDbCircle
 10
4.437888
 20
3.2320596145
 30
0.0
 40
1.109472
  0
CIRCLE
  5
15C
330
158
100
AcDbEntity
  8
9
  6
Continuous
 62
   179
100
AcDbCircle
 10
4.437888
 20
3.2320596145
 30
0.0
 40
2.218944
  0
LINE
  5
15D
330
158
100
AcDbEntity
  8
9
  6
CENTER
 62
   179
100
AcDbLine
 10
4.437888
 20
6.1328113459
 30
0.0
 11
4.437888
 21
0.0
 31
0.0
  0
LINE
  5
15E
330
158
100
AcDbEntity
  8
9
  6
CENTER
 62
   179
100
AcDbLine
 10
0.0
 20
3.2320596145
 30
0.0
 11
19.970496
 21
3.2320596145
 31
0.0
  0
LINE
  5
15F
330
158
100
AcDbEntity
  8
9
  6
Continuous
 62
   179
100
AcDbLine
 10
9.985248
 20
2.1225876145
 30
0.0
 11
17.751552
 21
1.0131156145
 31
0.0
  0
LINE
  5
160
330
158
100
AcDbEntity
  8
9
  6
Continuous
 62
   179
100
AcDbLine
 10
17.751552
 20
1.0131156145
 30
0.0
 11
17.751552
 21
3.2320596145
 31
0.0
  0
LINE
  5
161
330
158
100
AcDbEntity
  8
9
  6
Continuous
 62
   179
100
AcDbLine
 10
9.985248
 20
4.3415316145
 30
0.0
 11
9.985248
 21
2.1225876145
 31
0.0
  0
LINE
  5
162
330
158
100
AcDbEntity
  8
9
  6
Continuous
 62
   179
100
AcDbLine
 10
17.751552
 20
3.2320596145
 30
0.0
 11
17.751552
 21
5.4510036145
 31
0.0
  0
LINE
  5
163
330
158
100
AcDbEntity
  8
9
  6
Continuous
 62
   179
100
AcDbLine
 10
17.751552
 20
5.4510036145
 30
0.0
 11
9.985248
 21
4.3415316145
 31
0.0
  0
ENDBLK
  5
15A
330
158
100
AcDbEntity
  8
0
100
AcDbBlockEnd
  0
ENDSEC
  0
SECTION
  2
ENTITIES
  0
INSERT
  5
166
330
1F
100
AcDbEntity
  8
0
  6
Continuous
 62
     7
100
AcDbBlockReference
 66
     1
  2
ﾌﾞﾛｯｸ2
 10
0.0
 20
0.0
 30
0.0
  0
ATTRIB
  5
167
330
166
100
AcDbEntity
  8
SLD-0
 62
     7
100
AcDbText
 10
78.3050930978
 20
15.9259892778
 30
0.0
 40
4.0
  1
J95SC-0GR,J95SC-0NI
 41
0.7
  7
SLDTEXTSTYLE0
 11
78.3050930978
 21
14.5129490301
 31
0.0
100
AcDbAttribute
  2
AUTOATTR0
 70
     0
 74
     1
  0
ATTRIB
  5
168
330
166
100
AcDbEntity
  8
SLD-0
 62
     7
100
AcDbText
 10
78.3050930978
 20
9.8784312972
 30
0.0
 40
4.0
  1
J95SC-0BN
 41
0.7
  7
SLDTEXTSTYLE0
 11
78.3050930978
 21
8.4653910495
 31
0.0
100
AcDbAttribute
  2
AUTOATTR0
 70
     0
 74
     1
  0
ATTRIB
  5
169
330
166
100
AcDbEntity
  8
SLD-0
 62
     7
100
AcDbText
 10
66.9646413579
 20
16.8429035566
 30
0.0
 40
2.38125
  1
Title
 41
0.7
  7
SLDTEXTSTYLE0
 11
66.9646413579
 21
16.0017030342
 31
0.0
100
AcDbAttribute
  2
AUTOATTR0
 70
     0
 74
     1
  0
ATTRIB
  5
16A
330
166
100
AcDbEntity
  8
SLD-0
 62
     7
100
AcDbText
 10
66.9646413579
 20
2.4516379051
 30
0.0
 40
2.38125
  1
Date
 41
0.7
  7
SLDTEXTSTYLE0
 11
66.9646413579
 21
1.6104373826
 31
0.0
100
AcDbAttribute
  2
AUTOATTR0
 70
     0
 74
     1
  0
ATTRIB
  5
16B
330
166
100
AcDbEntity
  8
SLD-0
 62
     7
100
AcDbText
 10
51.857512217
 20
2.0282473934
 30
0.0
 40
4.0
  1
5:1
 41
0.7
  7
SLDTEXTSTYLE0
 11
51.857512217
 21
0.6152071457
 31
0.0
100
AcDbAttribute
  2
AUTOATTR0
 70
     0
 74
     1
  0
ATTRIB
  5
16C
330
166
100
AcDbEntity
  8
SLD-0
 62
     7
100
AcDbText
 10
38.4275608796
 20
2.4516379051
 30
0.0
 40
2.38125
  1
Scale
 41
0.7
  7
SLDTEXTSTYLE0
 11
38.4275608796
 21
1.6104373826
 31
0.0
100
AcDbAttribute
  2
AUTOATTR0
 70
     0
 74
     1
  0
ATTRIB
  5
16D
330
166
100
AcDbEntity
  8
SLD-0
 62
     7
100
AcDbText
 10
78.3050930978
 20
2.0282474516
 30
0.0
 40
4.0
  1

 41
0.7
  7
SLDTEXTSTYLE0
 11
78.3050930978
 21
0.6152072039
 31
0.0
100
AcDbAttribute
  2
AUTOATTR0
 70
     0
 74
     1
  0
SEQEND
  5
16E
330
166
100
AcDbEntity
  8
0
  6
Continuous
 62
     7
  0
MTEXT
  5
16F
330
1F
100
AcDbEntity
  8
9
 62
     7
100
AcDbMText
 10
78.2361068966
 20
6.188676847
 30
0.0
 40
4.0
 41
0.0
 71
     1
 72
     1
  1
2023/09/12
  7
SLDTEXTSTYLE0
 73
     1
 44
1.0
  0
LINE
  5
170
330
1F
100
AcDbEntity
  8
0
  6
Continuous
 62
     7
370
    25
100
AcDbLine
 10
194.2334011072
 20
141.0846124295
 30
0.0
 11
194.2110620513
 21
140.6399638335
 31
0.0
  0
LINE
  5
171
330
1F
100
AcDbEntity
  8
0
  6
Continuous
 62
     7
370
    25
100
AcDbLine
 10
209.4074095519
 20
140.6399638332
 30
0.0
 11
209.3850706811
 21
141.0846087437
 31
0.0
  0
SPLINE
  5
172
330
1F
100
AcDbEntity
  8
0
  6
Continuous
 62
     7
370
    25
100
AcDbSpline
210
0.0
220
0.0
230
1.0
 70
     8
 71
     3
 72
    17
 73
    13
 74
     0
 42
0.00000001
 43
0.00000001
 40
0.0
 40
0.0
 40
0.0
 40
0.0
 40
0.0912025090550753
 40
0.1735525455821318
 40
0.3137872077187857
 40
0.4196231866742336
 40
0.4924596893236223
 40
0.5570073573007415
 40
0.661318189811755
 40
0.8085961123191103
 40
0.8982865133047807
 40
1.0
 40
1.0
 40
1.0
 40
1.0
 10
197.1924824083466
 20
143.5899883821304
 30
0.0
 10
197.0638767232849
 20
143.5719445448689
 30
0.0
 10
196.819148324362
 20
143.5376082758206
 30
0.0
 10
196.3842264699487
 20
143.4223496756069
 30
0.0
 10
195.9463836840215
 20
143.2516187865199
 30
0.0
 10
195.5559036664123
 20
143.0337561382977
 30
0.0
 10
195.2831704507971
 20
142.8435356091453
 30
0.0
 10
195.0295667955322
 20
142.6337965781356
 30
0.0
 10
194.7327648764852
 20
142.3286086502479
 30
0.0
 10
194.4875161812554
 20
141.9634524987658
 30
0.0
 10
194.3196947160772
 20
141.5840460413024
 30
0.0
 10
194.2749513998457
 20
141.3668119211079
 30
0.0
 10
194.2511744601223
 20
141.2513720517203
 30
0.0
  0
SPLINE
  5
173
330
1F
100
AcDbEntity
  8
0
  6
Continuous
 62
     7
370
    25
100
AcDbSpline
210
0.0
220
0.0
230
1.0
 70
     8
 71
     3
 72
    18
 73
    14
 74
     0
 42
0.00000001
 43
0.00000001
 40
0.0
 40
0.0
 40
0.0
 40
0.0
 40
0.1014178966526035
 40
0.1869623184188318
 40
0.2837366500743025
 40
0.3449616475680873
 40
0.3950450139911738
 40
0.4519670540367091
 40
0.5388812141928128
 40
0.6550445890636242
 40
0.8080063239281827
 40
0.899331280570646
 40
1.0
 40
1.0
 40
1.0
 40
1.0
 10
209.3674373279349
 20
141.2505455105283
 30
0.0
 10
209.3435846130762
 20
141.3675348252062
 30
0.0
 10
209.2996125034411
 20
141.5832028110779
 30
0.0
 10
209.1583297740296
 20
141.9044160334754
 30
0.0
 10
208.9952393099716
 20
142.1700152435378
 30
0.0
 10
208.8260490810268
 20
142.3826793350577
 30
0.0
 10
208.6766241059143
 20
142.5439287191173
 30
0.0
 10
208.4888154191
 20
142.7205534717717
 30
0.0
 10
208.2113568725457
 20
142.9386784829497
 30
0.0
 10
207.7889824077693
 20
143.1972527388705
 30
0.0
 10
207.3145911744166
 20
143.3969166454414
 30
0.0
 10
206.8386179765398
 20
143.5308471911362
 30
0.0
 10
206.5679231061443
 20
143.5696452914655
 30
0.0
 10
206.4259887126979
 20
143.5899884358666
 30
0.0
  0
SPLINE
  5
174
330
1F
100
AcDbEntity
  8
0
  6
Continuous
 62
     7
370
    25
100
AcDbSpline
210
0.0
220
0.0
230
1.0
 70
     8
 71
     3
 72
    19
 73
    15
 74
     0
 42
0.00000001
 43
0.00000001
 40
0.0
 40
0.0
 40
0.0
 40
0.0
 40
0.1312139203037075
 40
0.2401330123755974
 40
0.3267581856554749
 40
0.3910898581218775
 40
0.4364510713856592
 40
0.4760361755843829
 40
0.511207210823434
 40
0.556523715176264
 40
0.6280554191037091
 40
0.7258118816386429
 40
0.8497932258672591
 40
1.0
 40
1.0
 40
1.0
 40
1.0
 10
206.4259892076171
 20
143.5899883808429
 30
0.0
 10
206.0247365728443
 20
143.6312123350893
 30
0.0
 10
205.2904089672929
 20
143.7066557963648
 30
0.0
 10
204.2849722969534
 20
143.7750086928917
 30
0.0
 10
203.4836575062976
 20
143.8136317243866
 30
0.0
 10
202.8774795160861
 20
143.8324639332004
 30
0.0
 10
202.4162923899097
 20
143.8412542118584
 30
0.0
 10
202.0450942061392
 20
143.8448402257353
 30
0.0
 10
201.6740023980152
 20
143.8453655430021
 30
0.0
 10
201.2041990082157
 20
143.8418417441607
 30
0.0
 10
200.5411680229724
 20
143.8283923438684
 30
0.0
 10
199.6361626596308
 20
143.7926564064141
 30
0.0
 10
198.4906536439515
 20
143.7217823407072
 30
0.0
 10
197.6519462649483
 20
143.6366344322343
 30
0.0
 10
197.192482410007
 20
143.5899883823168
 30
0.0
  0
LINE
  5
175
330
1F
100
AcDbEntity
  8
0
  6
Continuous
 62
     7
370
    25
100
AcDbLine
 10
191.29733003
 20
118.4781435563
 30
0.0
 11
191.7970254457
 21
118.4781435563
 31
0.0
  0
LINE
  5
176
330
1F
100
AcDbEntity
  8
0
  6
Continuous
 62
     7
370
    25
100
AcDbLine
 10
191.2973300304
 20
118.4781435563
 30
0.0
 11
191.4918316965
 21
124.0479425501
 31
0.0
  0
LINE
  5
177
330
1F
100
AcDbEntity
  8
0
  6
Continuous
 62
     7
370
    25
100
AcDbLine
 10
191.7970254457
 20
118.4781435563
 30
0.0
 11
211.8214461575
 21
118.4781435563
 31
0.0
  0
LINE
  5
178
330
1F
100
AcDbEntity
  8
0
  6
Continuous
 62
     7
370
    25
100
AcDbLine
 10
212.3211415733
 20
118.4781435563
 30
0.0
 11
211.8214461575
 21
118.4781435563
 31
0.0
  0
LINE
  5
179
330
1F
100
AcDbEntity
  8
0
  6
Continuous
 62
     7
370
    25
100
AcDbLine
 10
212.1266399062
 20
124.0479425493
 30
0.0
 11
212.3211415734
 21
118.4781435563
 31
0.0
  0
SPLINE
  5
17A
330
1F
100
AcDbEntity
  8
0
  6
Continuous
 62
     7
370
    25
100
AcDbSpline
210
0.0
220
0.0
230
1.0
 70
     8
 71
     3
 72
    14
 73
    10
 74
     0
 42
0.00000001
 43
0.00000001
 40
0.0
 40
0.0
 40
0.0
 40
0.0
 40
0.25
 40
0.25
 40
0.5
 40
0.5
 40
0.75
 40
0.75
 40
1.0
 40
1.0
 40
1.0
 40
1.0
 10
193.4906133521835
 20
125.9781435563268
 30
0.0
 10
193.2346290881835
 20
125.9781435563268
 30
0.0
 10
192.9787421756834
 20
125.9284036628268
 30
0.0
 10
192.5040581536835
 20
125.7366188688268
 30
0.0
 10
192.2854343676835
 20
125.5946429218268
 30
0.0
 10
191.9171588536835
 20
125.2390033918268
 30
0.0
 10
191.7676395356834
 20
125.0254676743268
 30
0.0
 10
191.5594053376834
 20
124.5577660103268
 30
0.0
 10
191.5007654201835
 20
124.3037708753268
 30
0.0
 10
191.4918316981835
 20
124.0479425493268
 30
0.0
  0
SPLINE
  5
17B
330
1F
100
AcDbEntity
  8
0
  6
Continuous
 62
     7
370
    25
100
AcDbSpline
210
0.0
220
0.0
230
1.0
 70
     8
 71
     3
 72
    14
 73
    10
 74
     0
 42
0.00000001
 43
0.00000001
 40
0.0
 40
0.0
 40
0.0
 40
0.0
 40
0.25
 40
0.25
 40
0.5
 40
0.5
 40
0.75
 40
0.75
 40
1.0
 40
1.0
 40
1.0
 40
1.0
 10
212.1266399061835
 20
124.0479425493268
 30
0.0
 10
212.1177061841835
 20
124.3037708753268
 30
0.0
 10
212.0590662666835
 20
124.5577660103268
 30
0.0
 10
211.8508320686835
 20
125.0254676743268
 30
0.0
 10
211.7013127506835
 20
125.2390033918268
 30
0.0
 10
211.3330372366835
 20
125.5946429218268
 30
0.0
 10
211.1144134506834
 20
125.7366188688268
 30
0.0
 10
210.6397294286834
 20
125.9284036628268
 30
0.0
 10
210.3838425161834
 20
125.9781435563268
 30
0.0
 10
210.1278582521834
 20
125.9781435563268
 30
0.0
  0
LINE
  5
17C
330
1F
100
AcDbEntity
  8
0
  6
Continuous
 62
     7
370
    25
100
AcDbLine
 10
193.4906133522
 20
125.9781435563
 30
0.0
 11
194.2095196782
 21
125.9781435563
 31
0.0
  0
ELLIPSE
  5
17D
330
1F
100
AcDbEntity
  8
0
  6
Continuous
 62
     7
370
    25
100
AcDbEllipse
 10
194.6920801892
 20
125.4781435563
 30
0.0
 11
-0.482775890441303
 21
0.4999290693190374
 31
0.0
210
0.0
220
0.0
230
1.0
 40
0.0174444382
 41
4.730451262873462
 42
6.266341019481406
  0
LINE
  5
17E
330
1F
100
AcDbEntity
  8
0
  6
Continuous
 62
     7
370
    25
100
AcDbLine
 10
209.4089519259
 20
125.9781435563
 30
0.0
 11
210.1278582522
 21
125.9781435563
 31
0.0
  0
ELLIPSE
  5
17F
330
1F
100
AcDbEntity
  8
0
  6
Continuous
 62
     7
370
    25
100
AcDbEllipse
 10
208.926391415
 20
125.4781435563
 30
0.0
 11
0.4827758903622907
 21
0.4999290692376803
 31
0.0
210
0.0
220
0.0
230
1.0
 40
0.0174444382
 41
0.0168442927944075
 42
1.552734044138302
  0
LINE
  5
180
330
1F
100
AcDbEntity
  8
0
  6
Continuous
 62
     7
370
    25
100
AcDbLine
 10
194.2092358017
 20
125.9781435563
 30
0.0
 11
194.2314681588
 21
126.6147949633
 31
0.0
  0
LINE
  5
181
330
1F
100
AcDbEntity
  8
0
  6
Continuous
 62
     7
370
    25
100
AcDbLine
 10
209.3870034453
 20
126.6147949545
 30
0.0
 11
209.4092358025
 21
125.9781435563
 31
0.0
  0
ARC
  5
182
330
1F
100
AcDbEntity
  8
0
  6
Continuous
 62
     7
370
    25
100
AcDbCircle
 10
208.8873080312
 20
126.5973452153
 30
0.0
 40
0.5000000002389438
100
AcDbArc
 50
1.9999989417
 51
75.8131073256
  0
ARC
  5
183
330
1F
100
AcDbEntity
  8
0
  6
Continuous
 62
     7
370
    25
100
AcDbCircle
 10
194.7311635732
 20
126.5973452153
 30
0.0
 40
0.5000000008476158
100
AcDbArc
 50
104.1868926979
 51
178.0000000479
  0
SPLINE
  5
184
330
1F
100
AcDbEntity
  8
0
  6
Continuous
 62
     7
370
    25
100
AcDbSpline
210
0.0
220
0.0
230
1.0
 70
     8
 71
     3
 72
    10
 73
     6
 74
     0
 42
0.00000001
 43
0.00000001
 40
0.0
 40
0.0
 40
0.0
 40
0.0
 40
0.5
 40
0.5
 40
1.0
 40
1.0
 40
1.0
 40
1.0
 10
209.0098508331835
 20
127.0820959363268
 30
0.0
 10
206.6588952131835
 20
127.6764069403268
 30
0.0
 10
204.2341433641834
 20
127.9781435563268
 30
0.0
 10
199.3843282401833
 20
127.9781435563268
 30
0.0
 10
196.9595763911834
 20
127.6764069403268
 30
0.0
 10
194.6086207711835
 20
127.0820959363268
 30
0.0
  0
LINE
  5
185
330
1F
100
AcDbEntity
  8
0
  6
Continuous
 62
     7
370
    25
100
AcDbLine
 10
194.2092358022
 20
128.4198872892
 30
0.0
 11
194.2092358022
 21
125.9781435563
 31
0.0
  0
LINE
  5
186
330
1F
100
AcDbEntity
  8
0
  6
Continuous
 62
     7
370
    25
100
AcDbLine
 10
209.4092358022
 20
125.9781435563
 30
0.0
 11
209.409235802
 21
128.4198872927
 31
0.0
  0
LINE
  5
187
330
1F
100
AcDbEntity
  8
0
  6
Continuous
 62
     7
370
    25
100
AcDbLine
 10
209.409235802
 20
128.4198872927
 30
0.0
 11
209.4092358019
 21
140.5672388367
 31
0.0
  0
LINE
  5
188
330
1F
100
AcDbEntity
  8
0
  6
Continuous
 62
     7
370
    25
100
AcDbLine
 10
194.2092358022
 20
128.4198872892
 30
0.0
 11
194.2092358016
 21
140.5672388376
 31
0.0
  0
LINE
  5
189
330
1F
100
AcDbEntity
  8
0
  6
Continuous
 62
     7
370
    25
100
AcDbLine
 10
194.2713526441
 20
141.2949936428
 30
0.0
 11
194.2418211833
 21
141.0838022866
 31
0.0
  0
ELLIPSE
  5
18A
330
1F
100
AcDbEntity
  8
0
  6
Continuous
 62
     7
370
    25
100
AcDbEllipse
 10
197.2110644347
 20
140.5646990612
 30
0.0
 11
3.001826696977503
 21
-0.004908240961725597
 31
0.0
210
0.0
220
0.0
230
1.0
 40
0.6946568942
 41
3.107844645277458
 42
3.142728475993112
  0
LINE
  5
18B
330
1F
100
AcDbEntity
  8
0
  6
Continuous
 62
     7
370
    25
100
AcDbLine
 10
209.3766710289
 20
141.0838017781
 30
0.0
 11
209.3482454444
 21
141.2874886403
 31
0.0
  0
ELLIPSE
  5
18C
330
1F
100
AcDbEntity
  8
0
  6
Continuous
 62
     7
370
    25
100
AcDbEllipse
 10
206.4074071689
 20
140.5646990608
 30
0.0
 11
3.00182669652591
 21
0.004908240960901367
 31
0.0
210
0.0
220
0.0
230
0.9999999999999999
 40
0.6946568942
 41
6.282049484309447
 42
6.316933315491887
  0
ARC
  5
18D
330
1F
100
AcDbEntity
  8
0
  6
PHANTOM
 62
     7
370
    18
100
AcDbCircle
 10
191.7416794036
 20
120.4633573898
 30
0.0
 40
3.59328187704574
100
AcDbArc
 50
86.0128985976
 51
93.9871014088
  0
LINE
  5
18E
330
1F
100
AcDbEntity
  8
0
  6
PHANTOM
 62
     7
370
    18
100
AcDbLine
 10
191.9915271043
 20
124.0479425485
 30
0.0
 11
191.7970254457
 21
118.4781435563
 31
0.0
  0
SPLINE
  5
18F
330
1F
100
AcDbEntity
  8
0
  6
PHANTOM
 62
     7
370
    18
100
AcDbSpline
210
0.0
220
0.0
230
1.0
 70
     8
 71
     3
 72
    10
 73
     6
 74
     0
 42
0.00000001
 43
0.00000001
 40
0.0
 40
0.0
 40
0.0
 40
0.0
 40
0.5
 40
0.5
 40
1.0
 40
1.0
 40
1.0
 40
1.0
 10
194.7311635731835
 20
126.6147949633268
 30
0.0
 10
197.0421097371834
 20
127.1989917573268
 30
0.0
 10
199.4255962381833
 20
127.4955933043267
 30
0.0
 10
204.1928753661834
 20
127.4955933043268
 30
0.0
 10
206.5763618671835
 20
127.1989917573268
 30
0.0
 10
208.8873080311835
 20
126.6147949633268
 30
0.0
  0
LINE
  5
190
330
1F
100
AcDbEntity
  8
0
  6
PHANTOM
 62
     7
370
    18
100
AcDbLine
 10
208.9263914163
 20
125.4955933086
 30
0.0
 11
208.8873080356
 21
126.6147949596
 31
0.0
  0
LINE
  5
191
330
1F
100
AcDbEntity
  8
0
  6
PHANTOM
 62
     7
370
    18
100
AcDbLine
 10
210.1278582464
 20
125.4955933086
 30
0.0
 11
208.9263914163
 21
125.4955933086
 31
0.0
  0
SPLINE
  5
192
330
1F
100
AcDbEntity
  8
0
  6
PHANTOM
 62
     7
370
    18
100
AcDbSpline
210
0.0
220
0.0
230
1.0
 70
     8
 71
     3
 72
    20
 73
    16
 74
     0
 42
0.00000001
 43
0.00000001
 40
0.0
 40
0.0
 40
0.0
 40
0.0
 40
0.0416862272293194
 40
0.0833402136810133
 40
0.1251325655916753
 40
0.1875635483634299
 40
0.2502327476207886
 40
0.3751775487021927
 40
0.5001087022217999
 40
0.6250253392624548
 40
0.749928705123544
 40
0.8123285909006301
 40
0.8749667838917587
 40
0.9374237822718989
 40
1.0
 40
1.0
 40
1.0
 40
1.0
 10
211.6269444931835
 20
124.0479425493307
 30
0.0
 10
211.6252410634436
 20
124.0798810508565
 30
0.0
 10
211.621835521423
 20
124.1437333521735
 30
0.0
 10
211.6089457839697
 20
124.2389425709759
 30
0.0
 10
211.587380210512
 20
124.3487857435564
 30
0.0
 10
211.5525703475205
 20
124.4722091463572
 30
0.0
 10
211.4829742479176
 20
124.6511858189791
 30
0.0
 10
211.3641619792614
 20
124.8612815115258
 30
0.0
 10
211.1762714149944
 20
125.081229453312
 30
0.0
 10
210.9498982302578
 20
125.2613500797019
 30
0.0
 10
210.7359379795305
 20
125.3726400967815
 30
0.0
 10
210.554642679879
 20
125.4360737072544
 30
0.0
 10
210.4146436600675
 20
125.4700890490233
 30
0.0
 10
210.2719004318973
 20
125.4916436375085
 30
0.0
 10
210.1759028233731
 20
125.4942759120892
 30
0.0
 10
210.1278582521834
 20
125.4955933043183
 30
0.0
  0
LINE
  5
193
330
1F
100
AcDbEntity
  8
0
  6
PHANTOM
 62
     7
370
    18
100
AcDbLine
 10
211.8214461575
 20
118.4781435563
 30
0.0
 11
211.6269445
 21
124.0479425485
 31
0.0
  0
SPLINE
  5
194
330
1F
100
AcDbEntity
  8
0
  6
PHANTOM
 62
     7
370
    18
100
AcDbSpline
210
0.0
220
0.0
230
1.0
 70
     8
 71
     3
 72
    20
 73
    16
 74
     0
 42
0.00000001
 43
0.00000001
 40
0.0
 40
0.0
 40
0.0
 40
0.0
 40
0.0416609705136027
 40
0.083290245671977
 40
0.125058735276995
 40
0.1874566251137078
 40
0.2500968083958943
 40
0.375000168607237
 40
0.4999167999975486
 40
0.6248479478661555
 40
0.7497927432959403
 40
0.8122215189449518
 40
0.8748929196973438
 40
0.9373859901837498
 40
1.0
 40
1.0
 40
1.0
 40
1.0
 10
193.4906133521835
 20
125.4955933043183
 30
0.0
 10
193.4586347863779
 20
125.4950055438958
 30
0.0
 10
193.3947019838207
 20
125.4938304702146
 30
0.0
 10
193.2991004733726
 20
125.4842712288754
 30
0.0
 10
193.1885702043379
 20
125.4665519571284
 30
0.0
 10
193.0640049224845
 20
125.4360697979683
 30
0.0
 10
192.8826992681288
 20
125.3727583972762
 30
0.0
 10
192.6685722654138
 20
125.2613390012745
 30
0.0
 10
192.4422032420095
 20
125.0812324039132
 30
0.0
 10
192.25429852153
 20
124.861280789316
 30
0.0
 10
192.1356213656927
 20
124.6513472596594
 30
0.0
 10
192.0659035002011
 20
124.4723851746785
 30
0.0
 10
192.0270237427088
 20
124.3336598380309
 30
0.0
 10
192.0005011825821
 20
124.1917572161265
 30
0.0
 10
191.9945203954985
 20
124.0959116558001
 30
0.0
 10
191.9915271111834
 20
124.0479425493307
 30
0.0
  0
LINE
  5
195
330
1F
100
AcDbEntity
  8
0
  6
PHANTOM
 62
     7
370
    18
100
AcDbLine
 10
194.692080188
 20
125.4955933086
 30
0.0
 11
193.490613358
 21
125.4955933086
 31
0.0
  0
LINE
  5
196
330
1F
100
AcDbEntity
  8
0
  6
PHANTOM
 62
     7
370
    18
100
AcDbLine
 10
194.7311635687
 20
126.6147949596
 30
0.0
 11
194.692080188
 21
125.4955933086
 31
0.0
  0
SPLINE
  5
197
330
1F
100
AcDbEntity
  8
0
  6
PHANTOM
 62
     7
370
    18
100
AcDbSpline
210
0.0
220
0.0
230
1.0
 70
     8
 71
     3
 72
    14
 73
    10
 74
     0
 42
0.00000001
 43
0.00000001
 40
0.0
 40
0.0
 40
0.0
 40
0.0
 40
0.2499999999999997
 40
0.2499999999999997
 40
0.4999999999999994
 40
0.4999999999999994
 40
0.7499999999999997
 40
0.7499999999999997
 40
1.0
 40
1.0
 40
1.0
 40
1.0
 10
211.6269444932057
 20
124.0479425486903
 30
0.0
 10
211.6857983320513
 20
124.0499952668758
 30
0.0
 10
211.749286927737
 20
124.0518353076021
 30
0.0
 10
211.8722247344689
 20
124.0544248960539
 30
0.0
 10
211.9312940263555
 20
124.0551554565803
 30
0.0
 10
212.0288410261577
 20
124.0551554565389
 30
0.0
 10
212.0669898018481
 20
124.0544248959712
 30
0.0
 10
212.1157714990999
 20
124.0518353074465
 30
0.0
 10
212.1265682237265
 20
124.0499952666886
 30
0.0
 10
212.1266399062131
 20
124.0479425484781
 30
0.0
  0
LINE
  5
198
330
1F
100
AcDbEntity
  8
0
  6
PHANTOM
 62
     7
370
    18
100
AcDbLine
 10
193.4906133522
 20
125.4955933045
 30
0.0
 11
193.4906133522
 21
125.9781435563
 31
0.0
  0
LINE
  5
199
330
1F
100
AcDbEntity
  8
0
  6
PHANTOM
 62
     7
370
    18
100
AcDbLine
 10
210.1278582522
 20
125.9781435563
 30
0.0
 11
210.1278582522
 21
125.4955933045
 31
0.0
  0
ARC
  5
19A
330
1F
100
AcDbEntity
  8
0
  6
PHANTOM
 62
     7
370
    18
100
AcDbCircle
 10
194.4813158644
 20
123.030209739
 30
0.0
 40
3.593281940822302
100
AcDbArc
 50
86.0128986348
 51
93.9871013133
  0
ARC
  5
19B
330
1F
100
AcDbEntity
  8
0
  6
PHANTOM
 62
     7
370
    18
100
AcDbCircle
 10
209.1371556766
 20
123.0302096343
 30
0.0
 40
3.593282040824203
100
AcDbArc
 50
86.0128977886
 51
93.98710024
  0
SPLINE
  5
19C
330
1F
100
AcDbEntity
  8
0
  6
PHANTOM
 62
     7
370
    18
100
AcDbSpline
210
0.0
220
0.0
230
1.0
 70
     8
 71
     3
 72
    14
 73
    10
 74
     0
 42
0.00000001
 43
0.00000001
 40
0.0
 40
0.0
 40
0.0
 40
0.0
 40
0.2500000000000003
 40
0.2500000000000003
 40
0.5000000000000002
 40
0.5000000000000002
 40
0.7500000000000001
 40
0.7500000000000001
 40
1.0
 40
1.0
 40
1.0
 40
1.0
 10
208.8873080257841
 20
126.6147949646917
 30
0.0
 10
208.9015115435508
 20
126.6709123327504
 30
0.0
 10
208.916786719109
 20
126.7309019869346
 30
0.0
 10
208.9463968144886
 20
126.8462578356136
 30
0.0
 10
208.9606477133741
 20
126.9012870268385
 30
0.0
 10
208.9844105513939
 20
126.9919035065966
 30
0.0
 10
208.9938492108943
 20
127.0272113528153
 30
0.0
 10
209.0063127816094
 20
127.0722979356686
 30
0.0
 10
209.0093702500707
 20
127.0822174255153
 30
0.0
 10
209.0098508276907
 20
127.0820959377153
 30
0.0
  0
SPLINE
  5
19D
330
1F
100
AcDbEntity
  8
0
  6
PHANTOM
 62
     7
370
    18
100
AcDbSpline
210
0.0
220
0.0
230
1.0
 70
     8
 71
     3
 72
    14
 73
    10
 74
     0
 42
0.00000001
 43
0.00000001
 40
0.0
 40
0.0
 40
0.0
 40
0.0
 40
0.2499999999999999
 40
0.2499999999999999
 40
0.4999999999999998
 40
0.4999999999999998
 40
0.7499999999999999
 40
0.7499999999999999
 40
1.0
 40
1.0
 40
1.0
 40
1.0
 10
194.6086207588012
 20
127.0820959331966
 30
0.0
 10
194.6091013364222
 20
127.0822174209971
 30
0.0
 10
194.6121588048911
 20
127.0722979311527
 30
0.0
 10
194.624622375637
 20
127.0272113483075
 30
0.0
 10
194.6340610351609
 20
126.9919035020947
 30
0.0
 10
194.6578238732397
 20
126.9012870223515
 30
0.0
 10
194.6720747721606
 20
126.8462578311354
 30
0.0
 10
194.7016848676137
 20
126.7309019824746
 30
0.0
 10
194.7169600432099
 20
126.6709123282999
 30
0.0
 10
194.7311635610119
 20
126.6147949602499
 30
0.0
  0
LINE
  5
19E
330
1F
100
AcDbEntity
  8
0
  6
PHANTOM
 62
     7
370
    18
100
AcDbLine
 10
209.0098508311
 20
127.0820959368
 30
0.0
 11
209.0098508336
 21
129.2140041781
 31
0.0
  0
ARC
  5
19F
330
1F
100
AcDbEntity
  8
0
  6
PHANTOM
 62
     7
370
    18
100
AcDbCircle
 10
208.9815115003
 20
128.8025543869
 30
0.0
 40
0.4124245973031116
100
AcDbArc
 50
10.5202316843
 51
86.0598744874
  0
LINE
  5
1A0
330
1F
100
AcDbEntity
  8
0
  6
PHANTOM
 62
     7
370
    18
100
AcDbLine
 10
209.3870034449
 20
126.6147949635
 30
0.0
 11
209.3870034452
 21
128.8778559879
 31
0.0
  0
ARC
  5
1A1
330
1F
100
AcDbEntity
  8
0
  6
PHANTOM
 62
     7
370
    18
100
AcDbCircle
 10
201.7881547805
 20
89.5516084081
 30
0.0
 40
40.30696399906937
100
AcDbArc
 50
89.970033628
 51
100.2603574193
  0
SPLINE
  5
1A2
330
1F
100
AcDbEntity
  8
0
  6
PHANTOM
 62
     7
370
    18
100
AcDbSpline
210
0.0
220
0.0
230
1.0
 70
    24
 71
     3
 72
    14
 73
    10
 74
     0
 42
0.00000001
 43
0.00000001
 40
0.0
 40
0.0
 40
0.0
 40
0.0
 40
0.25
 40
0.25
 40
0.5
 40
0.5
 40
0.75
 40
0.75
 40
1.0
 40
1.0
 40
1.0
 40
1.0
 10
201.8092358013361
 20
129.8585668939718
 30
0.0
 10
201.8092358013361
 20
129.5679838675576
 30
0.0
 10
201.8092358013361
 20
129.300442828911
 30
0.0
 10
201.8092358013361
 20
128.8307074714146
 30
0.0
 10
201.8092358013361
 20
128.6286344555377
 30
0.0
 10
201.8092358013361
 20
128.3033890059967
 30
0.0
 10
201.8092358013361
 20
128.1802735315739
 30
0.0
 10
201.8092358013361
 20
128.0176650466278
 30
0.0
 10
201.8092358013361
 20
127.9781435564837
 30
0.0
 10
201.8092358013361
 20
127.9781435564837
 30
0.0
  0
LINE
  5
1A3
330
1F
100
AcDbEntity
  8
0
  6
PHANTOM
 62
     7
370
    18
100
AcDbLine
 10
194.6086207682
 20
129.2140041777
 30
0.0
 11
194.6086207659
 21
127.0820959349
 31
0.0
  0
ARC
  5
1A4
330
1F
100
AcDbEntity
  8
0
  6
PHANTOM
 62
     7
370
    18
100
AcDbCircle
 10
201.8303168255
 20
89.5516084332
 30
0.0
 40
40.30696397395072
100
AcDbArc
 50
79.7396425802
 51
90.0299663818
  0
LINE
  5
1A5
330
1F
100
AcDbEntity
  8
0
  6
PHANTOM
 62
     7
370
    18
100
AcDbLine
 10
209.3870034452
 20
128.8778559879
 30
0.0
 11
209.409235802
 21
128.4198872927
 31
0.0
  0
LINE
  5
1A6
330
1F
100
AcDbEntity
  8
0
  6
PHANTOM
 62
     7
370
    18
100
AcDbLine
 10
194.2314681592
 20
128.8778559881
 30
0.0
 11
194.2314681594
 21
126.6147949634
 31
0.0
  0
LINE
  5
1A7
330
1F
100
AcDbEntity
  8
0
  6
PHANTOM
 62
     7
370
    18
100
AcDbLine
 10
194.2092358022
 20
128.4198872892
 30
0.0
 11
194.2314681592
 21
128.8778559881
 31
0.0
  0
ARC
  5
1A8
330
1F
100
AcDbEntity
  8
0
  6
PHANTOM
 62
     7
370
    18
100
AcDbCircle
 10
194.6369601038
 20
128.8025543869
 30
0.0
 40
0.4124245970951692
100
AcDbArc
 50
93.9401258358
 51
169.4797682823
  0
LINE
  5
1A9
330
1F
100
AcDbEntity
  8
0
  6
PHANTOM
 62
     7
370
    18
100
AcDbLine
 10
194.6086207682
 20
129.2140041777
 30
0.0
 11
194.6086207652
 21
141.3459118234
 31
0.0
  0
SPLINE
  5
1AA
330
1F
100
AcDbEntity
  8
0
  6
PHANTOM
 62
     7
370
    18
100
AcDbSpline
210
0.0
220
0.0
230
1.0
 70
     8
 71
     3
 72
    20
 73
    16
 74
     0
 42
0.00000001
 43
0.00000001
 40
0.0
 40
0.0
 40
0.0
 40
0.0
 40
0.2499999999999989
 40
0.2499999999999989
 40
0.374999999999999
 40
0.374999999999999
 40
0.4999999999999992
 40
0.4999999999999992
 40
0.6249999999999994
 40
0.6249999999999994
 40
0.7499999999999996
 40
0.7499999999999996
 40
0.8749999999999998
 40
0.8749999999999998
 40
1.0
 40
1.0
 40
1.0
 40
1.0
 10
194.6086207711834
 20
141.3459118293268
 30
0.0
 10
194.6086207751835
 20
141.5777395793268
 30
0.0
 10
194.6783752578501
 20
141.8206510083268
 30
0.0
 10
194.8738624198501
 20
142.1691289443268
 30
0.0
 10
194.9554233475835
 20
142.2848282867268
 30
0.0
 10
195.1443601011835
 20
142.5047314003268
 30
0.0
 10
195.2511004421834
 20
142.6087906003268
 30
0.0
 10
195.4885665208501
 20
142.8048874296601
 30
0.0
 10
195.6204846521834
 20
142.8973731329934
 30
0.0
 10
195.8975786001834
 20
143.0619046183268
 30
0.0
 10
196.0437966251835
 20
143.1350253833268
 30
0.0
 10
196.3518100038501
 20
143.2623760566601
 30
0.0
 10
196.5125667655168
 20
143.3158815986601
 30
0.0
 10
196.8364989121835
 20
143.3991409493268
 30
0.0
 10
197.0012064181834
 20
143.4295657213268
 30
0.0
 10
197.1687663451835
 20
143.4482063283268
 30
0.0
  0
SPLINE
  5
1AB
330
1F
100
AcDbEntity
  8
0
  6
PHANTOM
 62
     7
370
    18
100
AcDbSpline
210
0.0
220
0.0
230
1.0
 70
     8
 71
     3
 72
     8
 73
     4
 74
     0
 42
0.00000001
 43
0.00000001
 40
0.0
 40
0.0
 40
0.0
 40
0.0
 40
1.0
 40
1.0
 40
1.0
 40
1.0
 10
197.1687663451835
 20
143.4482063283268
 30
0.0
 10
198.7026037921504
 20
143.6188417367681
 30
0.0
 10
200.2559079052182
 20
143.7046961437709
 30
0.0
 10
201.8092358142354
 20
143.7046961433268
 30
0.0
  0
SPLINE
  5
1AC
330
1F
100
AcDbEntity
  8
0
  6
PHANTOM
 62
     7
370
    18
100
AcDbSpline
210
0.0
220
0.0
230
1.0
 70
     8
 71
     3
 72
     8
 73
     4
 74
     0
 42
0.00000001
 43
0.00000001
 40
0.0
 40
0.0
 40
0.0
 40
0.0
 40
1.0
 40
1.0
 40
1.0
 40
1.0
 10
201.8092358142354
 20
143.7046961433268
 30
0.0
 10
203.362563715218
 20
143.7046961428827
 30
0.0
 10
204.9158678201504
 20
143.6188417358855
 30
0.0
 10
206.4497052591835
 20
143.4482063283268
 30
0.0
  0
SPLINE
  5
1AD
330
1F
100
AcDbEntity
  8
0
  6
PHANTOM
 62
     7
370
    18
100
AcDbSpline
210
0.0
220
0.0
230
1.0
 70
     8
 71
     3
 72
    20
 73
    16
 74
     0
 42
0.00000001
 43
0.00000001
 40
0.0
 40
0.0
 40
0.0
 40
0.0
 40
0.125
 40
0.125
 40
0.25
 40
0.25
 40
0.5
 40
0.5
 40
0.625
 40
0.625
 40
0.75
 40
0.75
 40
0.875
 40
0.875
 40
1.0
 40
1.0
 40
1.0
 40
1.0
 10
206.4497052591835
 20
143.4482063283268
 30
0.0
 10
206.6171843631835
 20
143.4295747133268
 30
0.0
 10
206.7825091211835
 20
143.3990911233268
 30
0.0
 10
207.1089203651835
 20
143.3150175113268
 30
0.0
 10
207.2697464601835
 20
143.2612079933268
 30
0.0
 10
207.7284122301835
 20
143.0712445673268
 30
0.0
 10
208.0129408296835
 20
142.9016856403268
 30
0.0
 10
208.3682428386835
 20
142.6079647783268
 30
0.0
 10
208.4769220591834
 20
142.5018263003268
 30
0.0
 10
208.6653923471835
 20
142.2817237643268
 30
0.0
 10
208.7452546641834
 20
142.1682252703268
 30
0.0
 10
208.8759470865835
 20
141.9347541919268
 30
0.0
 10
208.9263870898501
 20
141.8145520253268
 30
0.0
 10
208.9928880671835
 20
141.5787673253268
 30
0.0
 10
209.0098508291834
 20
141.4618088353268
 30
0.0
 10
209.0098508331835
 20
141.3459118293268
 30
0.0
  0
LINE
  5
1AE
330
1F
100
AcDbEntity
  8
0
  6
PHANTOM
 62
     7
370
    18
100
AcDbLine
 10
209.0098508341
 20
141.3459118243
 30
0.0
 11
209.0098508336
 21
129.2140041781
 31
0.0
  0
ARC
  5
1AF
330
1F
100
AcDbEntity
  8
0
  6
PHANTOM
 62
     7
370
    18
100
AcDbCircle
 10
208.9815114993
 20
140.9344620359
 30
0.0
 40
0.4124245993399917
100
AcDbArc
 50
10.5202320633
 51
86.0598742809
  0
LINE
  5
1B0
330
1F
100
AcDbEntity
  8
0
  6
PHANTOM
 62
     7
370
    18
100
AcDbLine
 10
209.3870034456
 20
141.0097636399
 30
0.0
 11
209.3870034452
 21
128.8778559879
 31
0.0
  0
LINE
  5
1B1
330
1F
100
AcDbEntity
  8
0
  6
PHANTOM
 62
     7
370
    18
100
AcDbLine
 10
194.2314681592
 20
128.8778559881
 30
0.0
 11
194.2314681587
 21
141.0097636398
 31
0.0
  0
SPLINE
  5
1B2
330
1F
100
AcDbEntity
  8
0
  6
PHANTOM
 62
     7
370
    18
100
AcDbSpline
210
0.0
220
0.0
230
1.0
 70
     8
 71
     3
 72
    10
 73
     6
 74
     0
 42
0.00000001
 43
0.00000001
 40
0.0
 40
0.0
 40
0.0
 40
0.0
 40
0.5
 40
0.5
 40
1.0
 40
1.0
 40
1.0
 40
1.0
 10
194.231468159105
 20
141.0097633700651
 30
0.0
 10
194.2349610846157
 20
141.0817148419233
 30
0.0
 10
194.2722199340766
 20
141.1608395581954
 30
0.0
 10
194.4119358947802
 20
141.2853654719393
 30
0.0
 10
194.511587945597
 20
141.3282665777189
 30
0.0
 10
194.6086207711835
 20
141.3459116054097
 30
0.0
  0
LINE
  5
1B3
330
1F
100
AcDbEntity
  8
0
  6
PHANTOM
 62
     7
370
    18
100
AcDbLine
 10
209.4092358019
 20
140.5672388367
 30
0.0
 11
209.387003445
 21
141.0097636376
 31
0.0
  0
LINE
  5
1B4
330
1F
100
AcDbEntity
  8
0
  6
PHANTOM
 62
     7
370
    18
100
AcDbLine
 10
194.2314681584
 20
141.009763641
 30
0.0
 11
194.2092358016
 21
140.5672388376
 31
0.0
  0
LINE
  5
1B5
330
1F
100
AcDbEntity
  8
0
  6
PHANTOM
 62
     7
370
    18
100
AcDbLine
 10
194.2418211833
 20
141.0838022866
 30
0.0
 11
194.2314681584
 21
141.0097636403
 31
0.0
  0
ARC
  5
1B6
330
1F
100
AcDbEntity
  8
0
  6
PHANTOM
 62
     7
370
    18
100
AcDbCircle
 10
197.376180817
 20
143.4864067698
 30
0.0
 40
0.2109028979334096
100
AcDbArc
 50
150.5854429258
 51
190.4354749418
  0
SPLINE
  5
1B7
330
1F
100
AcDbEntity
  8
0
  6
PHANTOM
 62
     7
370
    18
100
AcDbSpline
210
0.0
220
0.0
230
1.0
 70
     8
 71
     3
 72
     9
 73
     5
 74
     0
 42
0.00000001
 43
0.00000001
 40
0.0
 40
0.0
 40
0.0
 40
0.0
 40
0.5150225928199862
 40
1.0
 40
1.0
 40
1.0
 40
1.0
 10
206.4259098354292
 20
143.5893975691406
 30
0.0
 10
206.4326639202609
 20
143.5820406836431
 30
0.0
 10
206.4457780727773
 20
143.5677560957433
 30
0.0
 10
206.4484223936715
 20
143.4872500092235
 30
0.0
 10
206.4497048295624
 20
143.448206376121
 30
0.0
  0
LINE
  5
1B8
330
1F
100
AcDbEntity
  8
9
  6
CENTERX2
 62
     7
370
    18
100
AcDbLine
 10
201.8092358024
 20
115.5688778737
 30
0.0
 11
201.8092358016
 21
146.3530833865
 31
0.0
  0
SPLINE
  5
1B9
330
1F
100
AcDbEntity
  8
0
  6
Continuous
 62
     7
370
    25
100
AcDbSpline
210
0.0
220
0.0
230
1.0
 70
     8
 71
     3
 72
    11
 73
     7
 74
     0
 42
0.00000001
 43
0.00000001
 40
0.0
 40
0.0
 40
0.0
 40
0.0
 40
0.248514220010807
 40
0.5039731653052077
 40
0.7571282571976121
 40
1.0
 40
1.0
 40
1.0
 40
1.0
 10
161.1199960343171
 20
125.6747806200406
 30
0.0
 10
161.096450481413
 20
125.7184434382449
 30
0.0
 10
161.0487013955641
 20
125.806989231301
 30
0.0
 10
160.9324333024463
 20
125.8976291629347
 30
0.0
 10
160.7986375265771
 20
125.9484468958883
 30
0.0
 10
160.7064070130668
 20
125.9437148800183
 30
0.0
 10
160.6612477918533
 20
125.9413979228278
 30
0.0
  0
LINE
  5
1BA
330
1F
100
AcDbEntity
  8
0
  6
Continuous
 62
     7
370
    25
100
AcDbLine
 10
116.9889187077
 20
129.8585668945
 30
0.0
 11
102.6397842652
 21
143.7153649539
 31
0.0
  0
LINE
  5
1BB
330
1F
100
AcDbEntity
  8
0
  6
Continuous
 62
     7
370
    25
100
AcDbLine
 10
160.6230796818
 20
127.9781435563
 30
0.0
 11
121.6431297899
 21
127.9781435563
 31
0.0
  0
SPLINE
  5
1BC
330
1F
100
AcDbEntity
  8
0
  6
Continuous
 62
     7
370
    25
100
AcDbSpline
210
0.0
220
0.0
230
1.0
 70
     8
 71
     3
 72
    11
 73
     7
 74
     0
 42
0.00000001
 43
0.00000001
 40
0.0
 40
0.0
 40
0.0
 40
0.0
 40
0.2405540740350347
 40
0.5000000002504339
 40
0.7594459263091181
 40
1.0
 40
1.0
 40
1.0
 40
1.0
 10
161.0901392768534
 20
127.4955933043268
 30
0.0
 10
161.081334248903
 20
127.5569218829556
 30
0.0
 10
161.0630326924024
 20
127.684395464323
 30
0.0
 10
160.9461885376863
 20
127.8465279501929
 30
0.0
 10
160.780077016612
 20
127.9576425847366
 30
0.0
 10
160.6520423737245
 20
127.9714842286592
 30
0.0
 10
160.5904438638534
 20
127.9781435563268
 30
0.0
  0
SPLINE
  5
1BD
330
1F
100
AcDbEntity
  8
0
  6
Continuous
 62
     7
370
    25
100
AcDbSpline
210
0.0
220
0.0
230
1.0
 70
     8
 71
     3
 72
    11
 73
     7
 74
     0
 42
0.00000001
 43
0.00000001
 40
0.0
 40
0.0
 40
0.0
 40
0.0
 40
0.2405540738433189
 40
0.499999999999981
 40
0.7594459261566432
 40
0.9999999999999999
 40
0.9999999999999999
 40
0.9999999999999999
 40
0.9999999999999999
 10
102.6508321418533
 20
143.7046961433268
 30
0.0
 10
102.6018959243554
 20
143.7426957443828
 30
0.0
 10
102.5001802961057
 20
143.8216792353893
 30
0.0
 10
102.3035029568534
 20
143.8571408150488
 30
0.0
 10
102.106825617601
 20
143.8216792353893
 30
0.0
 10
102.0051099893514
 20
143.7426957443828
 30
0.0
 10
101.9561737718534
 20
143.7046961433268
 30
0.0
  0
LINE
  5
1BE
330
1F
100
AcDbEntity
  8
0
  6
Continuous
 62
     7
370
    25
100
AcDbLine
 10
129.6431297899
 20
125.1781435563
 30
0.0
 11
129.6431297899
 21
125.9781435563
 31
0.0
  0
LINE
  5
1BF
330
1F
100
AcDbEntity
  8
0
  6
Continuous
 62
     7
370
    25
100
AcDbLine
 10
127.1431297899
 20
125.9781435563
 30
0.0
 11
127.1431297899
 21
125.1781435563
 31
0.0
  0
SPLINE
  5
1C0
330
1F
100
AcDbEntity
  8
0
  6
Continuous
 62
     7
370
    25
100
AcDbSpline
210
0.0
220
0.0
230
1.0
 70
     8
 71
     3
 72
    17
 73
    13
 74
     0
 42
0.00000001
 43
0.00000001
 40
0.0
 40
0.0
 40
0.0
 40
0.0
 40
0.1077137079962103
 40
0.2121768624490177
 40
0.3107324252849626
 40
0.4016191492797773
 40
0.4840197477151652
 40
0.5578914883746846
 40
0.6241278049279074
 40
0.6853644891279405
 40
0.9767217126396456
 40
1.0
 40
1.0
 40
1.0
 40
1.0
 10
127.1431297898534
 20
125.1781435563268
 30
0.0
 10
127.1443490132879
 20
125.1617124248361
 30
0.0
 10
127.14675066678
 20
125.1293460158521
 30
0.0
 10
127.1652418203149
 20
125.0843289241783
 30
0.0
 10
127.1917757046701
 20
125.0462003450623
 30
0.0
 10
127.2237375831837
 20
125.0168997302204
 30
0.0
 10
127.2569678571018
 20
124.9967981276994
 30
0.0
 10
127.2883455949223
 20
124.9850142561781
 30
0.0
 10
127.3157521516275
 20
124.97946282039
 30
0.0
 10
127.3654638551269
 20
124.9765957251871
 30
0.0
 10
127.3763317353165
 20
124.9781789389245
 30
0.0
 10
127.4138617092123
 20
124.9781461363582
 30
0.0
 10
127.4166383618366
 20
124.9781437094625
 30
0.0
  0
SPLINE
  5
1C1
330
1F
100
AcDbEntity
  8
0
  6
Continuous
 62
     7
370
    25
100
AcDbSpline
210
0.0
220
0.0
230
1.0
 70
     8
 71
     3
 72
    15
 73
    11
 74
     0
 42
0.00000001
 43
0.00000001
 40
0.0
 40
0.0
 40
0.0
 40
0.0
 40
0.0963404863222403
 40
0.202275058825767
 40
0.3177026870907858
 40
0.4420608729511045
 40
0.5741620003514877
 40
0.712492506197673
 40
0.8551336086059174
 40
1.0
 40
1.0
 40
1.0
 40
1.0
 10
129.2431297897714
 20
124.9781435563268
 30
0.0
 10
129.2581123522613
 20
124.9789699746745
 30
0.0
 10
129.2895695186581
 20
124.980705110403
 30
0.0
 10
129.3506032120037
 20
124.9929562239684
 30
0.0
 10
129.418221592714
 20
125.0115898596459
 30
0.0
 10
129.4875183933594
 20
125.0366627756483
 30
0.0
 10
129.5511025194778
 20
125.0670865820966
 30
0.0
 10
129.6020470288597
 20
125.1016709336859
 30
0.0
 10
129.6364390099453
 20
125.1391801153097
 30
0.0
 10
129.640888051455
 20
125.1650888985648
 30
0.0
 10
129.6431297898534
 20
125.1781435563268
 30
0.0
  0
LINE
  5
1C2
330
1F
100
AcDbEntity
  8
0
  6
Continuous
 62
     7
370
    25
100
AcDbLine
 10
159.4050355606
 20
118.4781435563
 30
0.0
 11
160.9053401477
 21
118.4781435563
 31
0.0
  0
LINE
  5
1C3
330
1F
100
AcDbEntity
  8
0
  6
Continuous
 62
     7
370
    25
100
AcDbLine
 10
159.4050355606
 20
118.4781435563
 30
0.0
 11
159.2105338943
 21
124.0479425476
 31
0.0
  0
LINE
  5
1C4
330
1F
100
AcDbEntity
  8
0
  6
Continuous
 62
     7
370
    25
100
AcDbLine
 10
160.9053401477
 20
118.4781435563
 30
0.0
 11
161.405035562
 21
118.4781435563
 31
0.0
  0
LINE
  5
1C5
330
1F
100
AcDbEntity
  8
0
  6
Continuous
 62
     7
370
    25
100
AcDbLine
 10
161.210533894
 20
124.0479425485
 30
0.0
 11
161.405035561
 21
118.4781435563
 31
0.0
  0
LINE
  5
1C6
330
1F
100
AcDbEntity
  8
0
  6
Continuous
 62
     7
370
    25
100
AcDbLine
 10
160.6602854029
 20
125.9781435563
 30
0.0
 11
159.1431297899
 21
125.9781435563
 31
0.0
  0
LINE
  5
1C7
330
1F
100
AcDbEntity
  8
0
  6
Continuous
 62
     7
370
    25
100
AcDbLine
 10
159.2105338943
 20
124.0479425476
 30
0.0
 11
159.1431297899
 21
125.9781435563
 31
0.0
  0
SPLINE
  5
1C8
330
1F
100
AcDbEntity
  8
0
  6
Continuous
 62
     7
370
    25
100
AcDbSpline
210
0.0
220
0.0
230
1.0
 70
    24
 71
     3
 72
    20
 73
    16
 74
     0
 42
0.00000001
 43
0.00000001
 40
0.0
 40
0.0
 40
0.0
 40
0.0
 40
0.0416609705136027
 40
0.083290245671977
 40
0.125058735276995
 40
0.1874566251137078
 40
0.2500968083958943
 40
0.375000168607237
 40
0.4999167999975486
 40
0.6248479478661555
 40
0.7497927432959403
 40
0.8122215189449518
 40
0.8748929196973438
 40
0.9373859901837498
 40
1.0
 40
1.0
 40
1.0
 40
1.0
 10
161.1599808156102
 20
125.4955933043183
 30
0.0
 10
161.1600013406564
 20
125.4950055438958
 30
0.0
 10
161.1600423751336
 20
125.4938304702146
 30
0.0
 10
161.1603761911972
 20
125.4842712288754
 30
0.0
 10
161.1609949618019
 20
125.4665519571284
 30
0.0
 10
161.1620594222562
 20
125.4360697979683
 30
0.0
 10
161.1642703050876
 20
125.3727583972762
 30
0.0
 10
161.168161156135
 20
125.2613390012745
 30
0.0
 10
161.1744506171099
 20
125.0812324039132
 30
0.0
 10
161.182131496748
 20
124.861280789316
 30
0.0
 10
161.1894625371509
 20
124.6513472596594
 30
0.0
 10
161.1957120308727
 20
124.4723851746785
 30
0.0
 10
161.2005564263799
 20
124.3336598380309
 30
0.0
 10
161.2055117751332
 20
124.1917572161265
 30
0.0
 10
161.2088587758546
 20
124.0959116558001
 30
0.0
 10
161.2105338939655
 20
124.0479425493307
 30
0.0
  0
LWPOLYLINE
  5
1C9
330
1F
100
AcDbEntity
  8
0
  6
Continuous
 62
     7
370
    25
100
AcDbPolyline
 90
        3
 70
   128
 43
0.0
 10
161.1599808164
 20
125.4955933045
 10
161.1474704353
 20
125.5906190833
 10
161.1191658697
 20
125.676710213
  0
ARC
  5
1CA
330
1F
100
AcDbEntity
  8
0
  6
Continuous
 62
     7
370
    25
100
AcDbCircle
 10
160.6602854029
 20
125.4781435563
 30
0.0
 40
0.5
100
AcDbArc
 50
58.3788115748
 51
89.9999999882
  0
LINE
  5
1CB
330
1F
100
AcDbEntity
  8
0
  6
Continuous
 62
     7
370
    25
100
AcDbLine
 10
156.8378940676
 20
118.4781435563
 30
0.0
 11
159.4050355606
 21
118.4781435563
 31
0.0
  0
LINE
  5
1CC
330
1F
100
AcDbEntity
  8
0
  6
Continuous
 62
     7
370
    25
100
AcDbLine
 10
156.7458818259
 20
124.2362994373
 30
0.0
 11
159.2024589342
 21
124.2791791512
 31
0.0
  0
ARC
  5
1CD
330
1F
100
AcDbEntity
  8
0
  6
Continuous
 62
     7
370
    25
100
AcDbCircle
 10
156.3235145478
 20
118.7781435562
 30
0.0
 40
0.2999999999626325
100
AcDbArc
 50
240.0000003215
 51
270.0000002693
  0
LINE
  5
1CE
330
1F
100
AcDbEntity
  8
0
  6
Continuous
 62
     7
370
    25
100
AcDbLine
 10
155.8931297899
 20
118.6802161503
 30
0.0
 11
156.1735145493
 21
118.5183359343
 31
0.0
  0
LINE
  5
1CF
330
1F
100
AcDbEntity
  8
0
  6
Continuous
 62
     7
370
    25
100
AcDbLine
 10
156.323514549
 20
118.4781435563
 30
0.0
 11
156.8378940676
 21
118.4781435563
 31
0.0
  0
ARC
  5
1D0
330
1F
100
AcDbEntity
  8
0
  6
Continuous
 62
     7
370
    25
100
AcDbCircle
 10
156.7511175479
 20
123.9363451293
 30
0.0
 40
0.300000000409091
100
AcDbArc
 50
91.0000000015
 51
119.9999690175
  0
LINE
  5
1D1
330
1F
100
AcDbEntity
  8
0
  6
Continuous
 62
     7
370
    25
100
AcDbLine
 10
156.6011176881
 20
124.1961528319
 30
0.0
 11
155.8931299098
 21
123.7873958974
 31
0.0
  0
ARC
  5
1D2
330
1F
100
AcDbEntity
  8
0
  6
Continuous
 62
     7
370
    25
100
AcDbCircle
 10
156.0431297899
 20
123.5275882063
 30
0.0
 40
0.3000000005982982
100
AcDbArc
 50
119.999973485
 51
180.0000000013
  0
ARC
  5
1D3
330
1F
100
AcDbEntity
  8
0
  6
Continuous
 62
     7
370
    25
100
AcDbCircle
 10
156.0431297899
 20
118.9400237713
 30
0.0
 40
0.2999999999999829
100
AcDbArc
 50
180.0000000059
 51
239.9999999949
  0
LINE
  5
1D4
330
1F
100
AcDbEntity
  8
0
  6
Continuous
 62
     7
370
    25
100
AcDbLine
 10
155.7431297899
 20
118.9400237713
 30
0.0
 11
155.7431297899
 21
123.5275882063
 31
0.0
  0
LINE
  5
1D5
330
1F
100
AcDbEntity
  8
0
  6
Continuous
 62
     7
370
    25
100
AcDbLine
 10
101.0958736984
 20
142.8739140199
 30
0.0
 11
101.6952458989
 21
143.4527210251
 31
0.0
  0
LINE
  5
1D6
330
1F
100
AcDbEntity
  8
0
  6
Continuous
 62
     7
370
    25
100
AcDbLine
 10
103.0206512106
 20
140.5672388376
 30
0.0
 11
101.209783083
 21
142.3159738611
 31
0.0
  0
SPLINE
  5
1D7
330
1F
100
AcDbEntity
  8
0
  6
Continuous
 62
     7
370
    25
100
AcDbSpline
210
0.0
220
0.0
230
1.0
 70
     8
 71
     3
 72
    12
 73
     8
 74
     0
 42
0.00000001
 43
0.00000001
 40
0.0
 40
0.0
 40
0.0
 40
0.0
 40
0.5000000000000004
 40
0.5000000000000004
 40
0.7500000000000002
 40
0.7500000000000002
 40
1.0
 40
1.0
 40
1.0
 40
1.0
 10
101.2097830824141
 20
142.3159738597882
 30
0.0
 10
101.1368098388757
 20
142.4639578254985
 30
0.0
 10
101.0917242662628
 20
142.5852614671116
 30
0.0
 10
101.0629955249576
 20
142.7271062187367
 30
0.0
 10
101.0601220238796
 20
142.7675933563341
 30
0.0
 10
101.0679237641784
 20
142.8324313283664
 30
0.0
 10
101.0784946510367
 20
142.8571312698672
 30
0.0
 10
101.0958736978383
 20
142.8739140202333
 30
0.0
  0
LINE
  5
1D8
330
1F
100
AcDbEntity
  8
0
  6
Continuous
 62
     7
370
    25
100
AcDbLine
 10
115.5996019668
 20
128.4198872892
 30
0.0
 11
103.0206512106
 21
140.5672388376
 31
0.0
  0
LINE
  5
1D9
330
1F
100
AcDbEntity
  8
0
  6
Continuous
 62
     7
370
    25
100
AcDbLine
 10
121.6431297899
 20
125.9781435563
 30
0.0
 11
159.1431297893
 21
125.9781435563
 31
0.0
  0
LINE
  5
1DA
330
1F
100
AcDbEntity
  8
0
  6
Continuous
 62
     7
370
    25
100
AcDbLine
 10
161.1208974326
 20
126.6147949596
 30
0.0
 11
161.1599808155
 21
125.4955933086
 31
0.0
  0
ARC
  5
1DB
330
1F
100
AcDbEntity
  8
0
  6
Continuous
 62
     7
370
    25
100
AcDbCircle
 10
121.6431297899
 20
134.6781435563
 30
0.0
 40
8.700000003092699
100
AcDbArc
 50
226.0000000187
 51
270.0
  0
SPLINE
  5
1DC
330
1F
100
AcDbEntity
  8
0
  6
Continuous
 62
     7
370
    25
100
AcDbSpline
210
0.0
220
0.0
230
1.0
 70
     8
 71
     3
 72
     8
 73
     4
 74
     0
 42
0.00000001
 43
0.00000001
 40
0.0
 40
0.0
 40
0.0
 40
0.0
 40
1.0
 40
1.0
 40
1.0
 40
1.0
 10
161.1208974328534
 20
126.6147949633268
 30
0.0
 10
161.1004968308533
 20
127.1989917573296
 30
0.0
 10
161.0901392768533
 20
127.4955933043296
 30
0.0
 10
161.0901392768534
 20
127.4955933043268
 30
0.0
  0
SPLINE
  5
1DD
330
1F
100
AcDbEntity
  8
0
  6
Continuous
 62
     7
370
    25
100
AcDbSpline
210
0.0
220
0.0
230
1.0
 70
     8
 71
     3
 72
    14
 73
    10
 74
     0
 42
0.00000001
 43
0.00000001
 40
0.0
 40
0.0
 40
0.0
 40
0.0
 40
0.25
 40
0.25
 40
0.5
 40
0.5
 40
0.75
 40
0.75
 40
1.0
 40
1.0
 40
1.0
 40
1.0
 10
116.988918707888
 20
129.8585668939718
 30
0.0
 10
117.2898262403584
 20
129.5679838675576
 30
0.0
 10
117.6237665156544
 20
129.300442828911
 30
0.0
 10
118.344275825777
 20
128.8307074714146
 30
0.0
 10
118.7307602457219
 20
128.6286344555377
 30
0.0
 10
119.5357709821696
 20
128.3033890059967
 30
0.0
 10
119.9541563196028
 20
128.1802735315739
 30
0.0
 10
120.7987529409468
 20
128.0176650466278
 30
0.0
 10
121.2248190938797
 20
127.9781435564837
 30
0.0
 10
121.6431297898534
 20
127.9781435564837
 30
0.0
  0
SPLINE
  5
1DE
330
1F
100
AcDbEntity
  8
0
  6
Continuous
 62
     7
370
    25
100
AcDbSpline
210
0.0
220
0.0
230
1.0
 70
     8
 71
     3
 72
     8
 73
     4
 74
     0
 42
0.00000001
 43
0.00000001
 40
0.0
 40
0.0
 40
0.0
 40
0.0
 40
1.0
 40
1.0
 40
1.0
 40
1.0
 10
101.9561737718534
 20
143.7046961433268
 30
0.0
 10
101.9561737718534
 20
143.7046961433268
 30
0.0
 10
101.8688338208534
 20
143.6203529333268
 30
0.0
 10
101.6952458988534
 20
143.4527210253268
 30
0.0
  0
LINE
  5
1DF
330
1F
100
AcDbEntity
  8
0
  6
Continuous
 62
     7
370
    25
100
AcDbLine
 10
125.6431297899
 20
124.9781435563
 30
0.0
 11
121.6431297899
 21
124.9781435563
 31
0.0
  0
LINE
  5
1E0
330
1F
100
AcDbEntity
  8
0
  6
Continuous
 62
     7
370
    25
100
AcDbLine
 10
125.6431297899
 20
124.9781435563
 30
0.0
 11
125.6431297899
 21
123.9512924573
 31
0.0
  0
LINE
  5
1E1
330
1F
100
AcDbEntity
  8
0
  6
Continuous
 62
     7
370
    25
100
AcDbLine
 10
121.6431297899
 20
123.9512924573
 30
0.0
 11
121.6431297899
 21
124.9781435563
 31
0.0
  0
LINE
  5
1E2
330
1F
100
AcDbEntity
  8
0
  6
Continuous
 62
     7
370
    25
100
AcDbLine
 10
121.6431297899
 20
122.4781435563
 30
0.0
 11
125.6431297899
 21
122.4781435563
 31
0.0
  0
LINE
  5
1E3
330
1F
100
AcDbEntity
  8
0
  6
Continuous
 62
     7
370
    25
100
AcDbLine
 10
125.6431297899
 20
123.9512924573
 30
0.0
 11
125.6431297899
 21
122.4781435563
 31
0.0
  0
LINE
  5
1E4
330
1F
100
AcDbEntity
  8
0
  6
Continuous
 62
     7
370
    25
100
AcDbLine
 10
121.6431297899
 20
122.4781435563
 30
0.0
 11
121.6431297899
 21
123.9512924573
 31
0.0
  0
LINE
  5
1E5
330
1F
100
AcDbEntity
  8
0
  6
Continuous
 62
     7
370
    25
100
AcDbLine
 10
125.6431297899
 20
125.6781435563
 30
0.0
 11
125.6431297899
 21
125.9781435563
 31
0.0
  0
LINE
  5
1E6
330
1F
100
AcDbEntity
  8
0
  6
Continuous
 62
     7
370
    25
100
AcDbLine
 10
121.6431297882
 20
125.9781435563
 30
0.0
 11
121.6431297899
 21
125.6781435563
 31
0.0
  0
LINE
  5
1E7
330
1F
100
AcDbEntity
  8
0
  6
Continuous
 62
     7
370
    25
100
AcDbLine
 10
125.6431297899
 20
125.6781435563
 30
0.0
 11
125.6431297899
 21
124.9781435563
 31
0.0
  0
LINE
  5
1E8
330
1F
100
AcDbEntity
  8
0
  6
Continuous
 62
     7
370
    25
100
AcDbLine
 10
121.6431297899
 20
125.6781435563
 30
0.0
 11
121.6431297899
 21
124.9781435563
 31
0.0
  0
LINE
  5
1E9
330
1F
100
AcDbEntity
  8
0
  6
Continuous
 62
     7
370
    25
100
AcDbLine
 10
129.2431297899
 20
124.9781435563
 30
0.0
 11
127.5431297899
 21
124.9781435563
 31
0.0
  0
SPLINE
  5
1EA
330
1F
100
AcDbEntity
  8
0
  6
Continuous
 62
     7
370
    25
100
AcDbSpline
210
0.0
220
0.0
230
1.0
 70
    24
 71
     3
 72
     9
 73
     5
 74
     0
 42
0.00000001
 43
0.00000001
 40
0.0
 40
0.0
 40
0.0
 40
0.0
 40
0.4349965014643489
 40
1.0
 40
1.0
 40
1.0
 40
1.0
 10
127.4166383618285
 20
124.9781435563268
 30
0.0
 10
127.4326395579091
 20
124.9781435563268
 30
0.0
 10
127.4694242125596
 20
124.9781435563268
 30
0.0
 10
127.5165203228001
 20
124.9781435563268
 30
0.0
 10
127.5431297898534
 20
124.9781435563268
 30
0.0
  0
LINE
  5
1EB
330
1F
100
AcDbEntity
  8
0
  6
Continuous
 62
     7
370
    25
100
AcDbLine
 10
159.1675743288
 20
125.2781435563
 30
0.0
 11
157.1431297899
 21
125.9781435563
 31
0.0
  0
LINE
  5
1EC
330
1F
100
AcDbEntity
  8
0
  6
PHANTOM
 62
     7
370
    18
100
AcDbLine
 10
160.9053401477
 20
118.4781435563
 30
0.0
 11
160.710838481
 21
124.0479425501
 31
0.0
  0
LINE
  5
1ED
330
1F
100
AcDbEntity
  8
0
  6
PHANTOM
 62
     7
370
    18
100
AcDbLine
 10
160.710838481
 20
124.0479425493
 30
0.0
 11
159.2105338943
 21
124.0479425476
 31
0.0
  0
ARC
  5
1EE
330
1F
100
AcDbEntity
  8
0
  6
PHANTOM
 62
     7
370
    18
100
AcDbCircle
 10
160.9606861885
 20
120.4633573687
 30
0.0
 40
3.593281898185348
100
AcDbArc
 50
86.0128986147
 51
93.9871013918
  0
SPLINE
  5
1EF
330
1F
100
AcDbEntity
  8
0
  6
PHANTOM
 62
     7
370
    18
100
AcDbSpline
210
0.0
220
0.0
230
1.0
 70
     8
 71
     3
 72
    14
 73
    10
 74
     0
 42
0.00000001
 43
0.00000001
 40
0.0
 40
0.0
 40
0.0
 40
0.0
 40
0.25
 40
0.25
 40
0.5
 40
0.5
 40
0.75
 40
0.75
 40
1.0
 40
1.0
 40
1.0
 40
1.0
 10
160.6602854028534
 20
125.9781435563268
 30
0.0
 10
160.6602854028534
 20
125.9781435563268
 30
0.0
 10
160.6615881193534
 20
125.9284036628268
 30
0.0
 10
160.6666110733534
 20
125.7366188688268
 30
0.0
 10
160.6703295058534
 20
125.5946429218268
 30
0.0
 10
160.6796439098534
 20
125.2390033918268
 30
0.0
 10
160.6852365338534
 20
125.0254676743268
 30
0.0
 10
160.6974859098534
 20
124.5577660103268
 30
0.0
 10
160.7041381888534
 20
124.3037708753268
 30
0.0
 10
160.7108384808534
 20
124.0479425493268
 30
0.0
  0
LINE
  5
1F0
330
1F
100
AcDbEntity
  8
0
  6
PHANTOM
 62
     7
370
    18
100
AcDbLine
 10
156.0378940679
 20
118.9400237728
 30
0.0
 11
156.8378940676
 21
118.4781435563
 31
0.0
  0
LINE
  5
1F1
330
1F
100
AcDbEntity
  8
0
  6
PHANTOM
 62
     7
370
    18
100
AcDbLine
 10
156.0378940679
 20
123.5275882074
 30
0.0
 11
156.0378940679
 21
118.9400237728
 31
0.0
  0
LINE
  5
1F2
330
1F
100
AcDbEntity
  8
0
  6
PHANTOM
 62
     7
370
    18
100
AcDbLine
 10
156.7458818253
 20
123.9363451289
 30
0.0
 11
156.0378940679
 21
123.5275882074
 31
0.0
  0
LINE
  5
1F3
330
1F
100
AcDbEntity
  8
0
  6
PHANTOM
 62
     7
370
    18
100
AcDbLine
 10
159.2129271886
 20
123.9794075661
 30
0.0
 11
156.7458818253
 21
123.9363451289
 31
0.0
  0
ARC
  5
1F4
330
1F
100
AcDbEntity
  8
0
  6
PHANTOM
 62
     7
370
    18
100
AcDbCircle
 10
161.0441439174
 20
124.0863222739
 30
0.0
 40
4.300877835564517
100
AcDbArc
 50
178.0016170396
 51
181.9983827132
  0
ARC
  5
1F5
330
1F
100
AcDbEntity
  8
0
  6
PHANTOM
 62
     7
370
    18
100
AcDbCircle
 10
160.2508261057
 20
116.422351632
 30
0.0
 40
4.90789867094766
100
AcDbArc
 50
149.137220677
 51
152.6098536037
  0
ARC
  5
1F6
330
1F
100
AcDbEntity
  8
0
  6
PHANTOM
 62
     7
370
    18
100
AcDbCircle
 10
160.9588163839
 20
126.454015612
 30
0.0
 40
4.907899984356549
100
AcDbArc
 50
207.3901155963
 51
210.8627476148
  0
ARC
  5
1F7
330
1F
100
AcDbEntity
  8
0
  6
PHANTOM
 62
     7
370
    18
100
AcDbCircle
 10
160.2506059755
 20
126.0451350946
 30
0.0
 40
4.907645458450694
100
AcDbArc
 50
207.390030273
 51
210.862842434
  0
LINE
  5
1F8
330
1F
100
AcDbEntity
  8
0
  6
PHANTOM
 62
     7
370
    18
100
AcDbLine
 10
155.7431297899
 20
123.5275882063
 30
0.0
 11
156.0378940679
 21
123.5275882074
 31
0.0
  0
LINE
  5
1F9
330
1F
100
AcDbEntity
  8
0
  6
PHANTOM
 62
     7
370
    18
100
AcDbLine
 10
156.0378940679
 20
118.9400237728
 30
0.0
 11
155.7431297899
 21
118.9400237713
 31
0.0
  0
SPLINE
  5
1FA
330
1F
100
AcDbEntity
  8
0
  6
PHANTOM
 62
     7
370
    18
100
AcDbSpline
210
0.0
220
0.0
230
1.0
 70
     8
 71
     3
 72
    20
 73
    16
 74
     0
 42
0.00000001
 43
0.00000001
 40
0.0
 40
0.0
 40
0.0
 40
0.0
 40
0.1250000000000002
 40
0.1250000000000002
 40
0.2500000000000004
 40
0.2500000000000004
 40
0.3750000000000006
 40
0.3750000000000006
 40
0.5000000000000008
 40
0.5000000000000008
 40
0.625000000000001
 40
0.625000000000001
 40
0.7500000000000011
 40
0.7500000000000011
 40
1.0
 40
1.0
 40
1.0
 40
1.0
 10
101.6952458988534
 20
143.4527210253268
 30
0.0
 10
101.6771041138534
 20
143.4352017073268
 30
0.0
 10
101.6718902638534
 20
143.4036066193268
 30
0.0
 10
101.6862517798534
 20
143.3136280299935
 30
0.0
 10
101.7061871431867
 20
143.2544894403268
 30
0.0
 10
101.7711271658534
 20
143.1115978963268
 30
0.0
 10
101.8156015908534
 20
143.0286774703268
 30
0.0
 10
101.9288625708534
 20
142.8405096956601
 30
0.0
 10
101.9985906128533
 20
142.7340088329935
 30
0.0
 10
102.1584364448534
 20
142.5067788903268
 30
0.0
 10
102.2487432198533
 20
142.3855515563268
 30
0.0
 10
102.4513581254534
 20
142.1280031435267
 30
0.0
 10
102.5637099108533
 20
141.9918310856601
 30
0.0
 10
102.9200375028534
 20
141.5796418296601
 30
0.0
 10
103.1924949128534
 20
141.2895732463268
 30
0.0
 10
103.4788990588534
 20
141.0097636403268
 30
0.0
  0
LINE
  5
1FB
330
1F
100
AcDbEntity
  8
0
  6
PHANTOM
 62
     7
370
    18
100
AcDbLine
 10
103.4788990586
 20
141.009763641
 30
0.0
 11
103.0206512106
 21
140.5672388376
 31
0.0
  0
LINE
  5
1FC
330
1F
100
AcDbEntity
  8
0
  6
PHANTOM
 62
     7
370
    18
100
AcDbLine
 10
116.0418571914
 20
128.8778559881
 30
0.0
 11
103.4788990586
 21
141.0097636398
 31
0.0
  0
LINE
  5
1FD
330
1F
100
AcDbEntity
  8
0
  6
PHANTOM
 62
     7
370
    18
100
AcDbLine
 10
115.5996019668
 20
128.4198872892
 30
0.0
 11
116.0418571914
 21
128.8778559881
 31
0.0
  0
LINE
  5
1FE
330
1F
100
AcDbEntity
  8
0
  6
PHANTOM
 62
     7
370
    18
100
AcDbLine
 10
121.6431297883
 20
126.6147949634
 30
0.0
 11
121.6431297899
 21
125.9781435563
 31
0.0
  0
LINE
  5
1FF
330
1F
100
AcDbEntity
  8
0
  6
PHANTOM
 62
     7
370
    18
100
AcDbLine
 10
160.6212020193
 20
126.6147949633
 30
0.0
 11
121.6431297883
 21
126.6147949634
 31
0.0
  0
LINE
  5
200
330
1F
100
AcDbEntity
  8
0
  6
PHANTOM
 62
     7
370
    18
100
AcDbLine
 10
160.6434343763
 20
125.9781435563
 30
0.0
 11
160.6212020193
 21
126.6147949633
 31
0.0
  0
ARC
  5
201
330
1F
100
AcDbEntity
  8
0
  6
PHANTOM
 62
     7
370
    18
100
AcDbCircle
 10
160.871049725
 20
123.0302097491
 30
0.0
 40
3.593281930720225
100
AcDbArc
 50
86.0128986223
 51
93.9871013258
  0
ARC
  5
202
330
1F
100
AcDbEntity
  8
0
  6
PHANTOM
 62
     7
370
    18
100
AcDbCircle
 10
121.6431297899
 20
134.6781435563
 30
0.0
 40
8.063348596995006
100
AcDbArc
 50
225.9999999837
 51
269.999999989
  0
LINE
  5
203
330
1F
100
AcDbEntity
  8
0
  6
PHANTOM
 62
     7
370
    18
100
AcDbLine
 10
116.3664717273
 20
129.2140041777
 30
0.0
 11
116.0418571914
 21
128.8778559881
 31
0.0
  0
SPLINE
  5
204
330
1F
100
AcDbEntity
  8
0
  6
PHANTOM
 62
     7
370
    18
100
AcDbSpline
210
0.0
220
0.0
230
1.0
 70
     8
 71
     3
 72
    10
 73
     6
 74
     0
 42
0.00000001
 43
0.00000001
 40
0.0
 40
0.0
 40
0.0
 40
0.0
 40
0.5
 40
0.5
 40
1.0
 40
1.0
 40
1.0
 40
1.0
 10
103.4788993354846
 20
141.0097633700651
 30
0.0
 10
103.5483820591524
 20
141.0817148419233
 30
0.0
 10
103.6247918977437
 20
141.1608395581954
 30
0.0
 10
103.7450451413666
 20
141.2853654719393
 30
0.0
 10
103.7864742365866
 20
141.3282665777189
 30
0.0
 10
103.8035138227263
 20
141.3459116054097
 30
0.0
  0
LINE
  5
205
330
1F
100
AcDbEntity
  8
0
  6
PHANTOM
 62
     7
370
    18
100
AcDbLine
 10
116.3664717273
 20
129.2140041777
 30
0.0
 11
103.8035135952
 21
141.3459118234
 31
0.0
  0
LINE
  5
206
330
1F
100
AcDbEntity
  8
0
  6
PHANTOM
 62
     7
370
    18
100
AcDbLine
 10
160.6212020189
 20
127.0820959365
 30
0.0
 11
160.6212020193
 21
126.6147949633
 31
0.0
  0
SPLINE
  5
207
330
1F
100
AcDbEntity
  8
0
  6
PHANTOM
 62
     7
370
    18
100
AcDbSpline
210
0.0
220
0.0
230
1.0
 70
     8
 71
     3
 72
    14
 73
    10
 74
     0
 42
0.00000001
 43
0.00000001
 40
0.0
 40
0.0
 40
0.0
 40
0.0
 40
0.2499999999999999
 40
0.2499999999999999
 40
0.4999999999999998
 40
0.4999999999999998
 40
0.7499999999999999
 40
0.7499999999999999
 40
1.0
 40
1.0
 40
1.0
 40
1.0
 10
160.6212020189608
 20
127.0820959331966
 30
0.0
 10
160.6791200082666
 20
127.0822174209971
 30
0.0
 10
160.7414079195547
 20
127.0722979311527
 30
0.0
 10
160.8621496411297
 20
127.0272113483075
 30
0.0
 10
160.9202608374429
 20
126.9919035020947
 30
0.0
 10
161.0171590721608
 20
126.9012870223515
 30
0.0
 10
161.0556472966297
 20
126.8462578311354
 30
0.0
 10
161.1064702664975
 20
126.7309019824746
 30
0.0
 10
161.1189377712805
 20
126.6709123282999
 30
0.0
 10
161.1208974329608
 20
126.6147949602499
 30
0.0
  0
SPLINE
  5
208
330
1F
100
AcDbEntity
  8
0
  6
PHANTOM
 62
     7
370
    18
100
AcDbSpline
210
0.0
220
0.0
230
1.0
 70
     8
 71
     3
 72
    20
 73
    16
 74
     0
 42
0.00000001
 43
0.00000001
 40
0.0
 40
0.0
 40
0.0
 40
0.0
 40
0.2499999999999989
 40
0.2499999999999989
 40
0.374999999999999
 40
0.374999999999999
 40
0.4999999999999992
 40
0.4999999999999992
 40
0.6249999999999994
 40
0.6249999999999994
 40
0.7499999999999996
 40
0.7499999999999996
 40
0.8749999999999998
 40
0.8749999999999998
 40
1.0
 40
1.0
 40
1.0
 40
1.0
 10
103.8035135908534
 20
141.3459118293268
 30
0.0
 10
103.5634489288534
 20
141.5777395793268
 30
0.0
 10
103.3376153878534
 20
141.8206510083268
 30
0.0
 10
103.0457987938534
 20
142.1691289443268
 30
0.0
 10
102.9544569974534
 20
142.2848282867268
 30
0.0
 10
102.7910400678533
 20
142.5047314003268
 30
0.0
 10
102.7189075708534
 20
142.6087906003268
 30
0.0
 10
102.59263506952
 20
142.8048874296601
 30
0.0
 10
102.53837140552
 20
142.8973731329934
 30
0.0
 10
102.4519368748534
 20
143.0619046183268
 30
0.0
 10
102.4190126918534
 20
143.1350253833268
 30
0.0
 10
102.37341314652
 20
143.2623760566601
 30
0.0
 10
102.3611481591867
 20
143.3158815986601
 30
0.0
 10
102.3577023538534
 20
143.3991409493268
 30
0.0
 10
102.3662644848533
 20
143.4295657213268
 30
0.0
 10
102.3855444768534
 20
143.4482063283268
 30
0.0
  0
ARC
  5
209
330
1F
100
AcDbEntity
  8
0
  6
PHANTOM
 62
     7
370
    18
100
AcDbCircle
 10
102.0380598216
 20
143.0933852708
 30
0.0
 40
0.4966322282415649
100
AcDbArc
 50
45.598499558
 51
133.6520586222
  0
LINE
  5
20A
330
1F
100
AcDbEntity
  8
0
  6
PHANTOM
 62
     7
370
    18
100
AcDbLine
 10
121.6431297883
 20
126.6147949634
 30
0.0
 11
121.6431297899
 21
127.0820959349
 31
0.0
  0
LINE
  5
20B
330
1F
100
AcDbEntity
  8
0
  6
PHANTOM
 62
     7
370
    18
100
AcDbLine
 10
160.6212020082
 20
127.0820959344
 30
0.0
 11
121.6431297899
 21
127.0820959349
 31
0.0
  0
ARC
  5
20C
330
1F
100
AcDbEntity
  8
0
  6
PHANTOM
 62
     7
370
    18
100
AcDbCircle
 10
121.6431297899
 20
134.6781435562
 30
0.0
 40
7.596047621302034
100
AcDbArc
 50
225.9999999954
 51
270.0
  0
LINE
  5
20D
330
1F
100
AcDbEntity
  8
0
  6
PHANTOM
 62
     7
370
    18
100
AcDbLine
 10
116.9889187078
 20
129.8585668943
 30
0.0
 11
116.3664717273
 21
129.2140041777
 31
0.0
  0
SPLINE
  5
20E
330
1F
100
AcDbEntity
  8
0
  6
PHANTOM
 62
     7
370
    18
100
AcDbSpline
210
0.0
220
0.0
230
1.0
 70
     8
 71
     3
 72
     8
 73
     4
 74
     0
 42
0.00000001
 43
0.00000001
 40
0.0
 40
0.0
 40
0.0
 40
0.0
 40
1.0
 40
1.0
 40
1.0
 40
1.0
 10
102.3855444768534
 20
143.4482063283268
 30
0.0
 10
102.5620328453098
 20
143.6188417367681
 30
0.0
 10
102.6508321423127
 20
143.7046961437709
 30
0.0
 10
102.6508321418534
 20
143.7046961433268
 30
0.0
  0
SPLINE
  5
20F
330
1F
100
AcDbEntity
  8
0
  6
PHANTOM
 62
     7
370
    18
100
AcDbSpline
210
0.0
220
0.0
230
1.0
 70
     8
 71
     3
 72
     8
 73
     4
 74
     0
 42
0.00000001
 43
0.00000001
 40
0.0
 40
0.0
 40
0.0
 40
0.0
 40
1.0
 40
1.0
 40
1.0
 40
1.0
 10
160.5904438638534
 20
127.9781435563268
 30
0.0
 10
160.5904438638535
 20
127.9781435563235
 30
0.0
 10
160.6008014188535
 20
127.6764069403236
 30
0.0
 10
160.6212020188534
 20
127.0820959363268
 30
0.0
  0
LINE
  5
210
330
1F
100
AcDbEntity
  8
0
  6
PHANTOM
 62
     7
370
    18
100
AcDbLine
 10
121.6431297899
 20
127.0820959349
 30
0.0
 11
121.6431297899
 21
127.9781435564
 31
0.0
  0
LINE
  5
211
330
1F
100
AcDbEntity
  8
0
  6
PHANTOM
 62
     7
370
    18
100
AcDbLine
 10
121.6431297899
 20
123.9512924573
 30
0.0
 11
125.6431297899
 21
123.9512924573
 31
0.0
  0
LINE
  5
212
330
1F
100
AcDbEntity
  8
0
  6
PHANTOM
 62
     7
370
    18
100
AcDbLine
 10
121.6431297899
 20
125.6781435563
 30
0.0
 11
125.6431297899
 21
125.6781435563
 31
0.0
  0
LINE
  5
213
330
1F
100
AcDbEntity
  8
0
  6
PHANTOM
 62
     7
370
    18
100
AcDbLine
 10
127.5431297899
 20
125.1781435563
 30
0.0
 11
127.5431297899
 21
125.9781435563
 31
0.0
  0
LINE
  5
214
330
1F
100
AcDbEntity
  8
0
  6
PHANTOM
 62
     7
370
    18
100
AcDbLine
 10
129.2431297899
 20
125.1781435563
 30
0.0
 11
129.2431297899
 21
125.9781435563
 31
0.0
  0
LINE
  5
215
330
1F
100
AcDbEntity
  8
0
  6
PHANTOM
 62
     7
370
    18
100
AcDbLine
 10
129.2431297899
 20
125.1781435563
 30
0.0
 11
127.5431297899
 21
125.1781435563
 31
0.0
  0
SPLINE
  5
216
330
1F
100
AcDbEntity
  8
0
  6
PHANTOM
 62
     7
370
    18
100
AcDbSpline
210
0.0
220
0.0
230
1.0
 70
    24
 71
     3
 72
    17
 73
    13
 74
     0
 42
0.00000001
 43
0.00000001
 40
-0.0000000000000001
 40
-0.0000000000000001
 40
-0.0000000000000001
 40
-0.0000000000000001
 40
0.392699081698726
 40
0.392699081698726
 40
0.392699081698726
 40
0.7853981633974509
 40
0.7853981633974509
 40
0.7853981633974509
 40
1.17809724509618
 40
1.17809724509618
 40
1.17809724509618
 40
1.570796327000006
 40
1.570796327000006
 40
1.570796327000006
 40
1.570796327000006
 10
129.2431297896894
 20
125.1781435563268
 30
0.0
 10
129.2431297896894
 20
125.1519636173268
 30
0.0
 10
129.2431297896916
 20
125.1257939793268
 30
0.0
 10
129.2431297896956
 20
125.1016068703268
 30
0.0
 10
129.2431297896997
 20
125.0774197603268
 30
0.0
 10
129.2431297897058
 20
125.0552342123268
 30
0.0
 10
129.2431297897134
 20
125.0367222003268
 30
0.0
 10
129.243129789721
 20
125.0182101883268
 30
0.0
 10
129.2431297897301
 20
125.0033862783268
 30
0.0
 10
129.24312978974
 20
124.9933676493268
 30
0.0
 10
129.2431297897499
 20
124.9833490213268
 30
0.0
 10
129.2431297897606
 20
124.9781435563268
 30
0.0
 10
129.2431297897714
 20
124.9781435563268
 30
0.0
  0
SPLINE
  5
217
330
1F
100
AcDbEntity
  8
0
  6
PHANTOM
 62
     7
370
    18
100
AcDbSpline
210
0.0
220
0.0
230
1.0
 70
    24
 71
     3
 72
    17
 73
    13
 74
     0
 42
0.00000001
 43
0.00000001
 40
0.0000000000000001
 40
0.0000000000000001
 40
0.0000000000000001
 40
0.0000000000000001
 40
0.39269908190382
 40
0.39269908190382
 40
0.39269908190382
 40
0.785398163602548
 40
0.785398163602548
 40
0.785398163602548
 40
1.178097245301274
 40
1.178097245301274
 40
1.178097245301274
 40
1.570796327
 40
1.570796327
 40
1.570796327
 40
1.570796327
 10
127.5431297898534
 20
124.9781435563268
 30
0.0
 10
127.5431297898534
 20
124.9781435563268
 30
0.0
 10
127.5431297898534
 20
124.9833490213268
 30
0.0
 10
127.5431297898534
 20
124.9933676493268
 30
0.0
 10
127.5431297898534
 20
125.0033862783268
 30
0.0
 10
127.5431297898534
 20
125.0182101883268
 30
0.0
 10
127.5431297898534
 20
125.0367222003268
 30
0.0
 10
127.5431297898534
 20
125.0552342123268
 30
0.0
 10
127.5431297898534
 20
125.0774197603268
 30
0.0
 10
127.5431297898534
 20
125.1016068703268
 30
0.0
 10
127.5431297898534
 20
125.1257939793268
 30
0.0
 10
127.5431297898534
 20
125.1519636173268
 30
0.0
 10
127.5431297898534
 20
125.1781435563268
 30
0.0
  0
SPLINE
  5
218
330
1F
100
AcDbEntity
  8
0
  6
PHANTOM
 62
     7
370
    18
100
AcDbSpline
210
0.0
220
0.0
230
1.0
 70
    24
 71
     3
 72
    17
 73
    13
 74
     0
 42
0.00000001
 43
0.00000001
 40
1.570796326590054
 40
1.570796326590054
 40
1.570796326590054
 40
1.570796326590054
 40
1.96349540849362
 40
1.96349540849362
 40
1.96349540849362
 40
2.35619449019234
 40
2.35619449019234
 40
2.35619449019234
 40
2.748893571891071
 40
2.748893571891071
 40
2.748893571891071
 40
3.141592654000035
 40
3.141592654000035
 40
3.141592654000035
 40
3.141592654000035
 10
129.6431297898534
 20
125.1781435563268
 30
0.0
 10
129.6431297898534
 20
125.1781435563268
 30
0.0
 10
129.6327188608534
 20
125.1781435563268
 30
0.0
 10
129.6126816028534
 20
125.1781435563268
 30
0.0
 10
129.5926443448534
 20
125.1781435563268
 30
0.0
 10
129.5629965268534
 20
125.1781435563268
 30
0.0
 10
129.5259725018534
 20
125.1781435563268
 30
0.0
 10
129.4889484778534
 20
125.1781435563268
 30
0.0
 10
129.4445773818533
 20
125.1781435563268
 30
0.0
 10
129.3962031628534
 20
125.1781435563268
 30
0.0
 10
129.3478289438534
 20
125.1781435563268
 30
0.0
 10
129.2954896678534
 20
125.1781435563268
 30
0.0
 10
129.2431297898534
 20
125.1781435563268
 30
0.0
  0
SPLINE
  5
219
330
1F
100
AcDbEntity
  8
0
  6
PHANTOM
 62
     7
370
    18
100
AcDbSpline
210
0.0
220
0.0
230
1.0
 70
    24
 71
     3
 72
    17
 73
    13
 74
     0
 42
0.00000001
 43
0.00000001
 40
3.14159265358979
 40
3.14159265358979
 40
3.14159265358979
 40
3.14159265358979
 40
3.53429173528852
 40
3.53429173528852
 40
3.53429173528852
 40
3.92699081698724
 40
3.92699081698724
 40
3.92699081698724
 40
4.31968989868597
 40
4.31968989868597
 40
4.31968989868597
 40
4.712388980179866
 40
4.712388980179866
 40
4.712388980179866
 40
4.712388980179866
 10
127.5431297898534
 20
125.1781435563268
 30
0.0
 10
127.4907699118534
 20
125.1781435563268
 30
0.0
 10
127.4384306358534
 20
125.1781435563268
 30
0.0
 10
127.3900564168534
 20
125.1781435563268
 30
0.0
 10
127.3416821978534
 20
125.1781435563268
 30
0.0
 10
127.2973111018534
 20
125.1781435563268
 30
0.0
 10
127.2602870778534
 20
125.1781435563268
 30
0.0
 10
127.2232630528534
 20
125.1781435563268
 30
0.0
 10
127.1936152348534
 20
125.1781435563268
 30
0.0
 10
127.1735779768534
 20
125.1781435563268
 30
0.0
 10
127.1535407188534
 20
125.1781435563268
 30
0.0
 10
127.1431297898534
 20
125.1781435563268
 30
0.0
 10
127.1431297898534
 20
125.1781435563268
 30
0.0
  0
ELLIPSE
  5
21A
330
1F
100
AcDbEntity
  8
0
  6
Continuous
 62
     7
370
    25
100
AcDbEllipse
 10
201.8092358022
 20
255.3492844102
 30
0.0
 11
28.08000000061486
 21
0.0
 31
0.0
210
0.0
220
0.0
230
1.0
 40
0.7197782698
 41
4.548169839248299
 42
4.876608121542022
  0
ELLIPSE
  5
21B
330
1F
100
AcDbEntity
  8
0
  6
Continuous
 62
     7
370
    25
100
AcDbEllipse
 10
197.2110644347
 20
233.4824205727
 30
0.0
 11
3.00182607306914
 21
-0.005450219147178359
 31
0.0
210
0.0
220
0.0
230
1.0
 40
0.7193381225
 41
2.147126232830545
 42
3.142898708020126
  0
SPLINE
  5
21C
330
1F
100
AcDbEntity
  8
0
  6
Continuous
 62
     7
370
    25
100
AcDbSpline
210
0.0
220
0.0
230
1.0
 70
     8
 71
     3
 72
    12
 73
     8
 74
     0
 42
0.00000001
 43
0.00000001
 40
0.0
 40
0.0
 40
0.0
 40
0.0
 40
0.5000000000000004
 40
0.5000000000000004
 40
0.7500000000000002
 40
0.7500000000000002
 40
1.0
 40
1.0
 40
1.0
 40
1.0
 10
195.5785055037175
 20
235.2959187164004
 30
0.0
 10
195.8235312174531
 20
235.3688919599388
 30
0.0
 10
196.0845140409245
 20
235.4139775325517
 30
0.0
 10
196.4995159030403
 20
235.442706273857
 30
0.0
 10
196.6422604177576
 20
235.4455797749349
 30
0.0
 10
196.928547953256
 20
235.4377780346362
 30
0.0
 10
197.0729553931929
 20
235.4272071477778
 30
0.0
 10
197.2186604697628
 20
235.4098281009763
 30
0.0
  0
ELLIPSE
  5
21D
330
1F
100
AcDbEntity
  8
0
  6
Continuous
 62
     7
370
    25
100
AcDbEllipse
 10
206.4074071689
 20
233.4824205723
 30
0.0
 11
3.001826072617547
 21
0.005450219146240443
 31
0.0
210
0.0
220
0.0
230
1.0
 40
0.7193381225
 41
6.281879252062824
 42
7.27765172803155
  0
SPLINE
  5
21E
330
1F
100
AcDbEntity
  8
0
  6
Continuous
 62
     7
370
    25
100
AcDbSpline
210
0.0
220
0.0
230
1.0
 70
     8
 71
     3
 72
    12
 73
     8
 74
     0
 42
0.00000001
 43
0.00000001
 40
0.0
 40
0.0
 40
0.0
 40
0.0
 40
0.5000000000000007
 40
0.5000000000000007
 40
0.7500000000000003
 40
0.7500000000000003
 40
1.0
 40
1.0
 40
1.0
 40
1.0
 10
206.3998111339696
 20
235.4098281003196
 30
0.0
 10
206.6912350126057
 20
235.4445878310221
 30
0.0
 10
206.9751973087365
 20
235.4523030654979
 30
0.0
 10
207.3904210252948
 20
235.4240863848436
 30
0.0
 10
207.5273328781172
 20
235.4077789415151
 30
0.0
 10
207.7903998888952
 20
235.3619450944466
 30
0.0
 10
207.9174580555547
 20
235.3324039041051
 30
0.0
 10
208.0399660982365
 20
235.2959187161622
 30
0.0
  0
LINE
  5
21F
330
1F
100
AcDbEntity
  8
0
  6
Continuous
 62
     7
370
    25
100
AcDbLine
 10
194.2092358022
 20
220.9060998321
 30
0.0
 11
194.2092358016
 21
233.4850505882
 31
0.0
  0
LINE
  5
220
330
1F
100
AcDbEntity
  8
0
  6
Continuous
 62
     7
370
    25
100
AcDbLine
 10
209.409235802
 20
220.9060998307
 30
0.0
 11
209.4092358019
 21
233.4850505863
 31
0.0
  0
LINE
  5
221
330
1F
100
AcDbEntity
  8
0
  6
Continuous
 62
     7
370
    25
100
AcDbLine
 10
194.2092358022
 20
220.9060998321
 30
0.0
 11
194.2092358022
 21
214.862572009
 31
0.0
  0
LINE
  5
222
330
1F
100
AcDbEntity
  8
0
  6
Continuous
 62
     7
370
    25
100
AcDbLine
 10
209.4092358022
 20
214.862572009
 30
0.0
 11
209.409235802
 21
220.9060998307
 31
0.0
  0
LINE
  5
223
330
1F
100
AcDbEntity
  8
0
  6
Continuous
 62
     7
370
    25
100
AcDbLine
 10
191.7970254457
 20
175.1006662378
 30
0.0
 11
211.8214461575
 21
175.1006662379
 31
0.0
  0
ARC
  5
224
330
1F
100
AcDbEntity
  8
0
  6
Continuous
 62
     7
370
    25
100
AcDbCircle
 10
208.8865945511
 20
175.8852132595
 30
0.0
 40
0.5004094028401984
100
AcDbArc
 50
270.081691939
 51
359.9183070702
  0
ARC
  5
225
330
1F
100
AcDbEntity
  8
0
  6
Continuous
 62
     7
370
    25
100
AcDbCircle
 10
194.7318770513
 20
175.8852132574
 30
0.0
 40
0.5004094010909745
100
AcDbArc
 50
180.0816916875
 51
269.9183082936
  0
ELLIPSE
  5
226
330
1F
100
AcDbEntity
  8
0
  6
Continuous
 62
     7
370
    25
100
AcDbEllipse
 10
194.6920801892
 20
175.845416396
 30
0.0
 11
-0.1926726662771614
 21
0.4651529640248953
 31
0.0
210
0.0
220
0.0
230
1.0
 40
0.9518332917
 41
1.195246044080743
 42
2.731135783195119
  0
ELLIPSE
  5
227
330
1F
100
AcDbEntity
  8
0
  6
Continuous
 62
     7
370
    25
100
AcDbEllipse
 10
194.7095405739
 20
175.8628767807
 30
0.0
 11
-0.3539842727160476
 21
-0.3539842727160476
 31
0.0
210
0.0
220
0.0
230
0.9999999999999998
 40
0.998782766
 41
5.498396130457828
 42
5.532084741456328
  0
ELLIPSE
  5
228
330
1F
100
AcDbEntity
  8
0
  6
Continuous
 62
     7
370
    25
100
AcDbEllipse
 10
208.9089310303
 20
175.8628767809
 30
0.0
 11
-0.3539842726008828
 21
0.3539842726008259
 31
0.0
210
0.0
220
0.0
230
0.9999999999999998
 40
0.998782766
 41
3.892693219051341
 42
3.926381830149046
  0
ELLIPSE
  5
229
330
1F
100
AcDbEntity
  8
0
  6
Continuous
 62
     7
370
    25
100
AcDbEllipse
 10
208.926391415
 20
175.845416396
 30
0.0
 11
0.1926726662458407
 21
0.4651529639493219
 31
0.0
210
0.0
220
0.0
230
1.0
 40
0.9518332917
 41
3.552049524152312
 42
5.087939263005631
  0
LINE
  5
22A
330
1F
100
AcDbEntity
  8
0
  6
Continuous
 62
     7
370
    25
100
AcDbLine
 10
209.4092358035
 20
177.3625720095
 30
0.0
 11
209.4092358022
 21
214.862572009
 31
0.0
  0
LINE
  5
22B
330
1F
100
AcDbEntity
  8
0
  6
Continuous
 62
     7
370
    25
100
AcDbLine
 10
209.4092358025
 20
175.8622674226
 30
0.0
 11
209.4092358035
 21
177.3625720095
 31
0.0
  0
LINE
  5
22C
330
1F
100
AcDbEntity
  8
0
  6
Continuous
 62
     7
370
    25
100
AcDbLine
 10
194.2092358008
 20
177.3625720095
 30
0.0
 11
194.2092358017
 21
175.8622674225
 31
0.0
  0
LINE
  5
22D
330
1F
100
AcDbEntity
  8
0
  6
Continuous
 62
     7
370
    25
100
AcDbLine
 10
194.2092358022
 20
214.862572009
 30
0.0
 11
194.2092358008
 21
177.3625720095
 31
0.0
  0
LINE
  5
22E
330
1F
100
AcDbEntity
  8
0
  6
Continuous
 62
     7
370
    25
100
AcDbLine
 10
209.4092358035
 20
177.3625720095
 30
0.0
 11
210.1278582522
 21
177.362572009
 31
0.0
  0
ELLIPSE
  5
22F
330
1F
100
AcDbEntity
  8
0
  6
Continuous
 62
     7
370
    25
100
AcDbEllipse
 10
210.1278582522
 20
177.29273047
 30
0.0
 11
2.0
 21
0.0
 31
0.0
210
0.0
220
0.0
230
1.0
 40
0.0349207695
 41
0.034906583861085
 42
1.570796326794897
  0
ELLIPSE
  5
230
330
1F
100
AcDbEntity
  8
0
  6
Continuous
 62
     7
370
    25
100
AcDbEllipse
 10
193.4906133522
 20
177.29273047
 30
0.0
 11
2.0
 21
0.0
 31
0.0
210
0.0
220
0.0
230
1.0
 40
0.0349207695
 41
1.570796326794897
 42
3.106686069604282
  0
LINE
  5
231
330
1F
100
AcDbEntity
  8
0
  6
Continuous
 62
     7
370
    25
100
AcDbLine
 10
193.4906133522
 20
177.362572009
 30
0.0
 11
194.2092358008
 21
177.3625720095
 31
0.0
  0
LINE
  5
232
330
1F
100
AcDbEntity
  8
0
  6
Continuous
 62
     7
370
    25
100
AcDbLine
 10
210.2673916831
 20
179.7598199734
 30
0.0
 11
210.3092408258
 21
177.3622841958
 31
0.0
  0
LINE
  5
233
330
1F
100
AcDbEntity
  8
0
  6
Continuous
 62
     7
370
    25
100
AcDbLine
 10
193.3092307786
 20
177.3622841958
 30
0.0
 11
193.351079921
 21
179.7598199735
 31
0.0
  0
LINE
  5
234
330
1F
100
AcDbEntity
  8
0
  6
Continuous
 62
     7
370
    25
100
AcDbLine
 10
193.351079921
 20
179.7598199735
 30
0.0
 11
193.3634378934
 21
180.467807731
 31
0.0
  0
LINE
  5
235
330
1F
100
AcDbEntity
  8
0
  6
Continuous
 62
     7
370
    25
100
AcDbLine
 10
210.2550337109
 20
180.467807731
 30
0.0
 11
210.2673916831
 21
179.7598199734
 31
0.0
  0
ELLIPSE
  5
236
330
1F
100
AcDbEntity
  8
0
  6
Continuous
 62
     7
370
    25
100
AcDbEllipse
 10
211.8208368015
 20
175.6009710096
 30
0.0
 11
0.3539842720141166
 21
-0.3539842720140882
 31
0.0
210
0.0
220
0.0
230
0.9999999999999998
 40
0.998782766
 41
5.498396126128014
 42
7.067974483539375
  0
ELLIPSE
  5
237
330
1F
100
AcDbEntity
  8
0
  6
Continuous
 62
     7
370
    25
100
AcDbEllipse
 10
191.7976348027
 20
175.6009710095
 30
0.0
 11
-0.3539842726659685
 21
-0.3539842726659685
 31
0.0
210
0.0
220
0.0
230
0.9999999999999998
 40
0.998782766
 41
5.498396130775546
 42
7.067974486313563
  0
LINE
  5
238
330
1F
100
AcDbEntity
  8
0
  6
Continuous
 62
     7
370
    25
100
AcDbLine
 10
191.2973300339
 20
177.1006662382
 30
0.0
 11
191.2973300304
 21
175.6003616511
 31
0.0
  0
LINE
  5
239
330
1F
100
AcDbEntity
  8
0
  6
Continuous
 62
     7
370
    25
100
AcDbLine
 10
191.2973300339
 20
177.1006662382
 30
0.0
 11
191.4918316967
 21
177.2951679045
 31
0.0
  0
LINE
  5
23A
330
1F
100
AcDbEntity
  8
0
  6
Continuous
 62
     7
370
    25
100
AcDbLine
 10
212.3211415734
 20
175.6003616513
 30
0.0
 11
212.3211415705
 21
177.1006662382
 31
0.0
  0
LINE
  5
23B
330
1F
100
AcDbEntity
  8
0
  6
Continuous
 62
     7
370
    25
100
AcDbLine
 10
212.1266399077
 20
177.2951679045
 30
0.0
 11
212.3211415705
 21
177.1006662382
 31
0.0
  0
ARC
  5
23C
330
1F
100
AcDbEntity
  8
0
  6
Continuous
 62
     7
370
    25
100
AcDbCircle
 10
209.9550794022
 20
180.462572009
 30
0.0
 40
0.3000000001765687
100
AcDbArc
 50
1.0000000132
 51
90.0000000025
  0
ARC
  5
23D
330
1F
100
AcDbEntity
  8
0
  6
Continuous
 62
     7
370
    25
100
AcDbCircle
 10
193.6633922022
 20
180.462572009
 30
0.0
 40
0.3000000002270766
100
AcDbArc
 50
90.0000000051
 51
178.9999999884
  0
LINE
  5
23E
330
1F
100
AcDbEntity
  8
0
  6
Continuous
 62
     7
370
    25
100
AcDbLine
 10
209.9550794022
 20
180.7625720089
 30
0.0
 11
209.4092358034
 21
180.7625720089
 31
0.0
  0
LINE
  5
23F
330
1F
100
AcDbEntity
  8
0
  6
Continuous
 62
     7
370
    25
100
AcDbLine
 10
194.209235801
 20
180.762572009
 30
0.0
 11
193.6633922022
 21
180.762572009
 31
0.0
  0
SPLINE
  5
240
330
1F
100
AcDbEntity
  8
0
  6
PHANTOM
 62
     7
370
    18
100
AcDbSpline
210
0.0
220
0.0
230
1.0
 70
     8
 71
     3
 72
     8
 73
     4
 74
     0
 42
0.00000001
 43
0.00000001
 40
0.0
 40
0.0
 40
0.0
 40
0.0
 40
1.0
 40
1.0
 40
1.0
 40
1.0
 10
201.8092358142354
 20
233.8548696569612
 30
0.0
 10
203.362563715218
 20
233.8548696574205
 30
0.0
 10
204.9158678201504
 20
233.9436689544176
 30
0.0
 10
206.4497052591835
 20
234.1201573219612
 30
0.0
  0
SPLINE
  5
241
330
1F
100
AcDbEntity
  8
0
  6
PHANTOM
 62
     7
370
    18
100
AcDbSpline
210
0.0
220
0.0
230
1.0
 70
     8
 71
     3
 72
     8
 73
     4
 74
     0
 42
0.00000001
 43
0.00000001
 40
0.0
 40
0.0
 40
0.0
 40
0.0
 40
1.0
 40
1.0
 40
1.0
 40
1.0
 10
197.1687663451835
 20
234.1201573219612
 30
0.0
 10
198.7026037921504
 20
233.9436689535047
 30
0.0
 10
200.2559079052182
 20
233.8548696565018
 30
0.0
 10
201.8092358142354
 20
233.8548696569612
 30
0.0
  0
ARC
  5
242
330
1F
100
AcDbEntity
  8
0
  6
PHANTOM
 62
     7
370
    18
100
AcDbCircle
 10
200.9813259493
 20
234.0336500399
 30
0.0
 40
3.813540895936483
100
AcDbArc
 50
168.2467817425
 51
178.7001772268
  0
SPLINE
  5
243
330
1F
100
AcDbEntity
  8
0
  6
PHANTOM
 62
     7
370
    18
100
AcDbSpline
210
0.0
220
0.0
230
1.0
 70
     8
 71
     3
 72
     8
 73
     4
 74
     0
 42
0.00000001
 43
0.00000001
 40
0.0
 40
0.0
 40
0.0
 40
0.0
 40
1.0
 40
1.0
 40
1.0
 40
1.0
 10
206.3707319871835
 20
234.8104558999611
 30
0.0
 10
203.3552639551834
 20
234.4632800559612
 30
0.0
 10
200.2632076491834
 20
234.4632800559612
 30
0.0
 10
197.2477396171834
 20
234.8104558999611
 30
0.0
  0
SPLINE
  5
244
330
1F
100
AcDbEntity
  8
0
  6
PHANTOM
 62
     7
370
    18
100
AcDbSpline
210
0.0
220
0.0
230
1.0
 70
     8
 71
     3
 72
    14
 73
    10
 74
     0
 42
0.00000001
 43
0.00000001
 40
0.0
 40
0.0
 40
0.0
 40
0.0
 40
0.25
 40
0.25
 40
0.5
 40
0.5
 40
0.75
 40
0.75
 40
1.0
 40
1.0
 40
1.0
 40
1.0
 10
206.3707314809857
 20
234.8104558534459
 30
0.0
 10
206.3798822315304
 20
234.7693285594879
 30
0.0
 10
206.3897228359942
 20
234.7179045373301
 30
0.0
 10
206.4087987075521
 20
234.5997082266599
 30
0.0
 10
206.417979935025
 20
234.5330787298997
 30
0.0
 10
206.4332920805191
 20
234.3992367123591
 30
0.0
 10
206.4393758608253
 20
234.332436217895
 30
0.0
 10
206.4474141095498
 20
234.2136305640914
 30
0.0
 10
206.449389472247
 20
234.161772333306
 30
0.0
 10
206.4497048295624
 20
234.1201572725276
 30
0.0
  0
SPLINE
  5
245
330
1F
100
AcDbEntity
  8
0
  6
PHANTOM
 62
     7
370
    18
100
AcDbSpline
210
0.0
220
0.0
230
1.0
 70
     8
 71
     3
 72
    20
 73
    16
 74
     0
 42
0.00000001
 43
0.00000001
 40
0.0
 40
0.0
 40
0.0
 40
0.0
 40
0.125
 40
0.125
 40
0.25
 40
0.25
 40
0.5
 40
0.5
 40
0.625
 40
0.625
 40
0.75
 40
0.75
 40
0.875
 40
0.875
 40
1.0
 40
1.0
 40
1.0
 40
1.0
 10
206.4497052591835
 20
234.1201573219612
 30
0.0
 10
206.6171843631835
 20
234.1394280149612
 30
0.0
 10
206.7825091211835
 20
234.1480701209612
 30
0.0
 10
207.1089203651835
 20
234.1444443436278
 30
0.0
 10
207.2697464601835
 20
234.1319276929611
 30
0.0
 10
207.7284122301835
 20
234.0637358929612
 30
0.0
 10
208.0129408296835
 20
233.9754657514612
 30
0.0
 10
208.3682428386835
 20
233.7862282984612
 30
0.0
 10
208.4769220591834
 20
233.7125971712945
 30
0.0
 10
208.6653923471835
 20
233.5488408099611
 30
0.0
 10
208.7452546641834
 20
233.4591923149611
 30
0.0
 10
208.8759470865835
 20
233.2635901629612
 30
0.0
 10
208.9263870898501
 20
233.1572632289612
 30
0.0
 10
208.9928880671835
 20
232.9371221969612
 30
0.0
 10
209.0098508291834
 20
232.8222030689611
 30
0.0
 10
209.0098508331835
 20
232.7021882079611
 30
0.0
  0
SPLINE
  5
246
330
1F
100
AcDbEntity
  8
0
  6
PHANTOM
 62
     7
370
    18
100
AcDbSpline
210
0.0
220
0.0
230
1.0
 70
     8
 71
     3
 72
    20
 73
    16
 74
     0
 42
0.00000001
 43
0.00000001
 40
0.0
 40
0.0
 40
0.0
 40
0.0
 40
0.125
 40
0.125
 40
0.25
 40
0.25
 40
0.375
 40
0.375
 40
0.5
 40
0.5
 40
0.75
 40
0.75
 40
0.875
 40
0.875
 40
1.0
 40
1.0
 40
1.0
 40
1.0
 10
209.3870034451835
 20
233.0268027399611
 30
0.0
 10
209.3869628531835
 20
233.1699840119612
 30
0.0
 10
209.3669475971835
 20
233.3078170019612
 30
0.0
 10
209.2885563171835
 20
233.5732907672945
 30
0.0
 10
209.2291178703834
 20
233.7022876423611
 30
0.0
 10
209.0751331551834
 20
233.9411172999612
 30
0.0
 10
208.9810462061835
 20
234.0513793149611
 30
0.0
 10
208.7590152968501
 20
234.2543829762945
 30
0.0
 10
208.6309874421835
 20
234.3465556474611
 30
0.0
 10
208.2124299621834
 20
234.5860875724611
 30
0.0
 10
207.8772456311835
 20
234.7019275136278
 30
0.0
 10
207.3368906891835
 20
234.7989800916278
 30
0.0
 10
207.1474164961835
 20
234.8192226396278
 30
0.0
 10
206.7628491481835
 20
234.8338804249612
 30
0.0
 10
206.5680630141835
 20
234.8285889359612
 30
0.0
 10
206.3707319871835
 20
234.8104558999611
 30
0.0
  0
ARC
  5
247
330
1F
100
AcDbEntity
  8
0
  6
PHANTOM
 62
     7
370
    18
100
AcDbCircle
 10
208.9883245796
 20
233.1086026263
 30
0.0
 40
0.4069841024016205
100
AcDbArc
 50
273.0319103974
 51
348.4051207404
  0
SPLINE
  5
248
330
1F
100
AcDbEntity
  8
0
  6
PHANTOM
 62
     7
370
    18
100
AcDbSpline
210
0.0
220
0.0
230
1.0
 70
     8
 71
     3
 72
    20
 73
    16
 74
     0
 42
0.00000001
 43
0.00000001
 40
0.0
 40
0.0
 40
0.0
 40
0.0
 40
0.2499999999999989
 40
0.2499999999999989
 40
0.374999999999999
 40
0.374999999999999
 40
0.4999999999999992
 40
0.4999999999999992
 40
0.6249999999999994
 40
0.6249999999999994
 40
0.7499999999999996
 40
0.7499999999999996
 40
0.8749999999999998
 40
0.8749999999999998
 40
1.0
 40
1.0
 40
1.0
 40
1.0
 10
194.6086207711834
 20
232.7021882079611
 30
0.0
 10
194.6086207751835
 20
232.9422528699612
 30
0.0
 10
194.6783752578501
 20
233.1680864109611
 30
0.0
 10
194.8738624198501
 20
233.4599030049612
 30
0.0
 10
194.9554233475835
 20
233.5512448013611
 30
0.0
 10
195.1443601011835
 20
233.7146617309613
 30
0.0
 10
195.2511004421834
 20
233.7867942279611
 30
0.0
 10
195.4885665208501
 20
233.9130667292945
 30
0.0
 10
195.6204846521834
 20
233.9673303932946
 30
0.0
 10
195.8975786001834
 20
234.0537649239612
 30
0.0
 10
196.0437966251835
 20
234.0866891069612
 30
0.0
 10
196.3518100038501
 20
234.1322886522945
 30
0.0
 10
196.5125667655168
 20
234.1445536396278
 30
0.0
 10
196.8364989121835
 20
234.1479994449612
 30
0.0
 10
197.0012064181834
 20
234.1394373139612
 30
0.0
 10
197.1687663451835
 20
234.1201573219612
 30
0.0
  0
SPLINE
  5
249
330
1F
100
AcDbEntity
  8
0
  6
PHANTOM
 62
     7
370
    18
100
AcDbSpline
210
0.0
220
0.0
230
1.0
 70
     8
 71
     3
 72
    10
 73
     6
 74
     0
 42
0.00000001
 43
0.00000001
 40
0.0
 40
0.0
 40
0.0
 40
0.0
 40
0.5
 40
0.5
 40
1.0
 40
1.0
 40
1.0
 40
1.0
 10
194.231468159105
 20
233.0268024633299
 30
0.0
 10
194.2349610846157
 20
232.9573197396621
 30
0.0
 10
194.2722199340766
 20
232.8809099010708
 30
0.0
 10
194.4119358947802
 20
232.7606566574479
 30
0.0
 10
194.511587945597
 20
232.7192275622279
 30
0.0
 10
194.6086207711835
 20
232.7021879760882
 30
0.0
  0
SPLINE
  5
24A
330
1F
100
AcDbEntity
  8
0
  6
PHANTOM
 62
     7
370
    18
100
AcDbSpline
210
0.0
220
0.0
230
1.0
 70
     8
 71
     3
 72
    20
 73
    16
 74
     0
 42
0.00000001
 43
0.00000001
 40
0.0
 40
0.0
 40
0.0
 40
0.0
 40
0.1250000000000002
 40
0.1250000000000002
 40
0.2500000000000004
 40
0.2500000000000004
 40
0.3750000000000006
 40
0.3750000000000006
 40
0.5000000000000008
 40
0.5000000000000008
 40
0.625000000000001
 40
0.625000000000001
 40
0.7500000000000011
 40
0.7500000000000011
 40
1.0
 40
1.0
 40
1.0
 40
1.0
 10
197.2477396171834
 20
234.8104558999611
 30
0.0
 10
197.0503133751834
 20
234.8285976849612
 30
0.0
 10
196.8562545021835
 20
234.8338115349611
 30
0.0
 10
196.4746078648501
 20
234.8194500189611
 30
0.0
 10
196.2852152345168
 20
234.7995146556278
 30
0.0
 10
195.9223440571834
 20
234.7345746329611
 30
0.0
 10
195.7500889421835
 20
234.6901002079611
 30
0.0
 10
195.4236577168501
 20
234.5768392279612
 30
0.0
 10
195.2682538925168
 20
234.5071111859612
 30
0.0
 10
194.9885110271834
 20
234.3472653539612
 30
0.0
 10
194.8627672711835
 20
234.2569585789612
 30
0.0
 10
194.6401869607834
 20
234.0543436733612
 30
0.0
 10
194.5440988921835
 20
233.9419918879612
 30
0.0
 10
194.3137717981835
 20
233.5856642959611
 30
0.0
 10
194.2315493551835
 20
233.3132068859611
 30
0.0
 10
194.2314681591835
 20
233.0268027399611
 30
0.0
  0
ARC
  5
24B
330
1F
100
AcDbEntity
  8
0
  6
PHANTOM
 62
     7
370
    18
100
AcDbCircle
 10
201.7866301329
 20
261.2157143143
 30
0.0
 40
41.69893735075892
100
AcDbArc
 50
260.0877972133
 51
270.0310609679
  0
LINE
  5
24C
330
1F
100
AcDbEntity
  8
0
  6
PHANTOM
 62
     7
370
    18
100
AcDbLine
 10
194.6086207682
 20
220.1392300715
 30
0.0
 11
194.6086207652
 21
232.7021882036
 31
0.0
  0
LINE
  5
24D
330
1F
100
AcDbEntity
  8
0
  6
PHANTOM
 62
     7
370
    18
100
AcDbLine
 10
209.0098508341
 20
232.7021882027
 30
0.0
 11
209.0098508336
 21
220.139230071
 31
0.0
  0
ARC
  5
24E
330
1F
100
AcDbEntity
  8
0
  6
PHANTOM
 62
     7
370
    18
100
AcDbCircle
 10
201.831841464
 20
261.2157144097
 30
0.0
 40
41.69893744620317
100
AcDbArc
 50
269.9689390352
 51
279.9122027707
  0
LINE
  5
24F
330
1F
100
AcDbEntity
  8
0
  6
PHANTOM
 62
     7
370
    18
100
AcDbLine
 10
206.3707319879
 20
234.8104559001
 30
0.0
 11
206.3998111344
 21
235.4098281003
 31
0.0
  0
LINE
  5
250
330
1F
100
AcDbEntity
  8
0
  6
PHANTOM
 62
     7
370
    18
100
AcDbLine
 10
197.2186604706
 20
235.4098281005
 30
0.0
 11
197.2477396133
 21
234.8104558999
 31
0.0
  0
LINE
  5
251
330
1F
100
AcDbEntity
  8
0
  6
PHANTOM
 62
     7
370
    18
100
AcDbLine
 10
194.2314681584
 20
233.0268027403
 30
0.0
 11
194.2092358016
 21
233.4850505882
 31
0.0
  0
LINE
  5
252
330
1F
100
AcDbEntity
  8
0
  6
PHANTOM
 62
     7
370
    18
100
AcDbLine
 10
209.4092358019
 20
233.4850505863
 30
0.0
 11
209.387003445
 21
233.0268027371
 31
0.0
  0
ARC
  5
253
330
1F
100
AcDbEntity
  8
0
  6
PHANTOM
 62
     7
370
    18
100
AcDbCircle
 10
194.6301470228
 20
220.5456444868
 30
0.0
 40
0.4069840986640863
100
AcDbArc
 50
191.5948783932
 51
266.968089573
  0
LINE
  5
254
330
1F
100
AcDbEntity
  8
0
  6
PHANTOM
 62
     7
370
    18
100
AcDbLine
 10
194.2314681592
 20
220.4638446074
 30
0.0
 11
194.2314681587
 21
233.0268027402
 31
0.0
  0
LINE
  5
255
330
1F
100
AcDbEntity
  8
0
  6
PHANTOM
 62
     7
370
    18
100
AcDbLine
 10
209.3870034456
 20
233.0268027402
 30
0.0
 11
209.3870034452
 21
220.4638446062
 31
0.0
  0
ARC
  5
256
330
1F
100
AcDbEntity
  8
0
  6
PHANTOM
 62
     7
370
    18
100
AcDbCircle
 10
208.9883245783
 20
220.5456444903
 30
0.0
 40
0.406984102797784
100
AcDbArc
 50
273.0319104926
 51
348.4051210392
  0
LINE
  5
257
330
1F
100
AcDbEntity
  8
0
  6
PHANTOM
 62
     7
370
    18
100
AcDbLine
 10
194.2092358022
 20
220.9060998321
 30
0.0
 11
194.2314681592
 21
220.4638446074
 31
0.0
  0
LINE
  5
258
330
1F
100
AcDbEntity
  8
0
  6
PHANTOM
 62
     7
370
    18
100
AcDbLine
 10
209.3870034452
 20
220.4638446062
 30
0.0
 11
209.409235802
 21
220.9060998307
 31
0.0
  0
SPLINE
  5
259
330
1F
100
AcDbEntity
  8
0
  6
PHANTOM
 62
     7
370
    18
100
AcDbSpline
210
0.0
220
0.0
230
1.0
 70
    24
 71
     3
 72
    14
 73
    10
 74
     0
 42
0.00000001
 43
0.00000001
 40
0.0
 40
0.0
 40
0.0
 40
0.0
 40
0.25
 40
0.25
 40
0.5
 40
0.5
 40
0.75
 40
0.75
 40
1.0
 40
1.0
 40
1.0
 40
1.0
 10
201.8092358013361
 20
219.5167830909265
 30
0.0
 10
201.8092358013361
 20
219.2158755584562
 30
0.0
 10
201.8092358013361
 20
218.8819352831601
 30
0.0
 10
201.8092358013361
 20
218.1614259730375
 30
0.0
 10
201.8092358013361
 20
217.7749415530927
 30
0.0
 10
201.8092358013361
 20
216.9699308166449
 30
0.0
 10
201.8092358013361
 20
216.5515454792117
 30
0.0
 10
201.8092358013361
 20
215.7069488578677
 30
0.0
 10
201.8092358013361
 20
215.2808827049348
 30
0.0
 10
201.8092358013361
 20
214.8625720089611
 30
0.0
  0
LINE
  5
25A
330
1F
100
AcDbEntity
  8
0
  6
PHANTOM
 62
     7
370
    18
100
AcDbLine
 10
209.0098508311
 20
214.862572009
 30
0.0
 11
209.0098508336
 21
220.139230071
 31
0.0
  0
LINE
  5
25B
330
1F
100
AcDbEntity
  8
0
  6
PHANTOM
 62
     7
370
    18
100
AcDbLine
 10
201.8092358009
 20
214.862572009
 30
0.0
 11
209.0098508311
 21
214.862572009
 31
0.0
  0
LINE
  5
25C
330
1F
100
AcDbEntity
  8
0
  6
PHANTOM
 62
     7
370
    18
100
AcDbLine
 10
194.6086207659
 20
214.862572009
 30
0.0
 11
201.8092358009
 21
214.862572009
 31
0.0
  0
LINE
  5
25D
330
1F
100
AcDbEntity
  8
0
  6
PHANTOM
 62
     7
370
    18
100
AcDbLine
 10
194.6086207682
 20
220.1392300715
 30
0.0
 11
194.6086207659
 21
214.862572009
 31
0.0
  0
LINE
  5
25E
330
1F
100
AcDbEntity
  8
0
  6
PHANTOM
 62
     7
370
    18
100
AcDbLine
 10
209.3870034449
 20
214.862572009
 30
0.0
 11
209.3870034452
 21
220.4638446062
 31
0.0
  0
LINE
  5
25F
330
1F
100
AcDbEntity
  8
0
  6
PHANTOM
 62
     7
370
    18
100
AcDbLine
 10
209.0098508311
 20
214.862572009
 30
0.0
 11
209.3870034449
 21
214.862572009
 31
0.0
  0
LINE
  5
260
330
1F
100
AcDbEntity
  8
0
  6
PHANTOM
 62
     7
370
    18
100
AcDbLine
 10
194.2314681592
 20
220.4638446074
 30
0.0
 11
194.2314681594
 21
214.8625720105
 31
0.0
  0
LINE
  5
261
330
1F
100
AcDbEntity
  8
0
  6
PHANTOM
 62
     7
370
    18
100
AcDbLine
 10
194.2314681594
 20
214.8625720105
 30
0.0
 11
194.6086207659
 21
214.862572009
 31
0.0
  0
LINE
  5
262
330
1F
100
AcDbEntity
  8
0
  6
PHANTOM
 62
     7
370
    18
100
AcDbLine
 10
194.2314681594
 20
214.8625720105
 30
0.0
 11
194.2092358022
 21
214.862572009
 31
0.0
  0
LINE
  5
263
330
1F
100
AcDbEntity
  8
0
  6
PHANTOM
 62
     7
370
    18
100
AcDbLine
 10
209.4092358022
 20
214.862572009
 30
0.0
 11
209.3870034449
 21
214.862572009
 31
0.0
  0
SPLINE
  5
264
330
1F
100
AcDbEntity
  8
0
  6
PHANTOM
 62
     7
370
    18
100
AcDbSpline
210
0.0
220
0.0
230
1.0
 70
     8
 71
     3
 72
    10
 73
     6
 74
     0
 42
0.00000001
 43
0.00000001
 40
0.0
 40
0.0
 40
0.0
 40
0.0
 40
0.5
 40
0.5
 40
1.0
 40
1.0
 40
1.0
 40
1.0
 10
209.0098508331835
 20
175.8844997799611
 30
0.0
 10
206.6588952131835
 20
175.9049003799612
 30
0.0
 10
204.2341433641834
 20
175.9152579349611
 30
0.0
 10
199.3843282401833
 20
175.9152579349611
 30
0.0
 10
196.9595763911834
 20
175.9049003799612
 30
0.0
 10
194.6086207711835
 20
175.8844997799611
 30
0.0
  0
LINE
  5
265
330
1F
100
AcDbEntity
  8
0
  6
PHANTOM
 62
     7
370
    18
100
AcDbLine
 10
194.6086207644
 20
175.8844997906
 30
0.0
 11
194.6086207659
 21
214.862572009
 31
0.0
  0
LINE
  5
266
330
1F
100
AcDbEntity
  8
0
  6
PHANTOM
 62
     7
370
    18
100
AcDbLine
 10
209.0098508311
 20
214.862572009
 30
0.0
 11
209.0098508283
 21
175.8844997906
 31
0.0
  0
SPLINE
  5
267
330
1F
100
AcDbEntity
  8
0
  6
PHANTOM
 62
     7
370
    18
100
AcDbSpline
210
0.0
220
0.0
230
1.0
 70
     8
 71
     3
 72
    10
 73
     6
 74
     0
 42
0.00000001
 43
0.00000001
 40
0.0
 40
0.0
 40
0.0
 40
0.0
 40
0.5
 40
0.5
 40
1.0
 40
1.0
 40
1.0
 40
1.0
 10
194.7311635731835
 20
175.3848043659611
 30
0.0
 10
197.0421097371834
 20
175.4052049679611
 30
0.0
 10
199.4255962381833
 20
175.4155625219612
 30
0.0
 10
204.1928753661834
 20
175.4155625219612
 30
0.0
 10
206.5763618671835
 20
175.4052049679611
 30
0.0
 10
208.8873080311835
 20
175.3848043659611
 30
0.0
  0
SPLINE
  5
268
330
1F
100
AcDbEntity
  8
0
  6
PHANTOM
 62
     7
370
    18
100
AcDbSpline
210
0.0
220
0.0
230
1.0
 70
     8
 71
     3
 72
    14
 73
    10
 74
     0
 42
0.00000001
 43
0.00000001
 40
0.0
 40
0.0
 40
0.0
 40
0.0
 40
0.2499999999999999
 40
0.2499999999999999
 40
0.4999999999999998
 40
0.4999999999999998
 40
0.7499999999999999
 40
0.7499999999999999
 40
1.0
 40
1.0
 40
1.0
 40
1.0
 10
194.6086207588012
 20
175.8844997798537
 30
0.0
 10
194.6091013364222
 20
175.826581790548
 30
0.0
 10
194.6121588048911
 20
175.7642938792598
 30
0.0
 10
194.624622375637
 20
175.6435521576848
 30
0.0
 10
194.6340610351609
 20
175.5854409613717
 30
0.0
 10
194.6578238732397
 20
175.4885427266537
 30
0.0
 10
194.6720747721606
 20
175.4500545021849
 30
0.0
 10
194.7016848676137
 20
175.399231532317
 30
0.0
 10
194.7169600432099
 20
175.386764027534
 30
0.0
 10
194.7311635610119
 20
175.3848043658537
 30
0.0
  0
SPLINE
  5
269
330
1F
100
AcDbEntity
  8
0
  6
PHANTOM
 62
     7
370
    18
100
AcDbSpline
210
0.0
220
0.0
230
1.0
 70
     8
 71
     3
 72
    14
 73
    10
 74
     0
 42
0.00000001
 43
0.00000001
 40
0.0
 40
0.0
 40
0.0
 40
0.0
 40
0.2500000000000003
 40
0.2500000000000003
 40
0.5000000000000002
 40
0.5000000000000002
 40
0.7500000000000001
 40
0.7500000000000001
 40
1.0
 40
1.0
 40
1.0
 40
1.0
 10
208.8873080257841
 20
175.3848043660088
 30
0.0
 10
208.9015115435508
 20
175.3867640276894
 30
0.0
 10
208.916786719109
 20
175.3992315324727
 30
0.0
 10
208.9463968144886
 20
175.4500545023409
 30
0.0
 10
208.9606477133741
 20
175.4885427268098
 30
0.0
 10
208.9844105513939
 20
175.5854409615276
 30
0.0
 10
208.9938492108943
 20
175.6435521578406
 30
0.0
 10
209.0063127816094
 20
175.7642938794153
 30
0.0
 10
209.0093702500707
 20
175.8265817907032
 30
0.0
 10
209.0098508276907
 20
175.8844997800088
 30
0.0
  0
LINE
  5
26A
330
1F
100
AcDbEntity
  8
0
  6
PHANTOM
 62
     7
370
    18
100
AcDbLine
 10
208.9263914163
 20
175.3457209834
 30
0.0
 11
208.8873080356
 21
175.3848043663
 31
0.0
  0
LINE
  5
26B
330
1F
100
AcDbEntity
  8
0
  6
PHANTOM
 62
     7
370
    18
100
AcDbLine
 10
210.1278582464
 20
175.3457209834
 30
0.0
 11
208.9263914163
 21
175.3457209834
 31
0.0
  0
SPLINE
  5
26C
330
1F
100
AcDbEntity
  8
0
  6
PHANTOM
 62
     7
370
    18
100
AcDbSpline
210
0.0
220
0.0
230
1.0
 70
     8
 71
     3
 72
    20
 73
    16
 74
     0
 42
0.00000001
 43
0.00000001
 40
0.0
 40
0.0
 40
0.0
 40
0.0
 40
0.0416862272293194
 40
0.0833402136810133
 40
0.1251325655916753
 40
0.1875635483634299
 40
0.2502327476207886
 40
0.3751775487021927
 40
0.5001087022217999
 40
0.6250253392624548
 40
0.749928705123544
 40
0.8123285909006301
 40
0.8749667838917587
 40
0.9374237822718989
 40
1.0
 40
1.0
 40
1.0
 40
1.0
 10
211.6269444931835
 20
175.295167904849
 30
0.0
 10
211.6252410634436
 20
175.2962832218995
 30
0.0
 10
211.621835521423
 20
175.2985129933969
 30
0.0
 10
211.6089457839697
 20
175.3018377725825
 30
0.0
 10
211.587380210512
 20
175.3056735806952
 30
0.0
 10
211.5525703475205
 20
175.3099836208973
 30
0.0
 10
211.4829742479176
 20
175.3162336240308
 30
0.0
 10
211.3641619792614
 20
175.3235703272866
 30
0.0
 10
211.1762714149944
 20
175.3312510786674
 30
0.0
 10
210.9498982302578
 20
175.3375410295467
 30
0.0
 10
210.7359379795305
 20
175.3414273625826
 30
0.0
 10
210.554642679879
 20
175.3436425130735
 30
0.0
 10
210.4146436600675
 20
175.3448303549835
 30
0.0
 10
210.2719004318973
 20
175.3455830578
 30
0.0
 10
210.1759028233731
 20
175.3456749788539
 30
0.0
 10
210.1278582521834
 20
175.3457209832043
 30
0.0
  0
LINE
  5
26D
330
1F
100
AcDbEntity
  8
0
  6
PHANTOM
 62
     7
370
    18
100
AcDbLine
 10
211.8214461575
 20
175.1006662379
 30
0.0
 11
211.6269445
 21
175.2951679048
 31
0.0
  0
LINE
  5
26E
330
1F
100
AcDbEntity
  8
0
  6
PHANTOM
 62
     7
370
    18
100
AcDbLine
 10
191.9915271043
 20
175.2951679048
 30
0.0
 11
191.7970254457
 21
175.1006662378
 31
0.0
  0
SPLINE
  5
26F
330
1F
100
AcDbEntity
  8
0
  6
PHANTOM
 62
     7
370
    18
100
AcDbSpline
210
0.0
220
0.0
230
1.0
 70
     8
 71
     3
 72
    20
 73
    16
 74
     0
 42
0.00000001
 43
0.00000001
 40
0.0
 40
0.0
 40
0.0
 40
0.0
 40
0.0416609705136027
 40
0.083290245671977
 40
0.125058735276995
 40
0.1874566251137078
 40
0.2500968083958943
 40
0.375000168607237
 40
0.4999167999975486
 40
0.6248479478661555
 40
0.7497927432959403
 40
0.8122215189449518
 40
0.8748929196973438
 40
0.9373859901837498
 40
1.0
 40
1.0
 40
1.0
 40
1.0
 10
193.4906133521835
 20
175.3457209832043
 30
0.0
 10
193.4586347863779
 20
175.3457004581581
 30
0.0
 10
193.3947019838207
 20
175.3456594236809
 30
0.0
 10
193.2991004733726
 20
175.3453256076174
 30
0.0
 10
193.1885702043379
 20
175.3447068370127
 30
0.0
 10
193.0640049224845
 20
175.3436423765583
 30
0.0
 10
192.8826992681288
 20
175.3414314937269
 30
0.0
 10
192.6685722654138
 20
175.3375406426795
 30
0.0
 10
192.4422032420095
 20
175.3312511817047
 30
0.0
 10
192.25429852153
 20
175.3235703020665
 30
0.0
 10
192.1356213656927
 20
175.3162392616636
 30
0.0
 10
192.0659035002011
 20
175.3099897679418
 30
0.0
 10
192.0270237427088
 20
175.3051453724346
 30
0.0
 10
192.0005011825821
 20
175.3001900236813
 30
0.0
 10
191.9945203954985
 20
175.29684302296
 30
0.0
 10
191.9915271111834
 20
175.295167904849
 30
0.0
  0
LINE
  5
270
330
1F
100
AcDbEntity
  8
0
  6
PHANTOM
 62
     7
370
    18
100
AcDbLine
 10
194.692080188
 20
175.3457209834
 30
0.0
 11
193.490613358
 21
175.3457209834
 31
0.0
  0
LINE
  5
271
330
1F
100
AcDbEntity
  8
0
  6
PHANTOM
 62
     7
370
    18
100
AcDbLine
 10
194.7311635687
 20
175.3848043663
 30
0.0
 11
194.692080188
 21
175.3457209834
 31
0.0
  0
LINE
  5
272
330
1F
100
AcDbEntity
  8
0
  6
PHANTOM
 62
     7
370
    18
100
AcDbLine
 10
209.3870034453
 20
175.8844997707
 30
0.0
 11
209.0098508329
 21
175.88449978
 31
0.0
  0
LINE
  5
273
330
1F
100
AcDbEntity
  8
0
  6
PHANTOM
 62
     7
370
    18
100
AcDbLine
 10
194.6086207713
 20
175.88449978
 30
0.0
 11
194.2314681588
 21
175.8844997795
 31
0.0
  0
LINE
  5
274
330
1F
100
AcDbEntity
  8
0
  6
PHANTOM
 62
     7
370
    18
100
AcDbLine
 10
209.3870034449
 20
214.862572009
 30
0.0
 11
209.3870034453
 21
175.8844997707
 31
0.0
  0
LINE
  5
275
330
1F
100
AcDbEntity
  8
0
  6
PHANTOM
 62
     7
370
    18
100
AcDbLine
 10
194.2314681588
 20
175.8844997795
 30
0.0
 11
194.2314681594
 21
214.8625720105
 31
0.0
  0
LINE
  5
276
330
1F
100
AcDbEntity
  8
0
  6
PHANTOM
 62
     7
370
    18
100
AcDbLine
 10
194.2092358017
 20
175.8622674225
 30
0.0
 11
194.2314681588
 21
175.8844997795
 31
0.0
  0
LINE
  5
277
330
1F
100
AcDbEntity
  8
0
  6
PHANTOM
 62
     7
370
    18
100
AcDbLine
 10
209.3870034453
 20
175.8844997707
 30
0.0
 11
209.4092358025
 21
175.8622674226
 31
0.0
  0
LINE
  5
278
330
1F
100
AcDbEntity
  8
0
  6
PHANTOM
 62
     7
370
    18
100
AcDbLine
 10
210.1278582522
 20
177.362572009
 30
0.0
 11
210.1278582522
 21
175.8454163959
 31
0.0
  0
LINE
  5
279
330
1F
100
AcDbEntity
  8
0
  6
PHANTOM
 62
     7
370
    18
100
AcDbLine
 10
209.4089519259
 20
175.8454163959
 30
0.0
 11
210.1278582522
 21
175.8454163959
 31
0.0
  0
LINE
  5
27A
330
1F
100
AcDbEntity
  8
0
  6
PHANTOM
 62
     7
370
    18
100
AcDbLine
 10
212.1266399077
 20
177.2951679045
 30
0.0
 11
212.1266399063
 21
175.7948633185
 31
0.0
  0
SPLINE
  5
27B
330
1F
100
AcDbEntity
  8
0
  6
PHANTOM
 62
     7
370
    18
100
AcDbSpline
210
0.0
220
0.0
230
1.0
 70
     8
 71
     3
 72
    14
 73
    10
 74
     0
 42
0.00000001
 43
0.00000001
 40
0.0
 40
0.0
 40
0.0
 40
0.0
 40
0.25
 40
0.25
 40
0.5
 40
0.5
 40
0.75
 40
0.75
 40
1.0
 40
1.0
 40
1.0
 40
1.0
 10
212.1266399061835
 20
175.7948633179612
 30
0.0
 10
212.1177061841835
 20
175.8015636099612
 30
0.0
 10
212.0590662666835
 20
175.8082158889611
 30
0.0
 10
211.8508320686835
 20
175.8204652649611
 30
0.0
 10
211.7013127506835
 20
175.8260578889612
 30
0.0
 10
211.3330372366835
 20
175.8353722929612
 30
0.0
 10
211.1144134506834
 20
175.8390907254611
 30
0.0
 10
210.6397294286834
 20
175.8441136794611
 30
0.0
 10
210.3838425161834
 20
175.8454163959612
 30
0.0
 10
210.1278582521834
 20
175.8454163959612
 30
0.0
  0
LINE
  5
27C
330
1F
100
AcDbEntity
  8
0
  6
PHANTOM
 62
     7
370
    18
100
AcDbLine
 10
191.4918316982
 20
175.7948633178
 30
0.0
 11
191.4918316967
 21
177.2951679045
 31
0.0
  0
LINE
  5
27D
330
1F
100
AcDbEntity
  8
0
  6
PHANTOM
 62
     7
370
    18
100
AcDbLine
 10
193.4906133522
 20
175.845416396
 30
0.0
 11
193.4906133522
 21
177.362572009
 31
0.0
  0
SPLINE
  5
27E
330
1F
100
AcDbEntity
  8
0
  6
PHANTOM
 62
     7
370
    18
100
AcDbSpline
210
0.0
220
0.0
230
1.0
 70
     8
 71
     3
 72
    14
 73
    10
 74
     0
 42
0.00000001
 43
0.00000001
 40
0.0
 40
0.0
 40
0.0
 40
0.0
 40
0.25
 40
0.25
 40
0.5
 40
0.5
 40
0.75
 40
0.75
 40
1.0
 40
1.0
 40
1.0
 40
1.0
 10
193.4906133521835
 20
175.8454163959612
 30
0.0
 10
193.2346290881835
 20
175.8454163959612
 30
0.0
 10
192.9787421756834
 20
175.8441136794611
 30
0.0
 10
192.5040581536835
 20
175.8390907254611
 30
0.0
 10
192.2854343676835
 20
175.8353722929612
 30
0.0
 10
191.9171588536835
 20
175.8260578889612
 30
0.0
 10
191.7676395356834
 20
175.8204652649611
 30
0.0
 10
191.5594053376834
 20
175.8082158889611
 30
0.0
 10
191.5007654201835
 20
175.8015636099612
 30
0.0
 10
191.4918316981835
 20
175.7948633179612
 30
0.0
  0
LINE
  5
27F
330
1F
100
AcDbEntity
  8
0
  6
PHANTOM
 62
     7
370
    18
100
AcDbLine
 10
193.4906133522
 20
175.8454163959
 30
0.0
 11
194.2095196782
 21
175.8454163958
 31
0.0
  0
LINE
  5
280
330
1F
100
AcDbEntity
  8
0
  6
PHANTOM
 62
     7
370
    18
100
AcDbLine
 10
210.1278582522
 20
175.8454163959
 30
0.0
 11
210.1278582522
 21
175.3457209824
 31
0.0
  0
LINE
  5
281
330
1F
100
AcDbEntity
  8
0
  6
PHANTOM
 62
     7
370
    18
100
AcDbLine
 10
193.4906133522
 20
175.3457209824
 30
0.0
 11
193.4906133522
 21
175.8454163959
 31
0.0
  0
ARC
  5
282
330
1F
100
AcDbEntity
  8
0
  6
PHANTOM
 62
     7
370
    18
100
AcDbCircle
 10
191.9922405904
 20
175.7955767972
 30
0.0
 40
0.5004094025776493
100
AcDbArc
 50
180.0816918483
 51
269.9183080599
  0
SPLINE
  5
283
330
1F
100
AcDbEntity
  8
0
  6
PHANTOM
 62
     7
370
    18
100
AcDbSpline
210
0.0
220
0.0
230
1.0
 70
     8
 71
     3
 72
    14
 73
    10
 74
     0
 42
0.00000001
 43
0.00000001
 40
0.0
 40
0.0
 40
0.0
 40
0.0
 40
0.2499999999999997
 40
0.2499999999999997
 40
0.4999999999999994
 40
0.4999999999999994
 40
0.7499999999999997
 40
0.7499999999999997
 40
1.0
 40
1.0
 40
1.0
 40
1.0
 10
211.6269444932057
 20
175.2951679049389
 30
0.0
 10
211.6857983320513
 20
175.2952395874256
 30
0.0
 10
211.749286927737
 20
175.3060363120519
 30
0.0
 10
211.8722247344689
 20
175.354818009303
 30
0.0
 10
211.9312940263555
 20
175.3929667849929
 30
0.0
 10
212.0288410261577
 20
175.4905137847936
 30
0.0
 10
212.0669898018481
 20
175.5495830766793
 30
0.0
 10
212.1157714990999
 20
175.6725208834094
 30
0.0
 10
212.1265682237265
 20
175.7360094790942
 30
0.0
 10
212.1266399062131
 20
175.7948633179389
 30
0.0
  0
LINE
  5
284
330
1F
100
AcDbEntity
  8
0
  6
PHANTOM
 62
     7
370
    18
100
AcDbLine
 10
210.0092814917
 20
177.362572009
 30
0.0
 11
209.9674373779
 21
179.759819973
 31
0.0
  0
ARC
  5
285
330
1F
100
AcDbEntity
  8
0
  6
PHANTOM
 62
     7
370
    18
100
AcDbCircle
 10
210.1174145375
 20
175.4615567655
 30
0.0
 40
4.300878950750087
100
AcDbArc
 50
88.0016177965
 51
91.9983823901
  0
LINE
  5
286
330
1F
100
AcDbEntity
  8
0
  6
PHANTOM
 62
     7
370
    18
100
AcDbLine
 10
193.6510342261
 20
179.7598199729
 30
0.0
 11
193.6091901126
 21
177.362572009
 31
0.0
  0
LINE
  5
287
330
1F
100
AcDbEntity
  8
0
  6
PHANTOM
 62
     7
370
    18
100
AcDbLine
 10
209.9674373779
 20
179.759819973
 30
0.0
 11
209.4092358034
 21
179.759819973
 31
0.0
  0
LINE
  5
288
330
1F
100
AcDbEntity
  8
0
  6
PHANTOM
 62
     7
370
    18
100
AcDbLine
 10
194.2092358009
 20
179.7598199729
 30
0.0
 11
193.6510342261
 21
179.7598199729
 31
0.0
  0
ARC
  5
289
330
1F
100
AcDbEntity
  8
0
  6
PHANTOM
 62
     7
370
    18
100
AcDbCircle
 10
193.5010570643
 20
175.4615574671
 30
0.0
 40
4.300878249621416
100
AcDbArc
 50
88.001617254
 51
91.9983824987
  0
LWPOLYLINE
  5
28A
330
1F
100
AcDbEntity
  8
0
  6
PHANTOM
 62
     7
370
    18
100
AcDbPolyline
 90
        9
 70
   128
 43
0.0
 10
193.6510342292
 20
179.9045841107
 10
193.5928347652
 20
179.902495645
 10
193.536847172
 20
179.8947858065
 10
193.4851992582
 20
179.8817476077
 10
193.4398539027
 20
179.8638765653
 10
193.4025344559
 20
179.8418518683
 10
193.3746592434
 20
179.8165105654
 10
193.3572876627
 20
179.7888157529
 10
193.351079921
 20
179.7598199735
  0
LINE
  5
28B
330
1F
100
AcDbEntity
  8
0
  6
PHANTOM
 62
     7
370
    18
100
AcDbLine
 10
193.6510342261
 20
179.7598199729
 30
0.0
 11
193.6510342292
 21
179.9045841107
 31
0.0
  0
LINE
  5
28C
330
1F
100
AcDbEntity
  8
0
  6
PHANTOM
 62
     7
370
    18
100
AcDbLine
 10
209.9674373727
 20
179.9045841103
 30
0.0
 11
209.9674373779
 21
179.759819973
 31
0.0
  0
LWPOLYLINE
  5
28D
330
1F
100
AcDbEntity
  8
0
  6
PHANTOM
 62
     7
370
    18
100
AcDbPolyline
 90
        9
 70
   128
 43
0.0
 10
210.2673916831
 20
179.7598199734
 10
210.2611839407
 20
179.7888157817
 10
210.2438123594
 20
179.8165106205
 10
210.2159371462
 20
179.8418519476
 10
210.1786176988
 20
179.8638766656
 10
210.1332723426
 20
179.8817477252
 10
210.0816244282
 20
179.8947859367
 10
210.0256368345
 20
179.9024957829
 10
209.9674373727
 20
179.9045841103
  0
LINE
  5
28E
330
1F
100
AcDbEntity
  8
0
  6
PHANTOM
 62
     7
370
    18
100
AcDbLine
 10
193.6510342292
 20
179.9045841107
 30
0.0
 11
194.2092358009
 21
179.9045841107
 31
0.0
  0
LINE
  5
28F
330
1F
100
AcDbEntity
  8
0
  6
PHANTOM
 62
     7
370
    18
100
AcDbLine
 10
209.4092358034
 20
179.9045841103
 30
0.0
 11
209.9674373727
 21
179.9045841103
 31
0.0
  0
LINE
  5
290
330
1F
100
AcDbEntity
  8
0
  6
PHANTOM
 62
     7
370
    18
100
AcDbLine
 10
209.9550794054
 20
180.6125720101
 30
0.0
 11
209.9674373727
 21
179.9045841103
 31
0.0
  0
LINE
  5
291
330
1F
100
AcDbEntity
  8
0
  6
PHANTOM
 62
     7
370
    18
100
AcDbLine
 10
193.6510342292
 20
179.9045841107
 30
0.0
 11
193.6633922043
 21
180.612571889
 31
0.0
  0
LINE
  5
292
330
1F
100
AcDbEntity
  8
0
  6
PHANTOM
 62
     7
370
    18
100
AcDbLine
 10
193.6633922043
 20
180.612571889
 30
0.0
 11
194.209235801
 21
180.6125718931
 31
0.0
  0
LINE
  5
293
330
1F
100
AcDbEntity
  8
0
  6
PHANTOM
 62
     7
370
    18
100
AcDbLine
 10
209.4092358034
 20
180.6125720061
 30
0.0
 11
209.9550794054
 21
180.6125720101
 31
0.0
  0
LWPOLYLINE
  5
294
330
1F
100
AcDbEntity
  8
0
  6
PHANTOM
 62
     7
370
    18
100
AcDbPolyline
 90
        9
 70
   128
 43
0.0
 10
193.3634378934
 20
180.467807731
 10
193.3696456359
 20
180.4968035392
 10
193.3870172173
 20
180.524498378
 10
193.4148924305
 20
180.5498397051
 10
193.452211878
 20
180.5718644232
 10
193.4975572341
 20
180.5897354829
 10
193.5492051486
 20
180.6027736945
 10
193.6051927422
 20
180.6104835408
 10
193.6633922043
 20
180.612571889
  0
LWPOLYLINE
  5
295
330
1F
100
AcDbEntity
  8
0
  6
PHANTOM
 62
     7
370
    18
100
AcDbPolyline
 90
        9
 70
   128
 43
0.0
 10
209.9550794054
 20
180.6125720101
 10
210.0132788684
 20
180.6104835413
 10
210.0692664607
 20
180.6027736946
 10
210.1209143738
 20
180.5897354827
 10
210.1662597286
 20
180.5718644229
 10
210.203579175
 20
180.5498397049
 10
210.2314543873
 20
180.524498378
 10
210.2488259681
 20
180.4968035394
 10
210.2550337109
 20
180.467807731
  0
LINE
  5
296
330
1F
100
AcDbEntity
  8
0
  6
PHANTOM
 62
     7
370
    18
100
AcDbLine
 10
212.1266399062
 20
175.794863318
 30
0.0
 11
212.3211415734
 21
175.6003616513
 31
0.0
  0
LINE
  5
297
330
1F
100
AcDbEntity
  8
0
  6
PHANTOM
 62
     7
370
    18
100
AcDbLine
 10
191.2973300304
 20
175.6003616511
 30
0.0
 11
191.4918316965
 21
175.7948633179
 31
0.0
  0
LINE
  5
298
330
1F
100
AcDbEntity
  8
0
  6
PHANTOM
 62
     7
370
    18
100
AcDbLine
 10
209.9550794054
 20
180.6125720101
 30
0.0
 11
209.9550794022
 21
180.7625720089
 31
0.0
  0
LINE
  5
299
330
1F
100
AcDbEntity
  8
0
  6
PHANTOM
 62
     7
370
    18
100
AcDbLine
 10
193.6633922043
 20
180.612571889
 30
0.0
 11
193.6633922022
 21
180.762572009
 31
0.0
  0
LINE
  5
29A
330
1F
100
AcDbEntity
  8
9
  6
CENTERX2
 62
     7
370
    18
100
AcDbLine
 10
201.8092358025
 20
237.7319059005
 30
0.0
 11
201.8092358008
 21
170.9034943403
 31
0.0
  0
SPLINE
  5
29B
330
1F
100
AcDbEntity
  8
0
  6
Continuous
 62
     7
370
    25
100
AcDbSpline
210
0.0
220
0.0
230
1.0
 70
     8
 71
     3
 72
    11
 73
     7
 74
     0
 42
0.00000001
 43
0.00000001
 40
0.0
 40
0.0
 40
0.0
 40
0.0
 40
0.2428717428052834
 40
0.4960268346979143
 40
0.7514857799904465
 40
0.9999999999999999
 40
0.9999999999999999
 40
0.9999999999999999
 40
0.9999999999999999
 10
243.9820983639619
 20
125.9413979228071
 30
0.0
 10
243.9369391427485
 20
125.9437148800008
 30
0.0
 10
243.8447086292392
 20
125.9484468958774
 30
0.0
 10
243.7109128533698
 20
125.8976291629304
 30
0.0
 10
243.5946447602514
 20
125.8069892313001
 30
0.0
 10
243.5468956744027
 20
125.7184434382446
 30
0.0
 10
243.5233501214987
 20
125.6747806200406
 30
0.0
  0
LINE
  5
29C
330
1F
100
AcDbEntity
  8
0
  6
Continuous
 62
     7
370
    25
100
AcDbLine
 10
302.0035618906
 20
143.7153649539
 30
0.0
 11
287.6544274479
 21
129.8585668943
 31
0.0
  0
LINE
  5
29D
330
1F
100
AcDbEntity
  8
0
  6
Continuous
 62
     7
370
    25
100
AcDbLine
 10
283.000216366
 20
127.9781435563
 30
0.0
 11
244.020266474
 21
127.9781435563
 31
0.0
  0
SPLINE
  5
29E
330
1F
100
AcDbEntity
  8
0
  6
Continuous
 62
     7
370
    25
100
AcDbSpline
210
0.0
220
0.0
230
1.0
 70
     8
 71
     3
 72
    11
 73
     7
 74
     0
 42
0.00000001
 43
0.00000001
 40
0.0
 40
0.0
 40
0.0
 40
0.0
 40
0.2405540736908819
 40
0.4999999997495662
 40
0.7594459259649654
 40
1.0
 40
1.0
 40
1.0
 40
1.0
 10
244.0529022919624
 20
127.9781435563268
 30
0.0
 10
243.9913037820912
 20
127.9714842286592
 30
0.0
 10
243.8632691392037
 20
127.9576425847366
 30
0.0
 10
243.6971576181295
 20
127.8465279501929
 30
0.0
 10
243.5803134634133
 20
127.684395464323
 30
0.0
 10
243.5620119069128
 20
127.5569218829556
 30
0.0
 10
243.5532068789624
 20
127.4955933043268
 30
0.0
  0
SPLINE
  5
29F
330
1F
100
AcDbEntity
  8
0
  6
Continuous
 62
     7
370
    25
100
AcDbSpline
210
0.0
220
0.0
230
1.0
 70
     8
 71
     3
 72
    11
 73
     7
 74
     0
 42
0.00000001
 43
0.00000001
 40
0.0
 40
0.0
 40
0.0
 40
0.0
 40
0.2405540738433399
 40
0.5000000000000027
 40
0.7594459261566476
 40
1.0
 40
1.0
 40
1.0
 40
1.0
 10
302.6871723839624
 20
143.7046961433268
 30
0.0
 10
302.6382361664644
 20
143.7426957443828
 30
0.0
 10
302.5365205382147
 20
143.8216792353893
 30
0.0
 10
302.3398431989624
 20
143.8571408150488
 30
0.0
 10
302.14316585971
 20
143.8216792353893
 30
0.0
 10
302.0414502314603
 20
143.7426957443828
 30
0.0
 10
301.9925140139624
 20
143.7046961433268
 30
0.0
  0
LINE
  5
2A0
330
1F
100
AcDbEntity
  8
0
  6
Continuous
 62
     7
370
    25
100
AcDbLine
 10
277.500216366
 20
125.1781435563
 30
0.0
 11
277.500216366
 21
125.9781435563
 31
0.0
  0
LINE
  5
2A1
330
1F
100
AcDbEntity
  8
0
  6
Continuous
 62
     7
370
    25
100
AcDbLine
 10
275.000216366
 20
125.9781435563
 30
0.0
 11
275.000216366
 21
125.1781435563
 31
0.0
  0
SPLINE
  5
2A2
330
1F
100
AcDbEntity
  8
0
  6
Continuous
 62
     7
370
    25
100
AcDbSpline
210
0.0
220
0.0
230
1.0
 70
     8
 71
     3
 72
    15
 73
    11
 74
     0
 42
0.00000001
 43
0.00000001
 40
0.0
 40
0.0
 40
0.0
 40
0.0
 40
0.0963404863267429
 40
0.2022750588330446
 40
0.3177026870993128
 40
0.4420608729595738
 40
0.574162000358786
 40
0.7124925062030042
 40
0.8551336086087185
 40
0.9999999999999999
 40
0.9999999999999999
 40
0.9999999999999999
 40
0.9999999999999999
 10
277.1002163659624
 20
124.9781435563268
 30
0.0
 10
277.1151989284533
 20
124.9789699746745
 30
0.0
 10
277.1466560948522
 20
124.9807051104029
 30
0.0
 10
277.2076897881914
 20
124.9929562239683
 30
0.0
 10
277.2753081688891
 20
125.0115898596458
 30
0.0
 10
277.3446049695173
 20
125.0366627756482
 30
0.0
 10
277.4081890956172
 20
125.0670865820965
 30
0.0
 10
277.4591336049828
 20
125.1016709336859
 30
0.0
 10
277.4935255860565
 20
125.1391801153097
 30
0.0
 10
277.4979746275648
 20
125.1650888985648
 30
0.0
 10
277.5002163659623
 20
125.1781435563268
 30
0.0
  0
SPLINE
  5
2A3
330
1F
100
AcDbEntity
  8
0
  6
Continuous
 62
     7
370
    25
100
AcDbSpline
210
0.0
220
0.0
230
1.0
 70
     8
 71
     3
 72
    15
 73
    11
 74
     0
 42
0.00000001
 43
0.00000001
 40
0.0
 40
0.0
 40
0.0
 40
0.0
 40
0.1448663913912792
 40
0.2875074937969989
 40
0.4258379996412081
 40
0.5579391270404469
 40
0.6822973129006906
 40
0.7977249411669565
 40
0.9036595136732672
 40
1.0
 40
1.0
 40
1.0
 40
1.0
 10
275.0002163659624
 20
125.1781435563268
 30
0.0
 10
275.00245810436
 20
125.1650888985648
 30
0.0
 10
275.0069071458681
 20
125.1391801153097
 30
0.0
 10
275.041299126942
 20
125.1016709336859
 30
0.0
 10
275.0922436363076
 20
125.0670865820965
 30
0.0
 10
275.1558277624075
 20
125.0366627756482
 30
0.0
 10
275.2251245630356
 20
125.0115898596458
 30
0.0
 10
275.2927429437333
 20
124.9929562239683
 30
0.0
 10
275.3537766370724
 20
124.9807051104029
 30
0.0
 10
275.3852338034714
 20
124.9789699746745
 30
0.0
 10
275.4002163659624
 20
124.9781435563268
 30
0.0
  0
LINE
  5
2A4
330
1F
100
AcDbEntity
  8
0
  6
Continuous
 62
     7
370
    25
100
AcDbLine
 10
245.4328122615
 20
124.0479425474
 30
0.0
 11
245.2383105952
 21
118.4781435563
 31
0.0
  0
LINE
  5
2A5
330
1F
100
AcDbEntity
  8
0
  6
Continuous
 62
     7
370
    25
100
AcDbLine
 10
243.7380060083
 20
118.4781435563
 30
0.0
 11
245.2383105952
 21
118.4781435563
 31
0.0
  0
LINE
  5
2A6
330
1F
100
AcDbEntity
  8
0
  6
Continuous
 62
     7
370
    25
100
AcDbLine
 10
243.7380060083
 20
118.4781435563
 30
0.0
 11
243.2383105949
 21
118.4781435563
 31
0.0
  0
LINE
  5
2A7
330
1F
100
AcDbEntity
  8
0
  6
Continuous
 62
     7
370
    25
100
AcDbLine
 10
243.2383105949
 20
118.4781435563
 30
0.0
 11
243.4328122618
 21
124.0479425485
 31
0.0
  0
LINE
  5
2A8
330
1F
100
AcDbEntity
  8
0
  6
Continuous
 62
     7
370
    25
100
AcDbLine
 10
245.500216366
 20
125.9781435563
 30
0.0
 11
243.9830607529
 21
125.9781435563
 31
0.0
  0
SPLINE
  5
2A9
330
1F
100
AcDbEntity
  8
0
  6
Continuous
 62
     7
370
    25
100
AcDbSpline
210
0.0
220
0.0
230
1.0
 70
     8
 71
     3
 72
     9
 73
     5
 74
     0
 42
0.00000001
 43
0.00000001
 40
0.0
 40
0.0
 40
0.0
 40
0.0
 40
0.0384969173603278
 40
1.0
 40
1.0
 40
1.0
 40
1.0
 10
243.9820344719537
 20
125.9401487923003
 30
0.0
 10
243.9820707418077
 20
125.9415211128296
 30
0.0
 10
243.9830128913734
 20
125.9771686561504
 30
0.0
 10
243.9830372918392
 20
125.9776656730478
 30
0.0
 10
243.9830607529624
 20
125.9781435563268
 30
0.0
  0
LINE
  5
2AA
330
1F
100
AcDbEntity
  8
0
  6
Continuous
 62
     7
370
    25
100
AcDbLine
 10
245.500216366
 20
125.9781435563
 30
0.0
 11
245.4328122615
 21
124.0479425473
 31
0.0
  0
SPLINE
  5
2AB
330
1F
100
AcDbEntity
  8
0
  6
Continuous
 62
     7
370
    25
100
AcDbSpline
210
0.0
220
0.0
230
1.0
 70
    24
 71
     3
 72
    20
 73
    16
 74
     0
 42
0.00000001
 43
0.00000001
 40
0.0
 40
0.0
 40
0.0
 40
0.0
 40
0.0416862272293194
 40
0.0833402136810133
 40
0.1251325655916753
 40
0.1875635483634299
 40
0.2502327476207886
 40
0.3751775487021927
 40
0.5001087022217999
 40
0.6250253392624548
 40
0.749928705123544
 40
0.8123285909006301
 40
0.8749667838917587
 40
0.9374237822718989
 40
1.0
 40
1.0
 40
1.0
 40
1.0
 10
243.4328122618503
 20
124.0479425493307
 30
0.0
 10
243.4339275789007
 20
124.0798810508565
 30
0.0
 10
243.4361573503981
 20
124.1437333521735
 30
0.0
 10
243.4394821295838
 20
124.2389425709759
 30
0.0
 10
243.4433179376964
 20
124.3487857435564
 30
0.0
 10
243.4476279778986
 20
124.4722091463572
 30
0.0
 10
243.453877981032
 20
124.6511858189791
 30
0.0
 10
243.4612146842879
 20
124.8612815115258
 30
0.0
 10
243.4688954356686
 20
125.081229453312
 30
0.0
 10
243.4751853865479
 20
125.2613500797019
 30
0.0
 10
243.4790717195838
 20
125.3726400967815
 30
0.0
 10
243.4812868700747
 20
125.4360737072544
 30
0.0
 10
243.4824747119847
 20
125.4700890490233
 30
0.0
 10
243.4832274148012
 20
125.4916436375085
 30
0.0
 10
243.4833193358552
 20
125.4942759120892
 30
0.0
 10
243.4833653402055
 20
125.4955933043183
 30
0.0
  0
ARC
  5
2AC
330
1F
100
AcDbEntity
  8
0
  6
Continuous
 62
     7
370
    25
100
AcDbCircle
 10
243.983060753
 20
125.4781435563
 30
0.0
 40
0.5
100
AcDbArc
 50
90.0000000118
 51
121.896909996
  0
ARC
  5
2AD
330
1F
100
AcDbEntity
  8
0
  6
Continuous
 62
     7
370
    25
100
AcDbCircle
 10
243.983060753
 20
125.4781435563
 30
0.0
 40
0.4999999999999993
100
AcDbArc
 50
138.3664164578
 51
178.0000000258
  0
LINE
  5
2AE
330
1F
100
AcDbEntity
  8
0
  6
Continuous
 62
     7
370
    25
100
AcDbLine
 10
245.2383105952
 20
118.4781435563
 30
0.0
 11
247.8054520873
 21
118.4781435563
 31
0.0
  0
LINE
  5
2AF
330
1F
100
AcDbEntity
  8
0
  6
Continuous
 62
     7
370
    25
100
AcDbLine
 10
245.4408872217
 20
124.2791791513
 30
0.0
 11
247.89746433
 21
124.2362994374
 31
0.0
  0
LINE
  5
2B0
330
1F
100
AcDbEntity
  8
0
  6
Continuous
 62
     7
370
    25
100
AcDbLine
 10
248.7502163671
 20
118.6802161512
 30
0.0
 11
248.4698316079
 21
118.5183359351
 31
0.0
  0
ARC
  5
2B1
330
1F
100
AcDbEntity
  8
0
  6
Continuous
 62
     7
370
    25
100
AcDbCircle
 10
248.319831608
 20
118.7781435562
 30
0.0
 40
0.2999999999629342
100
AcDbArc
 50
269.9999998004
 51
299.9999999881
  0
LINE
  5
2B2
330
1F
100
AcDbEntity
  8
0
  6
Continuous
 62
     7
370
    25
100
AcDbLine
 10
247.8054520873
 20
118.4781435563
 30
0.0
 11
248.319831607
 21
118.4781435563
 31
0.0
  0
ARC
  5
2B3
330
1F
100
AcDbEntity
  8
0
  6
Continuous
 62
     7
370
    25
100
AcDbCircle
 10
247.892228608
 20
123.9363451293
 30
0.0
 40
0.29999999991213
100
AcDbArc
 50
60.0000310181
 51
88.9999999864
  0
LINE
  5
2B4
330
1F
100
AcDbEntity
  8
0
  6
Continuous
 62
     7
370
    25
100
AcDbLine
 10
248.7502163671
 20
123.7873958268
 30
0.0
 11
248.0422284673
 21
124.1961528316
 31
0.0
  0
ARC
  5
2B5
330
1F
100
AcDbEntity
  8
0
  6
Continuous
 62
     7
370
    25
100
AcDbCircle
 10
248.6002163657
 20
123.5275882066
 30
0.0
 40
0.3000000002320178
100
AcDbArc
 50
359.9999999537
 51
59.9999996636
  0
ARC
  5
2B6
330
1F
100
AcDbEntity
  8
0
  6
Continuous
 62
     7
370
    25
100
AcDbCircle
 10
248.6002163657
 20
118.9400237714
 30
0.0
 40
0.3000000001546823
100
AcDbArc
 50
300.0000003221
 51
0.0000000255
  0
LINE
  5
2B7
330
1F
100
AcDbEntity
  8
0
  6
Continuous
 62
     7
370
    25
100
AcDbLine
 10
248.9002163659
 20
123.5275882063
 30
0.0
 11
248.9002163658
 21
118.9400237715
 31
0.0
  0
LINE
  5
2B8
330
1F
100
AcDbEntity
  8
0
  6
Continuous
 62
     7
370
    25
100
AcDbLine
 10
303.4335630723
 20
142.3159738606
 30
0.0
 11
301.6226949438
 21
140.5672388362
 31
0.0
  0
LINE
  5
2B9
330
1F
100
AcDbEntity
  8
0
  6
Continuous
 62
     7
370
    25
100
AcDbLine
 10
302.9481002571
 20
143.4527210255
 30
0.0
 11
303.5474724573
 21
142.8739140194
 31
0.0
  0
SPLINE
  5
2BA
330
1F
100
AcDbEntity
  8
0
  6
Continuous
 62
     7
370
    25
100
AcDbSpline
210
0.0
220
0.0
230
1.0
 70
     8
 71
     3
 72
    12
 73
     8
 74
     0
 42
0.00000001
 43
0.00000001
 40
0.0
 40
0.0
 40
0.0
 40
0.0
 40
0.5000000000000007
 40
0.5000000000000007
 40
0.7500000000000003
 40
0.7500000000000003
 40
1.0
 40
1.0
 40
1.0
 40
1.0
 10
303.5474724573209
 20
142.873914019436
 30
0.0
 10
303.5822321880233
 20
142.8403469377531
 30
0.0
 10
303.5899474224992
 20
142.7758217303504
 30
0.0
 10
303.5617307418448
 20
142.6345253597454
 30
0.0
 10
303.5454232985163
 20
142.5796384156914
 30
0.0
 10
303.4995894514478
 20
142.4574842909882
 30
0.0
 10
303.4700482611063
 20
142.3899629360639
 30
0.0
 10
303.4335630731634
 20
142.3159738608353
 30
0.0
  0
LINE
  5
2BB
330
1F
100
AcDbEntity
  8
0
  6
Continuous
 62
     7
370
    25
100
AcDbLine
 10
289.0437441877
 20
128.4198872927
 30
0.0
 11
301.6226949433
 21
140.5672388367
 31
0.0
  0
LINE
  5
2BC
330
1F
100
AcDbEntity
  8
0
  6
Continuous
 62
     7
370
    25
100
AcDbLine
 10
245.5002163665
 20
125.9781435563
 30
0.0
 11
283.000216366
 21
125.9781435563
 31
0.0
  0
LINE
  5
2BD
330
1F
100
AcDbEntity
  8
0
  6
Continuous
 62
     7
370
    25
100
AcDbLine
 10
243.4833653404
 20
125.4955933086
 30
0.0
 11
243.5224487233
 21
126.6147949596
 31
0.0
  0
ARC
  5
2BE
330
1F
100
AcDbEntity
  8
0
  6
Continuous
 62
     7
370
    25
100
AcDbCircle
 10
283.000216366
 20
134.6781435563
 30
0.0
 40
8.700000000000003
100
AcDbArc
 50
270.0
 51
313.9999999909
  0
SPLINE
  5
2BF
330
1F
100
AcDbEntity
  8
0
  6
Continuous
 62
     7
370
    25
100
AcDbSpline
210
0.0
220
0.0
230
1.0
 70
     8
 71
     3
 72
     8
 73
     4
 74
     0
 42
0.00000001
 43
0.00000001
 40
0.0
 40
0.0
 40
0.0
 40
0.0
 40
1.0
 40
1.0
 40
1.0
 40
1.0
 10
243.5532068789624
 20
127.4955933043268
 30
0.0
 10
243.5532068789623
 20
127.4955933043239
 30
0.0
 10
243.5428493249622
 20
127.1989917573239
 30
0.0
 10
243.5224487229624
 20
126.6147949633268
 30
0.0
  0
SPLINE
  5
2C0
330
1F
100
AcDbEntity
  8
0
  6
Continuous
 62
     7
370
    25
100
AcDbSpline
210
0.0
220
0.0
230
1.0
 70
     8
 71
     3
 72
    14
 73
    10
 74
     0
 42
0.00000001
 43
0.00000001
 40
0.0
 40
0.0
 40
0.0
 40
0.0
 40
0.25
 40
0.25
 40
0.5
 40
0.5
 40
0.75
 40
0.75
 40
1.0
 40
1.0
 40
1.0
 40
1.0
 10
287.6544274479277
 20
129.8585668939718
 30
0.0
 10
287.3535199154574
 20
129.5679838675576
 30
0.0
 10
287.0195796401613
 20
129.300442828911
 30
0.0
 10
286.2990703300387
 20
128.8307074714146
 30
0.0
 10
285.9125859100939
 20
128.6286344555377
 30
0.0
 10
285.1075751736461
 20
128.3033890059967
 30
0.0
 10
284.6891898362129
 20
128.1802735315739
 30
0.0
 10
283.844593214869
 20
128.0176650466278
 30
0.0
 10
283.4185270619361
 20
127.9781435564837
 30
0.0
 10
283.0002163659623
 20
127.9781435564837
 30
0.0
  0
SPLINE
  5
2C1
330
1F
100
AcDbEntity
  8
0
  6
Continuous
 62
     7
370
    25
100
AcDbSpline
210
0.0
220
0.0
230
1.0
 70
     8
 71
     3
 72
     8
 73
     4
 74
     0
 42
0.00000001
 43
0.00000001
 40
0.0
 40
0.0
 40
0.0
 40
0.0
 40
1.0
 40
1.0
 40
1.0
 40
1.0
 10
302.9481002569623
 20
143.4527210253268
 30
0.0
 10
302.7745123349624
 20
143.6203529333268
 30
0.0
 10
302.6871723839624
 20
143.7046961433268
 30
0.0
 10
302.6871723839624
 20
143.7046961433268
 30
0.0
  0
LINE
  5
2C2
330
1F
100
AcDbEntity
  8
0
  6
Continuous
 62
     7
370
    25
100
AcDbLine
 10
283.000216366
 20
123.9512924573
 30
0.0
 11
283.000216366
 21
124.9781435563
 31
0.0
  0
LINE
  5
2C3
330
1F
100
AcDbEntity
  8
0
  6
Continuous
 62
     7
370
    25
100
AcDbLine
 10
279.000216366
 20
123.9512924573
 30
0.0
 11
279.000216366
 21
124.9781435563
 31
0.0
  0
LINE
  5
2C4
330
1F
100
AcDbEntity
  8
0
  6
Continuous
 62
     7
370
    25
100
AcDbLine
 10
279.000216366
 20
124.9781435563
 30
0.0
 11
283.000216366
 21
124.9781435563
 31
0.0
  0
LINE
  5
2C5
330
1F
100
AcDbEntity
  8
0
  6
Continuous
 62
     7
370
    25
100
AcDbLine
 10
283.000216366
 20
122.4781435563
 30
0.0
 11
279.000216366
 21
122.4781435563
 31
0.0
  0
LINE
  5
2C6
330
1F
100
AcDbEntity
  8
0
  6
Continuous
 62
     7
370
    25
100
AcDbLine
 10
279.000216366
 20
123.9512924573
 30
0.0
 11
279.000216366
 21
122.4781435563
 31
0.0
  0
LINE
  5
2C7
330
1F
100
AcDbEntity
  8
0
  6
Continuous
 62
     7
370
    25
100
AcDbLine
 10
283.000216366
 20
122.4781435563
 30
0.0
 11
283.000216366
 21
123.9512924573
 31
0.0
  0
LINE
  5
2C8
330
1F
100
AcDbEntity
  8
0
  6
Continuous
 62
     7
370
    25
100
AcDbLine
 10
279.000216366
 20
125.6781435563
 30
0.0
 11
279.000216366
 21
125.9781435563
 31
0.0
  0
LINE
  5
2C9
330
1F
100
AcDbEntity
  8
0
  6
Continuous
 62
     7
370
    25
100
AcDbLine
 10
283.000216366
 20
125.6781435563
 30
0.0
 11
283.0002163676
 21
125.9781435563
 31
0.0
  0
LINE
  5
2CA
330
1F
100
AcDbEntity
  8
0
  6
Continuous
 62
     7
370
    25
100
AcDbLine
 10
279.000216366
 20
125.6781435563
 30
0.0
 11
279.000216366
 21
124.9781435563
 31
0.0
  0
LINE
  5
2CB
330
1F
100
AcDbEntity
  8
0
  6
Continuous
 62
     7
370
    25
100
AcDbLine
 10
283.000216366
 20
124.9781435563
 30
0.0
 11
283.000216366
 21
125.6781435563
 31
0.0
  0
LINE
  5
2CC
330
1F
100
AcDbEntity
  8
0
  6
Continuous
 62
     7
370
    25
100
AcDbLine
 10
277.100216366
 20
124.9781435563
 30
0.0
 11
275.400216366
 21
124.9781435563
 31
0.0
  0
LINE
  5
2CD
330
1F
100
AcDbEntity
  8
0
  6
Continuous
 62
     7
370
    25
100
AcDbLine
 10
245.4757718271
 20
125.2781435563
 30
0.0
 11
247.5002163659
 21
125.9781435564
 31
0.0
  0
LINE
  5
2CE
330
1F
100
AcDbEntity
  8
0
  6
PHANTOM
 62
     7
370
    18
100
AcDbLine
 10
243.932507675
 20
124.0479425493
 30
0.0
 11
243.7380060083
 21
118.4781435563
 31
0.0
  0
LINE
  5
2CF
330
1F
100
AcDbEntity
  8
0
  6
PHANTOM
 62
     7
370
    18
100
AcDbLine
 10
245.4328122615
 20
124.0479425474
 30
0.0
 11
243.9325076755
 21
124.0479425488
 31
0.0
  0
SPLINE
  5
2D0
330
1F
100
AcDbEntity
  8
0
  6
PHANTOM
 62
     7
370
    18
100
AcDbSpline
210
0.0
220
0.0
230
1.0
 70
     8
 71
     3
 72
    14
 73
    10
 74
     0
 42
0.00000001
 43
0.00000001
 40
0.0
 40
0.0
 40
0.0
 40
0.0
 40
0.2499999999999997
 40
0.2499999999999997
 40
0.4999999999999994
 40
0.4999999999999994
 40
0.7499999999999997
 40
0.7499999999999997
 40
1.0
 40
1.0
 40
1.0
 40
1.0
 10
243.4328122619401
 20
124.0479425486903
 30
0.0
 10
243.4328839444268
 20
124.0499952668758
 30
0.0
 10
243.4436806690531
 20
124.0518353076021
 30
0.0
 10
243.4924623663043
 20
124.0544248960539
 30
0.0
 10
243.5306111419941
 20
124.0551554565803
 30
0.0
 10
243.6281581417948
 20
124.0551554565389
 30
0.0
 10
243.6872274336806
 20
124.0544248959712
 30
0.0
 10
243.8101652404106
 20
124.0518353074465
 30
0.0
 10
243.8736538360954
 20
124.0499952666886
 30
0.0
 10
243.9325076749401
 20
124.0479425484781
 30
0.0
  0
SPLINE
  5
2D1
330
1F
100
AcDbEntity
  8
0
  6
PHANTOM
 62
     7
370
    18
100
AcDbSpline
210
0.0
220
0.0
230
1.0
 70
     8
 71
     3
 72
    15
 73
    11
 74
     0
 42
0.00000001
 43
0.00000001
 40
0.0
 40
0.0
 40
0.0
 40
0.0
 40
0.1738158047502037
 40
0.32698136842047
 40
0.4594673572711336
 40
0.5712486688730881
 40
0.6706802192771961
 40
0.7684502713218994
 40
0.8645595111858931
 40
1.0
 40
1.0
 40
1.0
 40
1.0
 10
243.9325076749624
 20
124.0479425493286
 30
0.0
 10
243.9365426782084
 20
124.203361022229
 30
0.0
 10
243.9441333048771
 20
124.4957334277178
 30
0.0
 10
243.9541146740217
 20
124.8812616674982
 30
0.0
 10
243.9621457025534
 20
125.1835017508109
 30
0.0
 10
243.9683101798005
 20
125.4139168346966
 30
0.0
 10
243.9729524352155
 20
125.5929958084233
 30
0.0
 10
243.9766227449174
 20
125.7341058214772
 30
0.0
 10
243.9799642443749
 20
125.862316979656
 30
0.0
 10
243.9812704389581
 20
125.9114243788217
 30
0.0
 10
243.9820344719537
 20
125.9401487923003
 30
0.0
  0
LINE
  5
2D2
330
1F
100
AcDbEntity
  8
0
  6
PHANTOM
 62
     7
370
    18
100
AcDbLine
 10
248.605452088
 20
123.5275882074
 30
0.0
 11
247.8974643304
 21
123.9363451291
 31
0.0
  0
LINE
  5
2D3
330
1F
100
AcDbEntity
  8
0
  6
PHANTOM
 62
     7
370
    18
100
AcDbLine
 10
248.6054520892
 20
118.9400237716
 30
0.0
 11
248.605452088
 21
123.5275882074
 31
0.0
  0
LINE
  5
2D4
330
1F
100
AcDbEntity
  8
0
  6
PHANTOM
 62
     7
370
    18
100
AcDbLine
 10
247.8054520873
 20
118.4781435563
 30
0.0
 11
248.6054520892
 21
118.9400237716
 31
0.0
  0
LINE
  5
2D5
330
1F
100
AcDbEntity
  8
0
  6
PHANTOM
 62
     7
370
    18
100
AcDbLine
 10
247.8974643304
 20
123.9363451291
 30
0.0
 11
245.4304189672
 21
123.979407566
 31
0.0
  0
ARC
  5
2D6
330
1F
100
AcDbEntity
  8
0
  6
PHANTOM
 62
     7
370
    18
100
AcDbCircle
 10
243.5992011467
 20
124.0863222763
 30
0.0
 40
4.300878926652592
100
AcDbArc
 50
358.0016177645
 51
1.9983824221
  0
ARC
  5
2D7
330
1F
100
AcDbEntity
  8
0
  6
PHANTOM
 62
     7
370
    18
100
AcDbCircle
 10
244.3925201909
 20
116.4223516936
 30
0.0
 40
4.907898518949259
100
AcDbArc
 50
27.3901465168
 51
30.86277953
  0
ARC
  5
2D8
330
1F
100
AcDbEntity
  8
0
  6
PHANTOM
 62
     7
370
    18
100
AcDbCircle
 10
243.6847908172
 20
126.4538701579
 30
0.0
 40
4.907601287796323
100
AcDbArc
 50
329.137146679
 51
332.6099901134
  0
ARC
  5
2D9
330
1F
100
AcDbEntity
  8
0
  6
PHANTOM
 62
     7
370
    18
100
AcDbCircle
 10
244.3925218108
 20
126.0452594146
 30
0.0
 40
4.907896680559321
100
AcDbArc
 50
329.1372194892
 51
332.6098537995
  0
LINE
  5
2DA
330
1F
100
AcDbEntity
  8
0
  6
PHANTOM
 62
     7
370
    18
100
AcDbLine
 10
248.605452088
 20
123.5275882074
 30
0.0
 11
248.9002163659
 21
123.5275882063
 31
0.0
  0
LINE
  5
2DB
330
1F
100
AcDbEntity
  8
0
  6
PHANTOM
 62
     7
370
    18
100
AcDbLine
 10
248.6054520892
 20
118.9400237716
 30
0.0
 11
248.9002163658
 21
118.9400237715
 31
0.0
  0
LINE
  5
2DC
330
1F
100
AcDbEntity
  8
0
  6
PHANTOM
 62
     7
370
    18
100
AcDbLine
 10
301.6226949433
 20
140.5672388367
 30
0.0
 11
301.1644470941
 21
141.0097636376
 31
0.0
  0
SPLINE
  5
2DD
330
1F
100
AcDbEntity
  8
0
  6
PHANTOM
 62
     7
370
    18
100
AcDbSpline
210
0.0
220
0.0
230
1.0
 70
     8
 71
     3
 72
    20
 73
    16
 74
     0
 42
0.00000001
 43
0.00000001
 40
0.0
 40
0.0
 40
0.0
 40
0.0
 40
0.125
 40
0.125
 40
0.25
 40
0.25
 40
0.375
 40
0.375
 40
0.5
 40
0.5
 40
0.75
 40
0.75
 40
0.875
 40
0.875
 40
1.0
 40
1.0
 40
1.0
 40
1.0
 10
301.1644470969624
 20
141.0097636403268
 30
0.0
 10
301.3076283689624
 20
141.1496481213268
 30
0.0
 10
301.4454613589623
 20
141.2900613933268
 30
0.0
 10
301.7109351242957
 20
141.5717267346601
 30
0.0
 10
301.8399319993624
 20
141.7146004805268
 30
0.0
 10
302.0787616569623
 20
141.9907678453268
 30
0.0
 10
302.1890236719624
 20
142.1243551123268
 30
0.0
 10
302.3920273332957
 20
142.3821608509934
 30
0.0
 10
302.4842000044624
 20
142.5058176458268
 30
0.0
 10
302.7237319294624
 20
142.8461836748268
 30
0.0
 10
302.839571870629
 20
143.0400187406601
 30
0.0
 10
302.9366244486291
 20
143.2531862806601
 30
0.0
 10
302.9568669966291
 20
143.3126845916601
 30
0.0
 10
302.9715247819624
 20
143.4035622863268
 30
0.0
 10
302.9662332929623
 20
143.4352101563268
 30
0.0
 10
302.9481002569623
 20
143.4527210253268
 30
0.0
  0
LINE
  5
2DE
330
1F
100
AcDbEntity
  8
0
  6
PHANTOM
 62
     7
370
    18
100
AcDbLine
 10
301.1644470972
 20
141.0097636399
 30
0.0
 11
288.6014889632
 21
128.8778559879
 31
0.0
  0
LINE
  5
2DF
330
1F
100
AcDbEntity
  8
0
  6
PHANTOM
 62
     7
370
    18
100
AcDbLine
 10
288.6014889632
 20
128.8778559879
 30
0.0
 11
289.0437441877
 21
128.4198872927
 31
0.0
  0
LINE
  5
2E0
330
1F
100
AcDbEntity
  8
0
  6
PHANTOM
 62
     7
370
    18
100
AcDbLine
 10
244.0221441277
 20
126.6147949545
 30
0.0
 11
243.9999117796
 21
125.9781435563
 31
0.0
  0
LINE
  5
2E1
330
1F
100
AcDbEntity
  8
0
  6
PHANTOM
 62
     7
370
    18
100
AcDbLine
 10
283.000216366
 20
126.6147949635
 30
0.0
 11
244.0221441277
 21
126.6147949545
 31
0.0
  0
LINE
  5
2E2
330
1F
100
AcDbEntity
  8
0
  6
PHANTOM
 62
     7
370
    18
100
AcDbLine
 10
283.000216366
 20
125.9781435563
 30
0.0
 11
283.000216366
 21
126.6147949635
 31
0.0
  0
ARC
  5
2E3
330
1F
100
AcDbEntity
  8
0
  6
PHANTOM
 62
     7
370
    18
100
AcDbCircle
 10
243.7722963633
 20
123.0302080305
 30
0.0
 40
3.593283640431148
100
AcDbArc
 50
86.0128996355
 51
93.9870983932
  0
ARC
  5
2E4
330
1F
100
AcDbEntity
  8
0
  6
PHANTOM
 62
     7
370
    18
100
AcDbCircle
 10
283.000216366
 20
134.6781435563
 30
0.0
 40
8.063348596273539
100
AcDbArc
 50
270.0
 51
314.0000000088
  0
LINE
  5
2E5
330
1F
100
AcDbEntity
  8
0
  6
PHANTOM
 62
     7
370
    18
100
AcDbLine
 10
300.8398325643
 20
141.345911829
 30
0.0
 11
301.1644470972
 21
141.0097636399
 31
0.0
  0
LINE
  5
2E6
330
1F
100
AcDbEntity
  8
0
  6
PHANTOM
 62
     7
370
    18
100
AcDbLine
 10
288.6014889632
 20
128.8778559879
 30
0.0
 11
288.276874428
 21
129.2140041781
 31
0.0
  0
LINE
  5
2E7
330
1F
100
AcDbEntity
  8
0
  6
PHANTOM
 62
     7
370
    18
100
AcDbLine
 10
300.8398325597
 20
141.3459118243
 30
0.0
 11
288.276874428
 21
129.2140041781
 31
0.0
  0
SPLINE
  5
2E8
330
1F
100
AcDbEntity
  8
0
  6
PHANTOM
 62
     7
370
    18
100
AcDbSpline
210
0.0
220
0.0
230
1.0
 70
     8
 71
     3
 72
    14
 73
    10
 74
     0
 42
0.00000001
 43
0.00000001
 40
0.0
 40
0.0
 40
0.0
 40
0.0
 40
0.2500000000000003
 40
0.2500000000000003
 40
0.5000000000000002
 40
0.5000000000000002
 40
0.7500000000000001
 40
0.7500000000000001
 40
1.0
 40
1.0
 40
1.0
 40
1.0
 10
243.52244872301
 20
126.6147949646917
 30
0.0
 10
243.5244083846906
 20
126.6709123327504
 30
0.0
 10
243.5368758894739
 20
126.7309019869346
 30
0.0
 10
243.5876988593421
 20
126.8462578356136
 30
0.0
 10
243.626187083811
 20
126.9012870268385
 30
0.0
 10
243.7230853185288
 20
126.9919035065966
 30
0.0
 10
243.7811965148419
 20
127.0272113528153
 30
0.0
 10
243.9019382364165
 20
127.0722979356686
 30
0.0
 10
243.9642261477044
 20
127.0822174255153
 30
0.0
 10
244.02214413701
 20
127.0820959377153
 30
0.0
  0
LINE
  5
2E9
330
1F
100
AcDbEntity
  8
0
  6
PHANTOM
 62
     7
370
    18
100
AcDbLine
 10
244.0221441277
 20
126.6147949545
 30
0.0
 11
244.022144137
 21
127.0820959366
 31
0.0
  0
SPLINE
  5
2EA
330
1F
100
AcDbEntity
  8
0
  6
PHANTOM
 62
     7
370
    18
100
AcDbSpline
210
0.0
220
0.0
230
1.0
 70
     8
 71
     3
 72
    20
 73
    16
 74
     0
 42
0.00000001
 43
0.00000001
 40
0.0
 40
0.0
 40
0.0
 40
0.0
 40
0.125
 40
0.125
 40
0.25
 40
0.25
 40
0.5
 40
0.5
 40
0.625
 40
0.625
 40
0.75
 40
0.75
 40
0.875
 40
0.875
 40
1.0
 40
1.0
 40
1.0
 40
1.0
 10
302.2578016789624
 20
143.4482063283268
 30
0.0
 10
302.2770723719624
 20
143.4295747133268
 30
0.0
 10
302.2857144779624
 20
143.3990911233268
 30
0.0
 10
302.2820887006291
 20
143.3150175113268
 30
0.0
 10
302.2695720499623
 20
143.2612079933268
 30
0.0
 10
302.2013802499624
 20
143.0712445673268
 30
0.0
 10
302.1131101084624
 20
142.9016856403268
 30
0.0
 10
301.9238726554624
 20
142.6079647783268
 30
0.0
 10
301.8502415282957
 20
142.5018263003268
 30
0.0
 10
301.6864851669623
 20
142.2817237643268
 30
0.0
 10
301.5968366719624
 20
142.1682252703268
 30
0.0
 10
301.4012345199624
 20
141.9347541919268
 30
0.0
 10
301.2949075859624
 20
141.8145520253268
 30
0.0
 10
301.0747665539624
 20
141.5787673253268
 30
0.0
 10
300.9598474259623
 20
141.4618088353268
 30
0.0
 10
300.8398325649624
 20
141.3459118293268
 30
0.0
  0
SPLINE
  5
2EB
330
1F
100
AcDbEntity
  8
0
  6
PHANTOM
 62
     7
370
    18
100
AcDbSpline
210
0.0
220
0.0
230
1.0
 70
     8
 71
     3
 72
    14
 73
    10
 74
     0
 42
0.00000001
 43
0.00000001
 40
0.0
 40
0.0
 40
0.0
 40
0.0
 40
0.25
 40
0.25
 40
0.5
 40
0.5
 40
0.75
 40
0.75
 40
1.0
 40
1.0
 40
1.0
 40
1.0
 10
302.9481002104471
 20
143.452721070246
 30
0.0
 10
302.9069729164891
 20
143.4924372390078
 30
0.0
 10
302.8555488943313
 20
143.5276955811875
 30
0.0
 10
302.7373525836611
 20
143.5768740368408
 30
0.0
 10
302.6707230869009
 20
143.5904559659374
 30
0.0
 10
302.5368810693604
 20
143.5895806117254
 30
0.0
 10
302.4700805748961
 20
143.5751260231536
 30
0.0
 10
302.3512749210926
 20
143.5243975261033
 30
0.0
 10
302.2994166903072
 20
143.4884636968323
 30
0.0
 10
302.2578016295287
 20
143.448206376121
 30
0.0
  0
LINE
  5
2EC
330
1F
100
AcDbEntity
  8
0
  6
PHANTOM
 62
     7
370
    18
100
AcDbLine
 10
283.000216366
 20
127.0820959368
 30
0.0
 11
283.000216366
 21
126.6147949635
 31
0.0
  0
LINE
  5
2ED
330
1F
100
AcDbEntity
  8
0
  6
PHANTOM
 62
     7
370
    18
100
AcDbLine
 10
283.000216366
 20
127.0820959368
 30
0.0
 11
244.0221441476
 21
127.0820959374
 31
0.0
  0
ARC
  5
2EE
330
1F
100
AcDbEntity
  8
0
  6
PHANTOM
 62
     7
370
    18
100
AcDbCircle
 10
283.000216366
 20
134.6781435562
 30
0.0
 40
7.596047620072941
100
AcDbArc
 50
270.0
 51
314.0000000032
  0
SPLINE
  5
2EF
330
1F
100
AcDbEntity
  8
0
  6
PHANTOM
 62
     7
370
    18
100
AcDbSpline
210
0.0
220
0.0
230
1.0
 70
     8
 71
     3
 72
     8
 73
     4
 74
     0
 42
0.00000001
 43
0.00000001
 40
0.0
 40
0.0
 40
0.0
 40
0.0
 40
1.0
 40
1.0
 40
1.0
 40
1.0
 10
301.9925140139624
 20
143.7046961433268
 30
0.0
 10
301.9925140144217
 20
143.7046961428827
 30
0.0
 10
302.0813133114189
 20
143.6188417358855
 30
0.0
 10
302.2578016789624
 20
143.4482063283268
 30
0.0
  0
LINE
  5
2F0
330
1F
100
AcDbEntity
  8
0
  6
PHANTOM
 62
     7
370
    18
100
AcDbLine
 10
288.276874428
 20
129.2140041781
 30
0.0
 11
287.654427448
 21
129.8585668943
 31
0.0
  0
SPLINE
  5
2F1
330
1F
100
AcDbEntity
  8
0
  6
PHANTOM
 62
     7
370
    18
100
AcDbSpline
210
0.0
220
0.0
230
1.0
 70
     8
 71
     3
 72
     8
 73
     4
 74
     0
 42
0.00000001
 43
0.00000001
 40
0.0
 40
0.0
 40
0.0
 40
0.0
 40
1.0
 40
1.0
 40
1.0
 40
1.0
 10
244.0221441369624
 20
127.0820959363268
 30
0.0
 10
244.0425447369625
 20
127.67640694033
 30
0.0
 10
244.0529022919625
 20
127.97814355633
 30
0.0
 10
244.0529022919624
 20
127.9781435563268
 30
0.0
  0
LINE
  5
2F2
330
1F
100
AcDbEntity
  8
0
  6
PHANTOM
 62
     7
370
    18
100
AcDbLine
 10
283.000216366
 20
127.9781435564
 30
0.0
 11
283.000216366
 21
127.0820959368
 31
0.0
  0
LINE
  5
2F3
330
1F
100
AcDbEntity
  8
0
  6
PHANTOM
 62
     7
370
    18
100
AcDbLine
 10
283.000216366
 20
123.9512924573
 30
0.0
 11
279.000216366
 21
123.9512924573
 31
0.0
  0
LINE
  5
2F4
330
1F
100
AcDbEntity
  8
0
  6
PHANTOM
 62
     7
370
    18
100
AcDbLine
 10
279.000216366
 20
125.6781435563
 30
0.0
 11
283.000216366
 21
125.6781435563
 31
0.0
  0
LINE
  5
2F5
330
1F
100
AcDbEntity
  8
0
  6
PHANTOM
 62
     7
370
    18
100
AcDbLine
 10
277.1002163661
 20
125.1781435563
 30
0.0
 11
277.100216366
 21
125.9781435563
 31
0.0
  0
SPLINE
  5
2F6
330
1F
100
AcDbEntity
  8
0
  6
PHANTOM
 62
     7
370
    18
100
AcDbSpline
210
0.0
220
0.0
230
1.0
 70
    24
 71
     3
 72
    17
 73
    13
 74
     0
 42
0.00000001
 43
0.00000001
 40
4.712388980179866
 40
4.712388980179866
 40
4.712388980179866
 40
4.712388980179866
 40
5.105088062083409
 40
5.105088062083409
 40
5.105088062083409
 40
5.497787143782141
 40
5.497787143782141
 40
5.497787143782141
 40
5.89048622548086
 40
5.89048622548086
 40
5.89048622548086
 40
6.283185307179589
 40
6.283185307179589
 40
6.283185307179589
 40
6.283185307179589
 10
277.5002163659623
 20
125.1781435563268
 30
0.0
 10
277.5002163659623
 20
125.1781435563268
 30
0.0
 10
277.4898054369623
 20
125.1781435563268
 30
0.0
 10
277.4697681789623
 20
125.1781435563268
 30
0.0
 10
277.4497309209624
 20
125.1781435563268
 30
0.0
 10
277.4200831029623
 20
125.1781435563268
 30
0.0
 10
277.3830590779623
 20
125.1781435563268
 30
0.0
 10
277.3460350539624
 20
125.1781435563268
 30
0.0
 10
277.3016639579624
 20
125.1781435563268
 30
0.0
 10
277.2532897389623
 20
125.1781435563268
 30
0.0
 10
277.2049155199624
 20
125.1781435563268
 30
0.0
 10
277.1525762439624
 20
125.1781435563268
 30
0.0
 10
277.1002163659624
 20
125.1781435563268
 30
0.0
  0
LINE
  5
2F7
330
1F
100
AcDbEntity
  8
0
  6
PHANTOM
 62
     7
370
    18
100
AcDbLine
 10
275.400216366
 20
125.9781435563
 30
0.0
 11
275.4002163661
 21
125.1781435563
 31
0.0
  0
LINE
  5
2F8
330
1F
100
AcDbEntity
  8
0
  6
PHANTOM
 62
     7
370
    18
100
AcDbLine
 10
277.100216366
 20
125.1781435563
 30
0.0
 11
275.400216366
 21
125.1781435563
 31
0.0
  0
SPLINE
  5
2F9
330
1F
100
AcDbEntity
  8
0
  6
PHANTOM
 62
     7
370
    18
100
AcDbSpline
210
0.0
220
0.0
230
1.0
 70
    24
 71
     3
 72
    17
 73
    13
 74
     0
 42
0.00000001
 43
0.00000001
 40
0.0000000000000001
 40
0.0000000000000001
 40
0.0000000000000001
 40
0.0000000000000001
 40
0.392699081698726
 40
0.392699081698726
 40
0.392699081698726
 40
0.7853981633974519
 40
0.7853981633974519
 40
0.7853981633974519
 40
1.17809724509618
 40
1.17809724509618
 40
1.17809724509618
 40
1.570796327
 40
1.570796327
 40
1.570796327
 40
1.570796327
 10
277.1002163659624
 20
125.1781435563268
 30
0.0
 10
277.1002163659624
 20
125.1519636173268
 30
0.0
 10
277.1002163659624
 20
125.1257939793268
 30
0.0
 10
277.1002163659624
 20
125.1016068703268
 30
0.0
 10
277.1002163659624
 20
125.0774197603268
 30
0.0
 10
277.1002163659624
 20
125.0552342123268
 30
0.0
 10
277.1002163659624
 20
125.0367222003268
 30
0.0
 10
277.1002163659624
 20
125.0182101883268
 30
0.0
 10
277.1002163659624
 20
125.0033862783268
 30
0.0
 10
277.1002163659624
 20
124.9933676493268
 30
0.0
 10
277.1002163659624
 20
124.9833490213268
 30
0.0
 10
277.1002163659624
 20
124.9781435563268
 30
0.0
 10
277.1002163659624
 20
124.9781435563268
 30
0.0
  0
SPLINE
  5
2FA
330
1F
100
AcDbEntity
  8
0
  6
PHANTOM
 62
     7
370
    18
100
AcDbSpline
210
0.0
220
0.0
230
1.0
 70
    24
 71
     3
 72
    17
 73
    13
 74
     0
 42
0.00000001
 43
0.00000001
 40
-0.0000000000000001
 40
-0.0000000000000001
 40
-0.0000000000000001
 40
-0.0000000000000001
 40
0.3926990819038197
 40
0.3926990819038197
 40
0.3926990819038197
 40
0.7853981636025488
 40
0.7853981636025488
 40
0.7853981636025488
 40
1.178097245301274
 40
1.178097245301274
 40
1.178097245301274
 40
1.570796327
 40
1.570796327
 40
1.570796327
 40
1.570796327
 10
275.4002163659624
 20
124.9781435563268
 30
0.0
 10
275.4002163659624
 20
124.9781435563268
 30
0.0
 10
275.4002163659624
 20
124.9833490213268
 30
0.0
 10
275.4002163659624
 20
124.9933676493268
 30
0.0
 10
275.4002163659624
 20
125.0033862783268
 30
0.0
 10
275.4002163659624
 20
125.0182101883268
 30
0.0
 10
275.4002163659624
 20
125.0367222003268
 30
0.0
 10
275.4002163659624
 20
125.0552342123268
 30
0.0
 10
275.4002163659624
 20
125.0774197603268
 30
0.0
 10
275.4002163659624
 20
125.1016068703268
 30
0.0
 10
275.4002163659624
 20
125.1257939793268
 30
0.0
 10
275.4002163659624
 20
125.1519636173268
 30
0.0
 10
275.4002163659624
 20
125.1781435563268
 30
0.0
  0
SPLINE
  5
2FB
330
1F
100
AcDbEntity
  8
0
  6
PHANTOM
 62
     7
370
    18
100
AcDbSpline
210
0.0
220
0.0
230
1.0
 70
    24
 71
     3
 72
    17
 73
    13
 74
     0
 42
0.00000001
 43
0.00000001
 40
0.0
 40
0.0
 40
0.0
 40
0.0
 40
0.392699081698724
 40
0.392699081698724
 40
0.392699081698724
 40
0.785398163397448
 40
0.785398163397448
 40
0.785398163397448
 40
1.17809724509617
 40
1.17809724509617
 40
1.17809724509617
 40
1.570796326590054
 40
1.570796326590054
 40
1.570796326590054
 40
1.570796326590054
 10
275.4002163659624
 20
125.1781435563268
 30
0.0
 10
275.3478564879624
 20
125.1781435563268
 30
0.0
 10
275.2955172119624
 20
125.1781435563268
 30
0.0
 10
275.2471429929624
 20
125.1781435563268
 30
0.0
 10
275.1987687739624
 20
125.1781435563268
 30
0.0
 10
275.1543976779623
 20
125.1781435563268
 30
0.0
 10
275.1173736539624
 20
125.1781435563268
 30
0.0
 10
275.0803496289624
 20
125.1781435563268
 30
0.0
 10
275.0507018109624
 20
125.1781435563268
 30
0.0
 10
275.0306645529624
 20
125.1781435563268
 30
0.0
 10
275.0106272949624
 20
125.1781435563268
 30
0.0
 10
275.0002163659624
 20
125.1781435563268
 30
0.0
 10
275.0002163659624
 20
125.1781435563268
 30
0.0
  0
LINE
  5
2FC
330
1F
100
AcDbEntity
  8
0
  6
Continuous
 62
     7
370
    25
100
AcDbLine
 10
67.0565963034
 20
140.6399638335
 30
0.0
 11
67.0342572475
 21
141.0846124295
 31
0.0
  0
LINE
  5
2FD
330
1F
100
AcDbEntity
  8
0
  6
Continuous
 62
     7
370
    25
100
AcDbLine
 10
51.8825876736
 20
141.0846087437
 30
0.0
 11
51.8602488028
 21
140.6399638332
 31
0.0
  0
SPLINE
  5
2FE
330
1F
100
AcDbEntity
  8
0
  6
Continuous
 62
     7
370
    25
100
AcDbSpline
210
0.0
220
0.0
230
1.0
 70
     8
 71
     3
 72
    19
 73
    15
 74
     0
 42
0.00000001
 43
0.00000001
 40
0.0
 40
0.0
 40
0.0
 40
0.0
 40
0.1006625994207342
 40
0.1919820040950685
 40
0.3449344398730676
 40
0.4610907527601836
 40
0.5479996290961241
 40
0.5989247207722564
 40
0.6445072435043867
 40
0.6919615230128175
 40
0.7444398595356018
 40
0.8130490476838367
 40
0.8985882689011571
 40
1.0
 40
1.0
 40
1.0
 40
1.0
 10
54.8416696419758
 20
143.5899884358667
 30
0.0
 10
54.69973521127444
 20
143.5696452466802
 30
0.0
 10
54.42904026982703
 20
143.5308470609371
 30
0.0
 10
53.9530676746996
 20
143.3969172398259
 30
0.0
 10
53.47867298808607
 20
143.1972491819838
 30
0.0
 10
53.05630867335133
 20
142.9386871277409
 30
0.0
 10
52.78522303030064
 20
142.7255624482228
 30
0.0
 10
52.60687005913521
 20
142.5591016273711
 30
0.0
 10
52.47712731232178
 20
142.4220701515305
 30
0.0
 10
52.35554871495939
 20
142.2764669611361
 30
0.0
 10
52.22774028563325
 20
142.0989684407596
 30
0.0
 10
52.09547997023837
 20
141.8726275904788
 30
0.0
 10
51.96798822280598
 20
141.5831722669043
 30
0.0
 10
51.924053474764
 20
141.3675240833949
 30
0.0
 10
51.90022102673885
 20
141.2505455105283
 30
0.0
  0
SPLINE
  5
2FF
330
1F
100
AcDbEntity
  8
0
  6
Continuous
 62
     7
370
    25
100
AcDbSpline
210
0.0
220
0.0
230
1.0
 70
     8
 71
     3
 72
    17
 73
    13
 74
     0
 42
0.00000001
 43
0.00000001
 40
0.0
 40
0.0
 40
0.0
 40
0.0
 40
0.0871837397442322
 40
0.1604087907497965
 40
0.2676194693945042
 40
0.3251457925816165
 40
0.3848535627215931
 40
0.4821094584739708
 40
0.6176352561008119
 40
0.7901192789405019
 40
0.8903160743502985
 40
1.0
 40
1.0
 40
1.0
 40
1.0
 10
67.01648389455143
 20
141.2513720517203
 30
0.0
 10
66.99674433241941
 20
141.3518560699806
 30
0.0
 10
66.96042564156242
 20
141.53673595591
 30
0.0
 10
66.83899730924438
 20
141.8421857389157
 30
0.0
 10
66.68874439521953
 20
142.1056551776333
 30
0.0
 10
66.5121816397792
 20
142.3391910165407
 30
0.0
 10
66.32879304329984
 20
142.5447291879069
 30
0.0
 10
66.04253474832564
 20
142.8070766377191
 30
0.0
 10
65.58244582791565
 20
143.1242065730599
 30
0.0
 10
65.0517015642256
 20
143.36705495958
 30
0.0
 10
64.5255018492819
 20
143.5240050968107
 30
0.0
 10
64.22974095646347
 20
143.5673409903251
 30
0.0
 10
64.07517594632712
 20
143.5899883821304
 30
0.0
  0
SPLINE
  5
300
330
1F
100
AcDbEntity
  8
0
  6
Continuous
 62
     7
370
    25
100
AcDbSpline
210
0.0
220
0.0
230
1.0
 70
     8
 71
     3
 72
    19
 73
    15
 74
     0
 42
0.00000001
 43
0.00000001
 40
0.0
 40
0.0
 40
0.0
 40
0.0
 40
0.1312139203036933
 40
0.2401330123755785
 40
0.3267581856554437
 40
0.3910898581218373
 40
0.4364510713856175
 40
0.4760361755843376
 40
0.5112072108233872
 40
0.556523715176224
 40
0.6280554191036739
 40
0.7258118816386173
 40
0.8497932258672475
 40
1.0
 40
1.0
 40
1.0
 40
1.0
 10
64.07517594466675
 20
143.5899883823168
 30
0.0
 10
63.67392330986677
 20
143.631212336435
 30
0.0
 10
62.93959570426555
 20
143.7066557974758
 30
0.0
 10
61.93415903388123
 20
143.7750086936821
 30
0.0
 10
61.13284424320022
 20
143.8136317249215
 30
0.0
 10
60.52666625297648
 20
143.8324639335417
 30
0.0
 10
60.06547912679437
 20
143.8412542120525
 30
0.0
 10
59.69428094302157
 20
143.8448402258108
 30
0.0
 10
59.32318913489719
 20
143.8453655429588
 30
0.0
 10
58.85338574509992
 20
143.8418417439672
 30
0.0
 10
58.19035475986531
 20
143.8283923434632
 30
0.0
 10
57.28534939654708
 20
143.7926564057202
 30
0.0
 10
56.13984038091427
 20
143.7217823396481
 30
0.0
 10
55.30113300196718
 20
143.6366344309072
 30
0.0
 10
54.84166914705668
 20
143.5899883808429
 30
0.0
  0
ELLIPSE
  5
301
330
1F
100
AcDbEntity
  8
0
  6
Continuous
 62
     7
370
    25
100
AcDbEllipse
 10
59.4584225525
 20
123.6186048865
 30
0.0
 11
28.08000000061482
 21
0.0
 31
0.0
210
0.0
220
0.0
230
1.0
 40
0.6950817955
 41
1.406577185665211
 42
1.73501546795172
  0
SPLINE
  5
302
330
1F
100
AcDbEntity
  8
0
  6
Continuous
 62
     7
370
    25
100
AcDbSpline
210
0.0
220
0.0
230
1.0
 70
     8
 71
     3
 72
    12
 73
     8
 74
     0
 42
0.00000001
 43
0.00000001
 40
0.0
 40
0.0
 40
0.0
 40
0.0
 40
0.5000000000000004
 40
0.5000000000000004
 40
0.7500000000000002
 40
0.7500000000000002
 40
1.0
 40
1.0
 40
1.0
 40
1.0
 10
65.68915285095623
 20
142.3159738597882
 30
0.0
 10
65.44412713722065
 20
142.4639578254985
 30
0.0
 10
65.18314431374915
 20
142.5852614671116
 30
0.0
 10
64.76814245163345
 20
142.7271062187367
 30
0.0
 10
64.62539793691617
 20
142.7675933563341
 30
0.0
 10
64.33911040141771
 20
142.8324313283664
 30
0.0
 10
64.19470296148086
 20
142.8571312698672
 30
0.0
 10
64.04899788491092
 20
142.8739140202333
 30
0.0
  0
LINE
  5
303
330
1F
100
AcDbEntity
  8
0
  6
Continuous
 62
     7
370
    25
100
AcDbLine
 10
65.6891528511
 20
142.3159738608
 30
0.0
 11
65.6891528511
 21
142.0942177515
 31
0.0
  0
ARC
  5
304
330
1F
100
AcDbEntity
  8
0
  6
Continuous
 62
     7
370
    25
100
AcDbCircle
 10
59.4584225617
 20
103.8461703337
 30
0.0
 40
38.75222743549769
100
AcDbArc
 50
80.7476064524
 51
99.2523935717
  0
LINE
  5
305
330
1F
100
AcDbEntity
  8
0
  6
Continuous
 62
     7
370
    25
100
AcDbLine
 10
53.2276922562
 20
142.0942177488
 30
0.0
 11
53.2276922553
 21
142.3159738605
 31
0.0
  0
SPLINE
  5
306
330
1F
100
AcDbEntity
  8
0
  6
Continuous
 62
     7
370
    25
100
AcDbSpline
210
0.0
220
0.0
230
1.0
 70
     8
 71
     3
 72
    12
 73
     8
 74
     0
 42
0.00000001
 43
0.00000001
 40
0.0
 40
0.0
 40
0.0
 40
0.0
 40
0.5000000000000007
 40
0.5000000000000007
 40
0.7500000000000003
 40
0.7500000000000003
 40
1.0
 40
1.0
 40
1.0
 40
1.0
 10
54.86784722070409
 20
142.873914019436
 30
0.0
 10
54.57642334206803
 20
142.8403469377531
 30
0.0
 10
54.29246104593722
 20
142.7758217303504
 30
0.0
 10
53.87723732937897
 20
142.6345253597454
 30
0.0
 10
53.74032547655652
 20
142.5796384156914
 30
0.0
 10
53.47725846577855
 20
142.4574842909882
 30
0.0
 10
53.35020029911904
 20
142.3899629360639
 30
0.0
 10
53.22769225643719
 20
142.3159738608353
 30
0.0
  0
LINE
  5
307
330
1F
100
AcDbEntity
  8
0
  6
Continuous
 62
     7
370
    25
100
AcDbLine
 10
66.9972363288
 20
141.2883384173
 30
0.0
 11
67.0258371713
 21
141.0838022866
 31
0.0
  0
ELLIPSE
  5
308
330
1F
100
AcDbEntity
  8
0
  6
Continuous
 62
     7
370
    25
100
AcDbEllipse
 10
64.05659392
 20
140.5646990612
 30
0.0
 11
3.001826696977475
 21
0.004908240961697174
 31
0.0
210
0.0
220
0.0
230
1.0
 40
0.6946568942
 41
6.2820494847783
 42
7.277821959805414
  0
ELLIPSE
  5
309
330
1F
100
AcDbEntity
  8
0
  6
Continuous
 62
     7
370
    25
100
AcDbEllipse
 10
54.8602511858
 20
140.5646990608
 30
0.0
 11
3.001826696525889
 21
-0.004908240960844523
 31
0.0
210
0.0
220
0.0
230
0.9999999999999999
 40
0.6946568942
 41
2.146956000791678
 42
3.142728476222427
  0
SPLINE
  5
30A
330
1F
100
AcDbEntity
  8
0
  6
Continuous
 62
     7
370
    25
100
AcDbSpline
210
0.0
220
0.0
230
1.0
 70
     8
 71
     3
 72
    21
 73
    17
 74
     0
 42
0.00000001
 43
0.00000001
 40
0.0
 40
0.0
 40
0.0
 40
0.0
 40
0.1044394667925527
 40
0.2338087415945698
 40
0.3564051145141826
 40
0.489336496147123
 40
0.5628038559475115
 40
0.6477929352824533
 40
0.7443064560882606
 40
0.7505974342473593
 40
0.759656879912386
 40
0.7860797230282917
 40
0.8720911185390376
 40
0.9204798049948928
 40
0.963116315861522
 40
1.0
 40
1.0
 40
1.0
 40
1.0
 10
51.89098732572411
 20
141.083801778113
 30
0.0
 10
51.90091210952842
 20
141.1982004043518
 30
0.0
 10
51.92313073322643
 20
141.4543047264293
 30
0.0
 10
52.0959809209545
 20
141.848613989198
 30
0.0
 10
52.37691103575419
 20
142.25461019304
 30
0.0
 10
52.7031794444562
 20
142.571378227398
 30
0.0
 10
53.0399352343324
 20
142.8200824884231
 30
0.0
 10
53.3636729122251
 20
143.0132786512118
 30
0.0
 10
53.62246151440691
 20
143.1320905879124
 30
0.0
 10
53.78137705393684
 20
143.1941704306604
 30
0.0
 10
53.84099525051195
 20
143.2168807157346
 30
0.0
 10
54.01615571043178
 20
143.2795584343794
 30
0.0
 10
54.25506653540393
 20
143.3483016815431
 30
0.0
 10
54.52310832035457
 20
143.4038418092017
 30
0.0
 10
54.71847860487023
 20
143.4346768250065
 30
0.0
 10
54.84038348465224
 20
143.4470035475979
 30
0.0
 10
54.89692636763348
 20
143.452721025309
 30
0.0
  0
LINE
  5
30B
330
1F
100
AcDbEntity
  8
0
  6
Continuous
 62
     7
370
    25
100
AcDbLine
 10
67.0584225525
 20
128.4198872892
 30
0.0
 11
67.0584225531
 21
140.5672388376
 31
0.0
  0
LINE
  5
30C
330
1F
100
AcDbEntity
  8
0
  6
Continuous
 62
     7
370
    25
100
AcDbLine
 10
51.8584225527
 20
128.4198872927
 30
0.0
 11
51.8584225528
 21
140.5672388367
 31
0.0
  0
SPLINE
  5
30D
330
1F
100
AcDbEntity
  8
0
  6
Continuous
 62
     7
370
    25
100
AcDbSpline
210
0.0
220
0.0
230
1.0
 70
     8
 71
     3
 72
    14
 73
    10
 74
     0
 42
0.00000001
 43
0.00000001
 40
0.0
 40
0.0
 40
0.0
 40
0.0
 40
0.2500000000000001
 40
0.2500000000000001
 40
0.5000000000000001
 40
0.5000000000000001
 40
0.7500000000000001
 40
0.7500000000000001
 40
1.0
 40
1.0
 40
1.0
 40
1.0
 10
65.68915285138159
 20
142.0942177519966
 30
0.0
 10
64.66479378923601
 20
141.9378431635709
 30
0.0
 10
63.62867881880968
 20
141.8202812552065
 30
0.0
 10
61.54649918696439
 20
141.6636524260094
 30
0.0
 10
60.50293635491423
 20
141.6246033710193
 30
0.0
 10
58.41088714958596
 20
141.6246788785546
 30
0.0
 10
57.3615508364351
 20
141.6641474390601
 30
0.0
 10
55.2837453109278
 20
141.8207814630768
 30
0.0
 10
54.25205790972201
 20
141.9378421569854
 30
0.0
 10
53.22769225454496
 20
142.0942177518522
 30
0.0
  0
LINE
  5
30E
330
1F
100
AcDbEntity
  8
0
  6
Continuous
 62
     7
370
    25
100
AcDbLine
 10
67.0584225525
 20
128.4198872892
 30
0.0
 11
67.0584225525
 21
125.9781435563
 31
0.0
  0
LINE
  5
30F
330
1F
100
AcDbEntity
  8
0
  6
Continuous
 62
     7
370
    25
100
AcDbLine
 10
67.0584225525
 20
125.9781435563
 30
0.0
 11
63.4584225542
 21
125.9781435563
 31
0.0
  0
LINE
  5
310
330
1F
100
AcDbEntity
  8
0
  6
Continuous
 62
     7
370
    25
100
AcDbLine
 10
62.3084225525
 20
125.9781435563
 30
0.0
 11
63.4584225542
 21
125.9781435563
 31
0.0
  0
LINE
  5
311
330
1F
100
AcDbEntity
  8
0
  6
Continuous
 62
     7
370
    25
100
AcDbLine
 10
62.3084225525
 20
125.9781435563
 30
0.0
 11
56.6084225525
 21
125.9781435563
 31
0.0
  0
LINE
  5
312
330
1F
100
AcDbEntity
  8
0
  6
Continuous
 62
     7
370
    25
100
AcDbLine
 10
55.4584225505
 20
125.9781435563
 30
0.0
 11
56.6084225525
 21
125.9781435563
 31
0.0
  0
LINE
  5
313
330
1F
100
AcDbEntity
  8
0
  6
Continuous
 62
     7
370
    25
100
AcDbLine
 10
55.4584225505
 20
125.9781435563
 30
0.0
 11
51.8584225525
 21
125.9781435563
 31
0.0
  0
LINE
  5
314
330
1F
100
AcDbEntity
  8
0
  6
Continuous
 62
     7
370
    25
100
AcDbLine
 10
51.8584225525
 20
125.9781435563
 30
0.0
 11
51.8584225527
 21
128.4198872927
 31
0.0
  0
LINE
  5
315
330
1F
100
AcDbEntity
  8
0
  6
Continuous
 62
     7
370
    25
100
AcDbLine
 10
56.6084225525
 20
125.9781435563
 30
0.0
 11
56.6084225525
 21
122.4781435563
 31
0.0
  0
LINE
  5
316
330
1F
100
AcDbEntity
  8
0
  6
Continuous
 62
     7
370
    25
100
AcDbLine
 10
56.6084225525
 20
122.4781435563
 30
0.0
 11
56.1084225525
 21
122.4781435563
 31
0.0
  0
LINE
  5
317
330
1F
100
AcDbEntity
  8
0
  6
Continuous
 62
     7
370
    25
100
AcDbLine
 10
56.1084225525
 20
122.4781435563
 30
0.0
 11
55.4314951555
 21
123.9512924573
 31
0.0
  0
ARC
  5
318
330
1F
100
AcDbEntity
  8
0
  6
Continuous
 62
     7
370
    25
100
AcDbCircle
 10
56.1584225525
 20
124.2853232333
 30
0.0
 40
0.7999999999880583
100
AcDbArc
 50
120.0000000005
 51
204.6792780745
  0
LINE
  5
319
330
1F
100
AcDbEntity
  8
0
  6
Continuous
 62
     7
370
    25
100
AcDbLine
 10
55.7584225525
 20
124.9781435563
 30
0.0
 11
55.7584225525
 21
125.6781435563
 31
0.0
  0
ARC
  5
31A
330
1F
100
AcDbEntity
  8
0
  6
Continuous
 62
     7
370
    25
100
AcDbCircle
 10
55.4584225525
 20
125.6781435563
 30
0.0
 40
0.3000000000000043
100
AcDbArc
 50
0.0
 51
90.000000382
  0
ARC
  5
31B
330
1F
100
AcDbEntity
  8
0
  6
Continuous
 62
     7
370
    25
100
AcDbCircle
 10
63.4584225525
 20
125.6781435563
 30
0.0
 40
0.2999999999999829
100
AcDbArc
 50
89.9999996739
 51
180.0000000118
  0
LINE
  5
31C
330
1F
100
AcDbEntity
  8
0
  6
Continuous
 62
     7
370
    25
100
AcDbLine
 10
63.1584225525
 20
125.6781435563
 30
0.0
 11
63.1584225525
 21
124.9781435563
 31
0.0
  0
ARC
  5
31D
330
1F
100
AcDbEntity
  8
0
  6
Continuous
 62
     7
370
    25
100
AcDbCircle
 10
62.7584225525
 20
124.2853232333
 30
0.0
 40
0.7999999999880623
100
AcDbArc
 50
335.3207219272
 51
59.9999999993
  0
LINE
  5
31E
330
1F
100
AcDbEntity
  8
0
  6
Continuous
 62
     7
370
    25
100
AcDbLine
 10
62.8084225525
 20
122.4781435563
 30
0.0
 11
63.4853499495
 21
123.9512924573
 31
0.0
  0
LINE
  5
31F
330
1F
100
AcDbEntity
  8
0
  6
Continuous
 62
     7
370
    25
100
AcDbLine
 10
62.8084225525
 20
122.4781435563
 30
0.0
 11
62.3084225525
 21
122.4781435563
 31
0.0
  0
LINE
  5
320
330
1F
100
AcDbEntity
  8
0
  6
Continuous
 62
     7
370
    25
100
AcDbLine
 10
62.3084225525
 20
125.9781435563
 30
0.0
 11
62.3084225525
 21
122.4781435563
 31
0.0
  0
LINE
  5
321
330
1F
100
AcDbEntity
  8
0
  6
Continuous
 62
     7
370
    25
100
AcDbLine
 10
59.0584225525
 20
125.1781435563
 30
0.0
 11
59.0584225561
 21
125.9781435563
 31
0.0
  0
LINE
  5
322
330
1F
100
AcDbEntity
  8
0
  6
Continuous
 62
     7
370
    25
100
AcDbLine
 10
59.8584225525
 20
125.1781435563
 30
0.0
 11
59.8584225489
 21
125.9781435563
 31
0.0
  0
SPLINE
  5
323
330
1F
100
AcDbEntity
  8
0
  6
Continuous
 62
     7
370
    25
100
AcDbSpline
210
0.0
220
0.0
230
1.0
 70
    24
 71
     3
 72
    29
 73
    25
 74
     0
 42
0.00000001
 43
0.00000001
 40
3.14159265358979
 40
3.14159265358979
 40
3.14159265358979
 40
3.14159265358979
 40
3.534291735288519
 40
3.534291735288519
 40
3.534291735288519
 40
3.926990816987238
 40
3.926990816987238
 40
3.926990816987238
 40
4.31968989868597
 40
4.31968989868597
 40
4.31968989868597
 40
4.712388980384688
 40
4.712388980384688
 40
4.712388980384688
 40
5.105088062083409
 40
5.105088062083409
 40
5.105088062083409
 40
5.497787143782139
 40
5.497787143782139
 40
5.497787143782139
 40
5.890486225480859
 40
5.890486225480859
 40
5.890486225480859
 40
6.283185307179589
 40
6.283185307179589
 40
6.283185307179589
 40
6.283185307179589
 10
59.25842255253128
 20
124.9781435563268
 30
0.0
 10
59.25842255253128
 20
124.9781435563268
 30
0.0
 10
59.2636280175302
 20
124.9781435563268
 30
0.0
 10
59.27364664552815
 20
124.9781435563268
 30
0.0
 10
59.28366527452609
 20
124.9781435563268
 30
0.0
 10
59.29848918452306
 20
124.9781435563268
 30
0.0
 10
59.31700119651926
 20
124.9781435563268
 30
0.0
 10
59.33551320851547
 20
124.9781435563268
 30
0.0
 10
59.35769875651091
 20
124.9781435563268
 30
0.0
 10
59.38188586650596
 20
124.9781435563268
 30
0.0
 10
59.406072975501
 20
124.9781435563268
 30
0.0
 10
59.43224261349563
 20
124.9781435563268
 30
0.0
 10
59.45842255249027
 20
124.9781435563268
 30
0.0
 10
59.4846024914849
 20
124.9781435563268
 30
0.0
 10
59.51077212947953
 20
124.9781435563268
 30
0.0
 10
59.53495923847457
 20
124.9781435563268
 30
0.0
 10
59.55914634846962
 20
124.9781435563268
 30
0.0
 10
59.58133189646507
 20
124.9781435563268
 30
0.0
 10
59.59984390846127
 20
124.9781435563268
 30
0.0
 10
59.61835592045747
 20
124.9781435563268
 30
0.0
 10
59.63317983045443
 20
124.9781435563268
 30
0.0
 10
59.64319845945238
 20
124.9781435563268
 30
0.0
 10
59.65321708745033
 20
124.9781435563268
 30
0.0
 10
59.65842255244925
 20
124.9781435563268
 30
0.0
 10
59.65842255244925
 20
124.9781435563268
 30
0.0
  0
SPLINE
  5
324
330
1F
100
AcDbEntity
  8
0
  6
Continuous
 62
     7
370
    25
100
AcDbSpline
210
0.0
220
0.0
230
1.0
 70
     8
 71
     3
 72
    17
 73
    13
 74
     0
 42
0.00000001
 43
0.00000001
 40
0.0000000000000001
 40
0.0000000000000001
 40
0.0000000000000001
 40
0.0000000000000001
 40
0.392699081698726
 40
0.392699081698726
 40
0.392699081698726
 40
0.7853981633974519
 40
0.7853981633974519
 40
0.7853981633974519
 40
1.17809724509618
 40
1.17809724509618
 40
1.17809724509618
 40
1.570796327
 40
1.570796327
 40
1.570796327
 40
1.570796327
 10
59.05842255249026
 20
125.1781435563268
 30
0.0
 10
59.05842255249026
 20
125.1519636173268
 30
0.0
 10
59.06362801749027
 20
125.1257939793268
 30
0.0
 10
59.07364664549026
 20
125.1016068703268
 30
0.0
 10
59.08366527449027
 20
125.0774197603268
 30
0.0
 10
59.09848918449027
 20
125.0552342123268
 30
0.0
 10
59.11700119649026
 20
125.0367222003268
 30
0.0
 10
59.13551320849027
 20
125.0182101883268
 30
0.0
 10
59.15769875649027
 20
125.0033862783268
 30
0.0
 10
59.18188586649026
 20
124.9933676493268
 30
0.0
 10
59.20607297549027
 20
124.9833490213268
 30
0.0
 10
59.23224261349026
 20
124.9781435563268
 30
0.0
 10
59.25842255249027
 20
124.9781435563268
 30
0.0
  0
SPLINE
  5
325
330
1F
100
AcDbEntity
  8
0
  6
Continuous
 62
     7
370
    25
100
AcDbSpline
210
0.0
220
0.0
230
1.0
 70
     8
 71
     3
 72
    17
 73
    13
 74
     0
 42
0.00000001
 43
0.00000001
 40
0.0000000000000001
 40
0.0000000000000001
 40
0.0000000000000001
 40
0.0000000000000001
 40
0.39269908190382
 40
0.39269908190382
 40
0.39269908190382
 40
0.785398163602548
 40
0.785398163602548
 40
0.785398163602548
 40
1.178097245301274
 40
1.178097245301274
 40
1.178097245301274
 40
1.570796327
 40
1.570796327
 40
1.570796327
 40
1.570796327
 10
59.65842255249026
 20
124.9781435563268
 30
0.0
 10
59.68460249149026
 20
124.9781435563268
 30
0.0
 10
59.71077212949027
 20
124.9833490213268
 30
0.0
 10
59.73495923849027
 20
124.9933676493268
 30
0.0
 10
59.75914634849026
 20
125.0033862783268
 30
0.0
 10
59.78133189649026
 20
125.0182101883268
 30
0.0
 10
59.79984390849027
 20
125.0367222003268
 30
0.0
 10
59.81835592049026
 20
125.0552342123268
 30
0.0
 10
59.83317983049027
 20
125.0774197603268
 30
0.0
 10
59.84319845949027
 20
125.1016068703268
 30
0.0
 10
59.85321708749026
 20
125.1257939793268
 30
0.0
 10
59.85842255249026
 20
125.1519636173268
 30
0.0
 10
59.85842255249026
 20
125.1781435563268
 30
0.0
  0
LINE
  5
326
330
1F
100
AcDbEntity
  8
0
  6
Continuous
 62
     7
370
    25
100
AcDbLine
 10
60.1382304926
 20
122.4081799122
 30
0.0
 11
60.1368019584
 21
120.0631406173
 31
0.0
  0
ELLIPSE
  5
327
330
1F
100
AcDbEntity
  8
0
  6
Continuous
 62
     7
370
    25
100
AcDbEllipse
 10
60.4368477122
 20
120.0632321181
 30
0.0
 11
0.0950477279497832
 21
0.2850273828307052
 31
0.0
210
0.0
220
0.0
230
0.9999999999999998
 40
0.998477485
 41
1.89251637254358
 42
3.463008117276361
  0
LINE
  5
328
330
1F
100
AcDbEntity
  8
0
  6
Continuous
 62
     7
370
    25
100
AcDbLine
 10
60.4365733205
 20
119.7628204142
 30
0.0
 11
66.2302717839
 21
119.7628204142
 31
0.0
  0
ELLIPSE
  5
329
330
1F
100
AcDbEntity
  8
0
  6
Continuous
 62
     7
370
    25
100
AcDbEllipse
 10
66.229997392
 20
120.0632321183
 30
0.0
 11
-0.09504772798617013
 21
0.2850273829562013
 31
0.0
210
0.0
220
0.0
230
1.0
 40
0.998477485
 41
2.820177190384066
 42
4.390668934438865
  0
LINE
  5
32A
330
1F
100
AcDbEntity
  8
0
  6
Continuous
 62
     7
370
    25
100
AcDbLine
 10
66.5300431463
 20
120.0631406174
 30
0.0
 11
66.5286146125
 21
122.4081799121
 31
0.0
  0
ELLIPSE
  5
32B
330
1F
100
AcDbEntity
  8
0
  6
Continuous
 62
     7
370
    25
100
AcDbEllipse
 10
66.2285689697
 20
122.4080885222
 30
0.0
 11
-0.2121966568363973
 21
0.2121966568364257
 31
0.0
210
0.0
220
0.0
230
1.0
 40
0.9996954599
 41
3.927447697060358
 42
5.497939440466793
  0
LINE
  5
32C
330
1F
100
AcDbEntity
  8
0
  6
Continuous
 62
     7
370
    25
100
AcDbLine
 10
66.2284775788
 20
122.7081342205
 30
0.0
 11
62.9141056789
 21
122.7081342204
 31
0.0
  0
LINE
  5
32D
330
1F
100
AcDbEntity
  8
0
  6
Continuous
 62
     7
370
    25
100
AcDbLine
 10
62.3084225525
 20
122.7081342204
 30
0.0
 11
60.4383675262
 21
122.7081342203
 31
0.0
  0
ELLIPSE
  5
32E
330
1F
100
AcDbEntity
  8
0
  6
Continuous
 62
     7
370
    25
100
AcDbEllipse
 10
60.4382761353
 20
122.4080885222
 30
0.0
 11
0.2121966566214937
 21
0.2121966566214866
 31
0.0
210
0.0
220
0.0
230
1.0
 40
0.9996954599
 41
0.7852458668461205
 42
2.355737610089504
  0
LINE
  5
32F
330
1F
100
AcDbEntity
  8
0
  6
Continuous
 62
     7
370
    25
100
AcDbLine
 10
52.3882304926
 20
122.4081799122
 30
0.0
 11
52.3868019584
 21
120.0631406173
 31
0.0
  0
ELLIPSE
  5
330
330
1F
100
AcDbEntity
  8
0
  6
Continuous
 62
     7
370
    25
100
AcDbEllipse
 10
52.6868477122
 20
120.0632321181
 30
0.0
 11
0.0950477279497832
 21
0.2850273828307052
 31
0.0
210
0.0
220
0.0
230
0.9999999999999998
 40
0.998477485
 41
1.892516372537343
 42
3.463008117998416
  0
LINE
  5
331
330
1F
100
AcDbEntity
  8
0
  6
Continuous
 62
     7
370
    25
100
AcDbLine
 10
52.6865733207
 20
119.7628204142
 30
0.0
 11
58.4802717844
 21
119.7628204142
 31
0.0
  0
ELLIPSE
  5
332
330
1F
100
AcDbEntity
  8
0
  6
Continuous
 62
     7
370
    25
100
AcDbEllipse
 10
58.479997392
 20
120.0632321183
 30
0.0
 11
-0.09504772798618433
 21
0.2850273829561871
 31
0.0
210
0.0
220
0.0
230
1.0
 40
0.998477485
 41
2.820177191995389
 42
4.390668934432538
  0
LINE
  5
333
330
1F
100
AcDbEntity
  8
0
  6
Continuous
 62
     7
370
    25
100
AcDbLine
 10
58.7800431463
 20
120.0631406174
 30
0.0
 11
58.7786146124
 21
122.4081799121
 31
0.0
  0
ELLIPSE
  5
334
330
1F
100
AcDbEntity
  8
0
  6
Continuous
 62
     7
370
    25
100
AcDbEllipse
 10
58.4785689697
 20
122.4080885222
 30
0.0
 11
-0.2121966566006677
 21
0.2121966566007245
 31
0.0
210
0.0
220
0.0
230
1.0
 40
0.9996954599
 41
3.92744769711855
 42
5.497939440466878
  0
LINE
  5
335
330
1F
100
AcDbEntity
  8
0
  6
Continuous
 62
     7
370
    25
100
AcDbLine
 10
58.4784775788
 20
122.7081342203
 30
0.0
 11
56.6084225525
 21
122.7081342203
 31
0.0
  0
LINE
  5
336
330
1F
100
AcDbEntity
  8
0
  6
Continuous
 62
     7
370
    25
100
AcDbLine
 10
56.0027394261
 20
122.7081342203
 30
0.0
 11
52.6883675262
 21
122.7081342203
 31
0.0
  0
ELLIPSE
  5
337
330
1F
100
AcDbEntity
  8
0
  6
Continuous
 62
     7
370
    25
100
AcDbEllipse
 10
52.6882761353
 20
122.4080885222
 30
0.0
 11
0.2121966566214937
 21
0.2121966566214866
 31
0.0
210
0.0
220
0.0
230
1.0
 40
0.9996954599
 41
0.7852458667618628
 42
2.355737610086567
  0
LINE
  5
338
330
1F
100
AcDbEntity
  8
0
  6
Continuous
 62
     7
370
    25
100
AcDbLine
 10
67.9165784337
 20
123.9363451289
 30
0.0
 11
67.9042204613
 21
123.5275882074
 31
0.0
  0
LINE
  5
339
330
1F
100
AcDbEntity
  8
0
  6
Continuous
 62
     7
370
    25
100
AcDbLine
 10
51.0126246438
 20
123.5275882074
 30
0.0
 11
51.0002666716
 21
123.9363451291
 31
0.0
  0
LINE
  5
33A
330
1F
100
AcDbEntity
  8
0
  6
Continuous
 62
     7
370
    25
100
AcDbLine
 10
50.9986605922
 20
118.4781435563
 30
0.0
 11
51.012624644
 21
118.9400237716
 31
0.0
  0
ELLIPSE
  5
33B
330
1F
100
AcDbEntity
  8
0
  6
Continuous
 62
     7
370
    25
100
AcDbEllipse
 10
51.3076848182
 20
118.7781435562
 30
0.0
 11
0.265734970325667
 21
0.2578224073829745
 31
0.0
210
0.0
220
0.0
230
1.0
 40
0.5772183919
 41
3.678278239618699
 42
4.201877018558678
  0
LINE
  5
33C
330
1F
100
AcDbEntity
  8
0
  6
Continuous
 62
     7
370
    25
100
AcDbLine
 10
50.998660592
 20
118.4781435563
 30
0.0
 11
51.1554002006
 21
118.4781435563
 31
0.0
  0
LINE
  5
33D
330
1F
100
AcDbEntity
  8
0
  6
Continuous
 62
     7
370
    25
100
AcDbLine
 10
67.9042204613
 20
118.9400237728
 30
0.0
 11
67.9181845132
 21
118.4781435563
 31
0.0
  0
LINE
  5
33E
330
1F
100
AcDbEntity
  8
0
  6
Continuous
 62
     7
370
    25
100
AcDbLine
 10
67.7614449047
 20
118.4781435563
 30
0.0
 11
67.918184513
 21
118.4781435563
 31
0.0
  0
ELLIPSE
  5
33F
330
1F
100
AcDbEntity
  8
0
  6
Continuous
 62
     7
370
    25
100
AcDbEllipse
 10
67.6091602868
 20
118.7781435562
 30
0.0
 11
0.2657349703624163
 21
-0.2578224074191837
 31
0.0
210
0.0
220
0.0
230
0.9999999999999998
 40
0.5772183919
 41
5.222900947615942
 42
5.746499722304358
  0
LINE
  5
340
330
1F
100
AcDbEntity
  8
0
  6
Continuous
 62
     7
370
    25
100
AcDbLine
 10
50.9538509708
 20
118.4781435563
 30
0.0
 11
50.9986605922
 21
118.4781435563
 31
0.0
  0
LINE
  5
341
330
1F
100
AcDbEntity
  8
0
  6
Continuous
 62
     7
370
    25
100
AcDbLine
 10
50.9538509708
 20
118.4781435563
 30
0.0
 11
50.957204234
 21
123.979407566
 31
0.0
  0
LINE
  5
342
330
1F
100
AcDbEntity
  8
0
  6
Continuous
 62
     7
370
    25
100
AcDbLine
 10
67.9596408709
 20
123.9794075661
 30
0.0
 11
67.9629941342
 21
118.4781435563
 31
0.0
  0
LINE
  5
343
330
1F
100
AcDbEntity
  8
0
  6
Continuous
 62
     7
370
    25
100
AcDbLine
 10
67.9181845132
 20
118.4781435563
 30
0.0
 11
67.9629941342
 21
118.4781435563
 31
0.0
  0
LINE
  5
344
330
1F
100
AcDbEntity
  8
0
  6
Continuous
 62
     7
370
    25
100
AcDbLine
 10
51.1554002006
 20
118.4781435563
 30
0.0
 11
67.7614449047
 21
118.4781435563
 31
0.0
  0
ELLIPSE
  5
345
330
1F
100
AcDbEntity
  8
0
  6
Continuous
 62
     7
370
    25
100
AcDbEllipse
 10
51.2572498771
 20
123.9793162317
 30
0.0
 11
0.2920338625347796
 21
0.06892105533613346
 31
0.0
210
0.0
220
0.0
230
0.9999999999999998
 40
0.9993189899
 41
1.338881115740736
 42
2.909372862113799
  0
ELLIPSE
  5
346
330
1F
100
AcDbEntity
  8
0
  6
Continuous
 62
     7
370
    25
100
AcDbEllipse
 10
67.6595952279
 20
123.9793162317
 30
0.0
 11
0.2920338623213893
 21
-0.06892105528575598
 31
0.0
210
0.0
220
0.0
230
0.9999999999999999
 40
0.9993189899
 41
0.2322197913912391
 42
1.802711537933714
  0
LINE
  5
347
330
1F
100
AcDbEntity
  8
0
  6
Continuous
 62
     7
370
    25
100
AcDbLine
 10
51.257341269
 20
124.2791791513
 30
0.0
 11
55.3584461464
 21
124.2791791538
 31
0.0
  0
LINE
  5
348
330
1F
100
AcDbEntity
  8
0
  6
Continuous
 62
     7
370
    25
100
AcDbLine
 10
56.6084225525
 20
124.2791791512
 30
0.0
 11
62.3084225525
 21
124.2791791512
 31
0.0
  0
LINE
  5
349
330
1F
100
AcDbEntity
  8
0
  6
Continuous
 62
     7
370
    25
100
AcDbLine
 10
63.5583989586
 20
124.2791791538
 30
0.0
 11
67.659503836
 21
124.2791791512
 31
0.0
  0
LINE
  5
34A
330
1F
100
AcDbEntity
  8
0
  6
Continuous
 62
     7
370
    25
100
AcDbLine
 10
69.9703283208
 20
118.4781435563
 30
0.0
 11
69.775826658
 21
124.0479425476
 31
0.0
  0
LINE
  5
34B
330
1F
100
AcDbEntity
  8
0
  6
Continuous
 62
     7
370
    25
100
AcDbLine
 10
49.141018447
 20
124.0479425474
 30
0.0
 11
48.9465167842
 21
118.4781435563
 31
0.0
  0
ARC
  5
34C
330
1F
100
AcDbEntity
  8
0
  6
Continuous
 62
     7
370
    25
100
AcDbCircle
 10
67.7770450025
 20
123.9781435563
 30
0.0
 40
2.000000001398327
100
AcDbArc
 50
1.9999999382
 51
90.0
  0
LINE
  5
34D
330
1F
100
AcDbEntity
  8
0
  6
Continuous
 62
     7
370
    25
100
AcDbLine
 10
67.7770450025
 20
125.9781435563
 30
0.0
 11
67.0584225538
 21
125.9781435563
 31
0.0
  0
LINE
  5
34E
330
1F
100
AcDbEntity
  8
0
  6
Continuous
 62
     7
370
    25
100
AcDbLine
 10
51.8584225511
 20
125.9781435563
 30
0.0
 11
51.1398001025
 21
125.9781435563
 31
0.0
  0
ARC
  5
34F
330
1F
100
AcDbEntity
  8
0
  6
Continuous
 62
     7
370
    25
100
AcDbCircle
 10
51.1398001025
 20
123.9781435563
 30
0.0
 40
2.000000001411402
100
AcDbArc
 50
90.0
 51
178.000000069
  0
LINE
  5
350
330
1F
100
AcDbEntity
  8
0
  6
Continuous
 62
     7
370
    25
100
AcDbLine
 10
48.9465167842
 20
118.4781435563
 30
0.0
 11
50.9538509708
 21
118.4781435563
 31
0.0
  0
LINE
  5
351
330
1F
100
AcDbEntity
  8
0
  6
Continuous
 62
     7
370
    25
100
AcDbLine
 10
67.9629941342
 20
118.4781435563
 30
0.0
 11
69.9703283208
 21
118.4781435563
 31
0.0
  0
LINE
  5
352
330
1F
100
AcDbEntity
  8
0
  6
PHANTOM
 62
     7
370
    18
100
AcDbLine
 10
64.0489978841
 20
142.8739140199
 30
0.0
 11
64.0199187414
 21
143.4527210251
 31
0.0
  0
SPLINE
  5
353
330
1F
100
AcDbEntity
  8
0
  6
PHANTOM
 62
     7
370
    18
100
AcDbSpline
210
0.0
220
0.0
230
1.0
 70
     8
 71
     3
 72
    25
 73
    21
 74
     0
 42
0.00000001
 43
0.00000001
 40
0.0
 40
0.0
 40
0.0
 40
0.0
 40
0.0610694834889768
 40
0.1357803073658565
 40
0.1877653851031789
 40
0.2277842725998223
 40
0.2558341210051324
 40
0.2719129371108681
 40
0.3249610204410278
 40
0.3749210533182064
 40
0.4217936812428142
 40
0.4655797492982002
 40
0.5062803583754759
 40
0.5438969443960737
 40
0.6396310572795186
 40
0.7304216799206424
 40
0.8163160947449632
 40
0.885835895850614
 40
0.9546609971867716
 40
1.0
 40
1.0
 40
1.0
 40
1.0
 10
64.01991873749027
 20
143.4527210260293
 30
0.0
 10
64.10778038672026
 20
143.4432366352167
 30
0.0
 10
64.3031297012478
 20
143.4221492864112
 30
0.0
 10
64.57094731350224
 20
143.3688256637181
 30
0.0
 10
64.80444522752032
 20
143.3072728166627
 30
0.0
 10
64.96959477617347
 20
143.2548789699439
 30
0.0
 10
65.08347050513106
 20
143.2141620511992
 30
0.0
 10
65.21340753052496
 20
143.1642083639622
 30
0.0
 10
65.36956978512575
 20
143.0976187341051
 30
0.0
 10
65.55906677719445
 20
143.0039696067917
 30
0.0
 10
65.72981197331511
 20
142.9078727077365
 30
0.0
 10
65.88244922790605
 20
142.8112920247361
 30
0.0
 10
66.01785793261693
 20
142.715986199449
 30
0.0
 10
66.20164217963642
 20
142.5734564169797
 30
0.0
 10
66.41721907911177
 20
142.3760784395839
 30
0.0
 10
66.63703023098412
 20
142.1174971974706
 30
0.0
 10
66.79756486098894
 20
141.8719222520385
 30
0.0
 10
66.90642981615602
 20
141.6428015214829
 30
0.0
 10
66.9805992330614
 20
141.4523608877869
 30
0.0
 10
66.99250720883961
 20
141.3349620561242
 30
0.0
 10
66.99723632883168
 20
141.2883384172959
 30
0.0
  0
LINE
  5
354
330
1F
100
AcDbEntity
  8
0
  6
PHANTOM
 62
     7
370
    18
100
AcDbLine
 10
54.8969263668
 20
143.4527210255
 30
0.0
 11
54.8678472203
 21
142.8739140194
 31
0.0
  0
SPLINE
  5
355
330
1F
100
AcDbEntity
  8
0
  6
PHANTOM
 62
     7
370
    18
100
AcDbSpline
210
0.0
220
0.0
230
1.0
 70
     8
 71
     3
 72
     8
 73
     4
 74
     0
 42
0.00000001
 43
0.00000001
 40
0.0
 40
0.0
 40
0.0
 40
0.0
 40
1.0
 40
1.0
 40
1.0
 40
1.0
 10
54.89692636749027
 20
143.4527210253268
 30
0.0
 10
57.91239439949027
 20
143.7879848413268
 30
0.0
 10
61.00445070549026
 20
143.7879848413268
 30
0.0
 10
64.01991873749027
 20
143.4527210253268
 30
0.0
  0
LINE
  5
356
330
1F
100
AcDbEntity
  8
0
  6
PHANTOM
 62
     7
370
    18
100
AcDbLine
 10
51.8584225527
 20
128.4198872927
 30
0.0
 11
67.0584225525
 21
128.4198872892
 31
0.0
  0
SPLINE
  5
357
330
1F
100
AcDbEntity
  8
0
  6
PHANTOM
 62
     7
370
    18
100
AcDbSpline
210
0.0
220
0.0
230
1.0
 70
     8
 71
     3
 72
    10
 73
     6
 74
     0
 42
0.00000001
 43
0.00000001
 40
0.0
 40
0.0
 40
0.0
 40
0.0
 40
0.4772783775630207
 40
0.992062486305347
 40
1.0
 40
1.0
 40
1.0
 40
1.0
 10
54.89692687368807
 20
143.452721070246
 30
0.0
 10
54.88740404888134
 20
143.488572522263
 30
0.0
 10
54.86761007182615
 20
143.5630927232559
 30
0.0
 10
54.84782837033482
 20
143.6034094348904
 30
0.0
 10
54.84183946067566
 20
143.5896071563666
 30
0.0
 10
54.84174851924451
 20
143.5893975691406
 30
0.0
  0
LWPOLYLINE
  5
358
330
1F
100
AcDbEntity
  8
0
  6
PHANTOM
 62
     7
370
    18
100
AcDbPolyline
 90
        6
 70
   128
 43
0.0
 10
64.019918727
 20
143.4527210256
 10
64.0350007435
 20
143.5115682121
 10
64.0495282464
 20
143.555027971
 10
64.0629671096
 20
143.5815024373
 10
64.0748232324
 20
143.5900182361
 10
64.0751927196
 20
143.5899864766
  0
SPLINE
  5
359
330
1F
100
AcDbEntity
  8
0
  6
PHANTOM
 62
     7
370
    18
100
AcDbSpline
210
0.0
220
0.0
230
1.0
 70
    24
 71
     3
 72
    29
 73
    25
 74
     0
 42
0.00000001
 43
0.00000001
 40
3.14159265358979
 40
3.14159265358979
 40
3.14159265358979
 40
3.14159265358979
 40
3.53429173528852
 40
3.53429173528852
 40
3.53429173528852
 40
3.92699081698724
 40
3.92699081698724
 40
3.92699081698724
 40
4.31968989868597
 40
4.31968989868597
 40
4.31968989868597
 40
4.712388980384691
 40
4.712388980384691
 40
4.712388980384691
 40
5.105088062083409
 40
5.105088062083409
 40
5.105088062083409
 40
5.497787143782141
 40
5.497787143782141
 40
5.497787143782141
 40
5.89048622548086
 40
5.89048622548086
 40
5.89048622548086
 40
6.283185307179589
 40
6.283185307179589
 40
6.283185307179589
 40
6.283185307179589
 10
59.85842255249026
 20
125.1781435563268
 30
0.0
 10
59.85842255249026
 20
125.1781435563268
 30
0.0
 10
59.84801162349027
 20
125.1781435563268
 30
0.0
 10
59.82797436549026
 20
125.1781435563268
 30
0.0
 10
59.80793710749027
 20
125.1781435563268
 30
0.0
 10
59.77828928949026
 20
125.1781435563268
 30
0.0
 10
59.74126526449027
 20
125.1781435563268
 30
0.0
 10
59.70424124049026
 20
125.1781435563268
 30
0.0
 10
59.65987014449026
 20
125.1781435563268
 30
0.0
 10
59.61149592549026
 20
125.1781435563268
 30
0.0
 10
59.56312170649026
 20
125.1781435563268
 30
0.0
 10
59.51078243049027
 20
125.1781435563268
 30
0.0
 10
59.45842255249027
 20
125.1781435563268
 30
0.0
 10
59.40606267449026
 20
125.1781435563268
 30
0.0
 10
59.35372339849027
 20
125.1781435563268
 30
0.0
 10
59.30534917949026
 20
125.1781435563268
 30
0.0
 10
59.25697496049027
 20
125.1781435563268
 30
0.0
 10
59.21260386449027
 20
125.1781435563268
 30
0.0
 10
59.17557984049026
 20
125.1781435563268
 30
0.0
 10
59.13855581549026
 20
125.1781435563268
 30
0.0
 10
59.10890799749026
 20
125.1781435563268
 30
0.0
 10
59.08887073949026
 20
125.1781435563268
 30
0.0
 10
59.06883348149027
 20
125.1781435563268
 30
0.0
 10
59.05842255249026
 20
125.1781435563268
 30
0.0
 10
59.05842255249026
 20
125.1781435563268
 30
0.0
  0
LINE
  5
35A
330
1F
100
AcDbEntity
  8
0
  6
PHANTOM
 62
     7
370
    18
100
AcDbLine
 10
67.9042204613
 20
118.9400237728
 30
0.0
 11
67.6042661525
 21
118.9400237713
 31
0.0
  0
ARC
  5
35B
330
1F
100
AcDbEntity
  8
0
  6
PHANTOM
 62
     7
370
    18
100
AcDbCircle
 10
67.6202955865
 20
118.9647659089
 30
0.0
 40
0.2850008908744848
100
AcDbArc
 50
266.7757865084
 51
355.0196410373
  0
LINE
  5
35C
330
1F
100
AcDbEntity
  8
0
  6
PHANTOM
 62
     7
370
    18
100
AcDbLine
 10
67.6042661525
 20
118.9400237713
 30
0.0
 11
67.6042661542
 21
118.6802161503
 31
0.0
  0
ARC
  5
35D
330
1F
100
AcDbEntity
  8
0
  6
PHANTOM
 62
     7
370
    18
100
AcDbCircle
 10
67.6202954517
 20
123.5028459898
 30
0.0
 40
0.2850010322686191
100
AcDbArc
 50
4.9803729306
 51
93.2241855174
  0
LINE
  5
35E
330
1F
100
AcDbEntity
  8
0
  6
PHANTOM
 62
     7
370
    18
100
AcDbLine
 10
67.6042661525
 20
123.5275882063
 30
0.0
 11
67.9042204613
 21
123.5275882074
 31
0.0
  0
LINE
  5
35F
330
1F
100
AcDbEntity
  8
0
  6
PHANTOM
 62
     7
370
    18
100
AcDbLine
 10
67.6042661504
 20
123.7873958974
 30
0.0
 11
67.6042661525
 21
123.5275882063
 31
0.0
  0
LINE
  5
360
330
1F
100
AcDbEntity
  8
0
  6
PHANTOM
 62
     7
370
    18
100
AcDbLine
 10
51.3125789525
 20
123.5275882063
 30
0.0
 11
51.3125789523
 21
118.9400237715
 31
0.0
  0
LINE
  5
361
330
1F
100
AcDbEntity
  8
0
  6
PHANTOM
 62
     7
370
    18
100
AcDbLine
 10
51.3125789525
 20
123.5275882063
 30
0.0
 11
55.6261917102
 21
123.5275882063
 31
0.0
  0
LINE
  5
362
330
1F
100
AcDbEntity
  8
0
  6
PHANTOM
 62
     7
370
    18
100
AcDbLine
 10
56.6084225525
 20
123.5275882063
 30
0.0
 11
62.3084225525
 21
123.5275882063
 31
0.0
  0
LINE
  5
363
330
1F
100
AcDbEntity
  8
0
  6
PHANTOM
 62
     7
370
    18
100
AcDbLine
 10
63.2906533947
 20
123.5275882063
 30
0.0
 11
67.6042661525
 21
123.5275882063
 31
0.0
  0
LINE
  5
364
330
1F
100
AcDbEntity
  8
0
  6
PHANTOM
 62
     7
370
    18
100
AcDbLine
 10
67.6042661525
 20
118.9400237713
 30
0.0
 11
67.6042661525
 21
123.5275882063
 31
0.0
  0
LINE
  5
365
330
1F
100
AcDbEntity
  8
0
  6
PHANTOM
 62
     7
370
    18
100
AcDbLine
 10
67.6042661525
 20
118.9400237713
 30
0.0
 11
51.3125789523
 21
118.9400237715
 31
0.0
  0
LINE
  5
366
330
1F
100
AcDbEntity
  8
0
  6
PHANTOM
 62
     7
370
    18
100
AcDbLine
 10
58.4802717844
 20
119.7628204142
 30
0.0
 11
58.4136133725
 21
119.9627144363
 31
0.0
  0
ARC
  5
367
330
1F
100
AcDbEntity
  8
0
  6
PHANTOM
 62
     7
370
    18
100
AcDbCircle
 10
58.4134750096
 20
120.2628072487
 30
0.0
 40
0.3000928442633579
100
AcDbArc
 50
270.0264171844
 51
359.938668953
  0
LINE
  5
368
330
1F
100
AcDbEntity
  8
0
  6
PHANTOM
 62
     7
370
    18
100
AcDbLine
 10
58.713567682
 20
120.2624860208
 30
0.0
 11
58.7800431463
 21
120.0631406174
 31
0.0
  0
LINE
  5
369
330
1F
100
AcDbEntity
  8
0
  6
PHANTOM
 62
     7
370
    18
100
AcDbLine
 10
58.7135677237
 20
122.4732267996
 30
0.0
 11
58.713567682
 21
120.2624860208
 31
0.0
  0
LINE
  5
36A
330
1F
100
AcDbEntity
  8
0
  6
PHANTOM
 62
     7
370
    18
100
AcDbLine
 10
58.7786146124
 20
122.4081799121
 30
0.0
 11
58.7135677237
 21
122.4732267996
 31
0.0
  0
LINE
  5
36B
330
1F
100
AcDbEntity
  8
0
  6
PHANTOM
 62
     7
370
    18
100
AcDbLine
 10
60.5032317325
 20
119.9627144361
 30
0.0
 11
60.4365733205
 21
119.7628204142
 31
0.0
  0
LINE
  5
36C
330
1F
100
AcDbEntity
  8
0
  6
PHANTOM
 62
     7
370
    18
100
AcDbLine
 10
60.1368019584
 20
120.0631406173
 30
0.0
 11
60.2032774232
 21
120.2624860205
 31
0.0
  0
ARC
  5
36D
330
1F
100
AcDbEntity
  8
0
  6
PHANTOM
 62
     7
370
    18
100
AcDbCircle
 10
60.5033700957
 20
120.2628072487
 30
0.0
 40
0.300092844434112
100
AcDbArc
 50
180.0613310839
 51
269.973582744
  0
LINE
  5
36E
330
1F
100
AcDbEntity
  8
0
  6
PHANTOM
 62
     7
370
    18
100
AcDbLine
 10
60.2032773813
 20
122.4732267996
 30
0.0
 11
60.1382304926
 21
122.4081799122
 31
0.0
  0
LINE
  5
36F
330
1F
100
AcDbEntity
  8
0
  6
PHANTOM
 62
     7
370
    18
100
AcDbLine
 10
60.2032774232
 20
120.2624860205
 30
0.0
 11
60.2032773813
 21
122.4732267996
 31
0.0
  0
LINE
  5
370
330
1F
100
AcDbEntity
  8
0
  6
PHANTOM
 62
     7
370
    18
100
AcDbLine
 10
52.7532317325
 20
119.9627144361
 30
0.0
 11
52.6865733207
 21
119.7628204142
 31
0.0
  0
LINE
  5
371
330
1F
100
AcDbEntity
  8
0
  6
PHANTOM
 62
     7
370
    18
100
AcDbLine
 10
52.3868019584
 20
120.0631406173
 30
0.0
 11
52.4532774232
 21
120.2624860205
 31
0.0
  0
ARC
  5
372
330
1F
100
AcDbEntity
  8
0
  6
PHANTOM
 62
     7
370
    18
100
AcDbCircle
 10
52.7533700957
 20
120.2628072487
 30
0.0
 40
0.300092844434112
100
AcDbArc
 50
180.0613310839
 51
269.973582744
  0
LINE
  5
373
330
1F
100
AcDbEntity
  8
0
  6
PHANTOM
 62
     7
370
    18
100
AcDbLine
 10
58.4136133725
 20
119.9627144363
 30
0.0
 11
52.7532317325
 21
119.9627144361
 31
0.0
  0
LINE
  5
374
330
1F
100
AcDbEntity
  8
0
  6
PHANTOM
 62
     7
370
    18
100
AcDbLine
 10
66.1636133725
 20
119.9627144363
 30
0.0
 11
60.5032317325
 21
119.9627144361
 31
0.0
  0
LINE
  5
375
330
1F
100
AcDbEntity
  8
0
  6
PHANTOM
 62
     7
370
    18
100
AcDbLine
 10
66.2302717839
 20
119.7628204142
 30
0.0
 11
66.1636133725
 21
119.9627144363
 31
0.0
  0
LINE
  5
376
330
1F
100
AcDbEntity
  8
0
  6
PHANTOM
 62
     7
370
    18
100
AcDbLine
 10
66.463567682
 20
120.2624860208
 30
0.0
 11
66.5300431463
 21
120.0631406174
 31
0.0
  0
ARC
  5
377
330
1F
100
AcDbEntity
  8
0
  6
PHANTOM
 62
     7
370
    18
100
AcDbCircle
 10
66.1634750096
 20
120.2628072487
 30
0.0
 40
0.3000928442633863
100
AcDbArc
 50
270.0264171844
 51
359.938668953
  0
ARC
  5
378
330
1F
100
AcDbEntity
  8
0
  6
PHANTOM
 62
     7
370
    18
100
AcDbCircle
 10
52.7531486768
 20
122.4731449202
 30
0.0
 40
0.2998713067739722
100
AcDbArc
 50
143.8102549675
 51
179.9843554681
  0
LINE
  5
379
330
1F
100
AcDbEntity
  8
0
  6
PHANTOM
 62
     7
370
    18
100
AcDbLine
 10
52.4532773813
 20
122.4732267996
 30
0.0
 11
52.3882304926
 21
122.4081799122
 31
0.0
  0
ARC
  5
37A
330
1F
100
AcDbEntity
  8
0
  6
PHANTOM
 62
     7
370
    18
100
AcDbCircle
 10
58.4136958189
 20
122.4731447209
 30
0.0
 40
0.2998719160480424
100
AcDbArc
 50
0.0156825641
 51
36.189706986
  0
ARC
  5
37B
330
1F
100
AcDbEntity
  8
0
  6
PHANTOM
 62
     7
370
    18
100
AcDbCircle
 10
60.5031486768
 20
122.4731449202
 30
0.0
 40
0.2998713067737923
100
AcDbArc
 50
143.8102549963
 51
179.9843554681
  0
LINE
  5
37C
330
1F
100
AcDbEntity
  8
0
  6
PHANTOM
 62
     7
370
    18
100
AcDbLine
 10
66.5286146125
 20
122.4081799121
 30
0.0
 11
66.4635677237
 21
122.4732267996
 31
0.0
  0
ARC
  5
37D
330
1F
100
AcDbEntity
  8
0
  6
PHANTOM
 62
     7
370
    18
100
AcDbCircle
 10
66.1636958097
 20
122.4731447185
 30
0.0
 40
0.2998719252815839
100
AcDbArc
 50
0.0156830323
 51
36.1897063575
  0
LINE
  5
37E
330
1F
100
AcDbEntity
  8
0
  6
PHANTOM
 62
     7
370
    18
100
AcDbLine
 10
51.0126246438
 20
123.5275882074
 30
0.0
 11
51.3125789525
 21
123.5275882063
 31
0.0
  0
LINE
  5
37F
330
1F
100
AcDbEntity
  8
0
  6
PHANTOM
 62
     7
370
    18
100
AcDbLine
 10
51.012624644
 20
118.9400237716
 30
0.0
 11
51.3125789523
 21
118.9400237715
 31
0.0
  0
LINE
  5
380
330
1F
100
AcDbEntity
  8
0
  6
PHANTOM
 62
     7
370
    18
100
AcDbLine
 10
51.012624644
 20
118.9400237716
 30
0.0
 11
51.0126246438
 21
123.5275882074
 31
0.0
  0
LINE
  5
381
330
1F
100
AcDbEntity
  8
0
  6
PHANTOM
 62
     7
370
    18
100
AcDbLine
 10
51.3125789524
 20
118.6802161512
 30
0.0
 11
67.6042661542
 21
118.6802161503
 31
0.0
  0
LINE
  5
382
330
1F
100
AcDbEntity
  8
0
  6
PHANTOM
 62
     7
370
    18
100
AcDbLine
 10
51.3125789523
 20
118.9400237715
 30
0.0
 11
51.3125789524
 21
118.6802161512
 31
0.0
  0
LINE
  5
383
330
1F
100
AcDbEntity
  8
0
  6
PHANTOM
 62
     7
370
    18
100
AcDbLine
 10
51.3125789493
 20
123.7873958268
 30
0.0
 11
51.3125789525
 21
123.5275882063
 31
0.0
  0
LINE
  5
384
330
1F
100
AcDbEntity
  8
0
  6
PHANTOM
 62
     7
370
    18
100
AcDbLine
 10
67.6042661504
 20
123.7873958974
 30
0.0
 11
63.4100377499
 21
123.7873958792
 31
0.0
  0
LINE
  5
385
330
1F
100
AcDbEntity
  8
0
  6
PHANTOM
 62
     7
370
    18
100
AcDbLine
 10
62.3084225525
 20
123.7873958744
 30
0.0
 11
56.6084225525
 21
123.7873958497
 31
0.0
  0
LINE
  5
386
330
1F
100
AcDbEntity
  8
0
  6
PHANTOM
 62
     7
370
    18
100
AcDbLine
 10
55.5068073707
 20
123.7873958449
 30
0.0
 11
51.3125789493
 21
123.7873958268
 31
0.0
  0
LINE
  5
387
330
1F
100
AcDbEntity
  8
0
  6
PHANTOM
 62
     7
370
    18
100
AcDbLine
 10
67.9042204613
 20
123.5275882074
 30
0.0
 11
67.9042204613
 21
118.9400237728
 31
0.0
  0
LINE
  5
388
330
1F
100
AcDbEntity
  8
0
  6
PHANTOM
 62
     7
370
    18
100
AcDbLine
 10
52.4532774232
 20
120.2624860205
 30
0.0
 11
52.4532773813
 21
122.4732267996
 31
0.0
  0
LINE
  5
389
330
1F
100
AcDbEntity
  8
0
  6
PHANTOM
 62
     7
370
    18
100
AcDbLine
 10
66.4635677237
 20
122.4732267996
 30
0.0
 11
66.463567682
 21
120.2624860208
 31
0.0
  0
ARC
  5
38A
330
1F
100
AcDbEntity
  8
0
  6
PHANTOM
 62
     7
370
    18
100
AcDbCircle
 10
51.2965495187
 20
123.5028460676
 30
0.0
 40
0.2850008913588734
100
AcDbArc
 50
86.7757868428
 51
175.0196402968
  0
ARC
  5
38B
330
1F
100
AcDbEntity
  8
0
  6
PHANTOM
 62
     7
370
    18
100
AcDbCircle
 10
51.2965495185
 20
118.9647659095
 30
0.0
 40
0.2850008907372367
100
AcDbArc
 50
184.9803593203
 51
273.2242138204
  0
ARC
  5
38C
330
1F
100
AcDbEntity
  8
0
  6
PHANTOM
 62
     7
370
    18
100
AcDbCircle
 10
67.6326535261
 20
123.9116030431
 30
0.0
 40
0.2850009192671428
100
AcDbArc
 50
4.9803483053
 51
93.2242067864
  0
LINE
  5
38D
330
1F
100
AcDbEntity
  8
0
  6
PHANTOM
 62
     7
370
    18
100
AcDbLine
 10
67.6166241255
 20
124.1961528319
 30
0.0
 11
67.6042661504
 21
123.7873958974
 31
0.0
  0
ARC
  5
38E
330
1F
100
AcDbEntity
  8
0
  6
PHANTOM
 62
     7
370
    18
100
AcDbCircle
 10
51.284191704
 20
123.9116028989
 30
0.0
 40
0.2850010560772473
100
AcDbArc
 50
86.7758194452
 51
175.0196249355
  0
LINE
  5
38F
330
1F
100
AcDbEntity
  8
0
  6
PHANTOM
 62
     7
370
    18
100
AcDbLine
 10
51.3125789493
 20
123.7873958268
 30
0.0
 11
51.3002209819
 21
124.1961528316
 31
0.0
  0
LINE
  5
390
330
1F
100
AcDbEntity
  8
0
  6
PHANTOM
 62
     7
370
    18
100
AcDbLine
 10
51.3125789524
 20
118.6802161512
 30
0.0
 11
51.3076848181
 21
118.5183359351
 31
0.0
  0
LINE
  5
391
330
1F
100
AcDbEntity
  8
0
  6
PHANTOM
 62
     7
370
    18
100
AcDbLine
 10
67.6042661542
 20
118.6802161503
 30
0.0
 11
67.6091602885
 21
118.5183359343
 31
0.0
  0
LINE
  5
392
330
1F
100
AcDbEntity
  8
0
  6
PHANTOM
 62
     7
370
    18
100
AcDbLine
 10
67.6166241255
 20
124.1961528319
 30
0.0
 11
63.5534374108
 21
124.1961527504
 31
0.0
  0
LINE
  5
393
330
1F
100
AcDbEntity
  8
0
  6
PHANTOM
 62
     7
370
    18
100
AcDbLine
 10
62.3084225525
 20
124.1961528318
 30
0.0
 11
56.6084225525
 21
124.1961528317
 31
0.0
  0
LINE
  5
394
330
1F
100
AcDbEntity
  8
0
  6
PHANTOM
 62
     7
370
    18
100
AcDbLine
 10
55.3634076942
 20
124.1961527504
 30
0.0
 11
51.3002209819
 21
124.1961528316
 31
0.0
  0
LINE
  5
395
330
1F
100
AcDbEntity
  8
0
  6
PHANTOM
 62
     7
370
    18
100
AcDbLine
 10
51.3076848181
 20
118.5183359351
 30
0.0
 11
67.6091602885
 21
118.5183359343
 31
0.0
  0
LINE
  5
396
330
1F
100
AcDbEntity
  8
0
  6
PHANTOM
 62
     7
370
    18
100
AcDbLine
 10
51.0002666716
 20
123.9363451291
 30
0.0
 11
50.957204234
 21
123.979407566
 31
0.0
  0
LINE
  5
397
330
1F
100
AcDbEntity
  8
0
  6
PHANTOM
 62
     7
370
    18
100
AcDbLine
 10
67.9596408709
 20
123.9794075661
 30
0.0
 11
67.9165784337
 21
123.9363451289
 31
0.0
  0
ARC
  5
398
330
1F
100
AcDbEntity
  8
0
  6
PHANTOM
 62
     7
370
    18
100
AcDbCircle
 10
67.6165170956
 20
123.9362380993
 30
0.0
 40
0.3000613571514036
100
AcDbArc
 50
0.0204369742
 51
89.979562396
  0
LINE
  5
399
330
1F
100
AcDbEntity
  8
0
  6
PHANTOM
 62
     7
370
    18
100
AcDbLine
 10
67.6166241286
 20
124.2362994373
 30
0.0
 11
67.6166241255
 21
124.1961528319
 31
0.0
  0
LINE
  5
39A
330
1F
100
AcDbEntity
  8
0
  6
PHANTOM
 62
     7
370
    18
100
AcDbLine
 10
51.3002209819
 20
124.1961528316
 30
0.0
 11
51.3002209768
 21
124.2362994374
 31
0.0
  0
ARC
  5
39B
330
1F
100
AcDbEntity
  8
0
  6
PHANTOM
 62
     7
370
    18
100
AcDbCircle
 10
51.3003280096
 20
123.9362380994
 30
0.0
 40
0.3000613571000786
100
AcDbArc
 50
90.0204375836
 51
179.9795630111
  0
LINE
  5
39C
330
1F
100
AcDbEntity
  8
0
  6
PHANTOM
 62
     7
370
    18
100
AcDbLine
 10
51.3002209768
 20
124.2362994374
 30
0.0
 11
55.3599260482
 21
124.2362994373
 31
0.0
  0
LINE
  5
39D
330
1F
100
AcDbEntity
  8
0
  6
PHANTOM
 62
     7
370
    18
100
AcDbLine
 10
56.6084225525
 20
124.2362994374
 30
0.0
 11
62.3084225525
 21
124.2362994374
 31
0.0
  0
LINE
  5
39E
330
1F
100
AcDbEntity
  8
0
  6
PHANTOM
 62
     7
370
    18
100
AcDbLine
 10
63.5569190568
 20
124.2362994373
 30
0.0
 11
67.6166241286
 21
124.2362994373
 31
0.0
  0
LINE
  5
39F
330
1F
100
AcDbEntity
  8
0
  6
PHANTOM
 62
     7
370
    18
100
AcDbLine
 10
51.257341269
 20
124.2791791513
 30
0.0
 11
51.3002209768
 21
124.2362994374
 31
0.0
  0
LINE
  5
3A0
330
1F
100
AcDbEntity
  8
0
  6
PHANTOM
 62
     7
370
    18
100
AcDbLine
 10
67.6166241286
 20
124.2362994373
 30
0.0
 11
67.659503836
 21
124.2791791512
 31
0.0
  0
LINE
  5
3A1
330
1F
100
AcDbEntity
  8
0
  6
PHANTOM
 62
     7
370
    18
100
AcDbLine
 10
52.7532317314
 20
122.4835139689
 30
0.0
 11
52.7532317312
 21
122.7081342201
 31
0.0
  0
ARC
  5
3A2
330
1F
100
AcDbEntity
  8
0
  6
PHANTOM
 62
     7
370
    18
100
AcDbCircle
 10
52.6800755744
 20
120.2384151575
 30
0.0
 40
2.246290385478682
100
AcDbArc
 50
88.1336872661
 51
95.7947802205
  0
LINE
  5
3A3
330
1F
100
AcDbEntity
  8
0
  6
PHANTOM
 62
     7
370
    18
100
AcDbLine
 10
60.5032317314
 20
122.4835139689
 30
0.0
 11
60.5032317312
 21
122.7081342201
 31
0.0
  0
ARC
  5
3A4
330
1F
100
AcDbEntity
  8
0
  6
PHANTOM
 62
     7
370
    18
100
AcDbCircle
 10
60.4300755744
 20
120.2384151576
 30
0.0
 40
2.246290385470804
100
AcDbArc
 50
88.1336872661
 51
95.7947802205
  0
ARC
  5
3A5
330
1F
100
AcDbEntity
  8
0
  6
PHANTOM
 62
     7
370
    18
100
AcDbCircle
 10
66.2367700545
 20
120.2384301159
 30
0.0
 40
2.246275450694431
100
AcDbArc
 50
84.2051945504
 51
91.8663385233
  0
LINE
  5
3A6
330
1F
100
AcDbEntity
  8
0
  6
PHANTOM
 62
     7
370
    18
100
AcDbLine
 10
66.1636133732
 20
122.7081342201
 30
0.0
 11
66.1636133733
 21
122.4835139674
 31
0.0
  0
ARC
  5
3A7
330
1F
100
AcDbEntity
  8
0
  6
PHANTOM
 62
     7
370
    18
100
AcDbCircle
 10
58.4867700545
 20
120.2384301159
 30
0.0
 40
2.246275450694403
100
AcDbArc
 50
84.2051945504
 51
91.8663385233
  0
LINE
  5
3A8
330
1F
100
AcDbEntity
  8
0
  6
PHANTOM
 62
     7
370
    18
100
AcDbLine
 10
58.4136133732
 20
122.7081342201
 30
0.0
 11
58.4136133733
 21
122.4835139674
 31
0.0
  0
LINE
  5
3A9
330
1F
100
AcDbEntity
  8
0
  6
PHANTOM
 62
     7
370
    18
100
AcDbLine
 10
52.7532317314
 20
122.4835139689
 30
0.0
 11
56.1059547919
 21
122.483513968
 31
0.0
  0
LINE
  5
3AA
330
1F
100
AcDbEntity
  8
0
  6
PHANTOM
 62
     7
370
    18
100
AcDbLine
 10
56.6084225525
 20
122.4835139679
 30
0.0
 11
58.4136133733
 21
122.4835139674
 31
0.0
  0
LINE
  5
3AB
330
1F
100
AcDbEntity
  8
0
  6
PHANTOM
 62
     7
370
    18
100
AcDbLine
 10
60.5032317314
 20
122.4835139689
 30
0.0
 11
62.3084225525
 21
122.4835139684
 31
0.0
  0
LINE
  5
3AC
330
1F
100
AcDbEntity
  8
0
  6
PHANTOM
 62
     7
370
    18
100
AcDbLine
 10
62.8108903132
 20
122.4835139683
 30
0.0
 11
66.1636133733
 21
122.4835139674
 31
0.0
  0
LINE
  5
3AD
330
1F
100
AcDbEntity
  8
0
  6
PHANTOM
 62
     7
370
    18
100
AcDbLine
 10
52.7532317316
 20
120.2727731453
 30
0.0
 11
52.7532317314
 21
122.4835139689
 31
0.0
  0
ARC
  5
3AE
330
1F
100
AcDbEntity
  8
0
  6
PHANTOM
 62
     7
370
    18
100
AcDbCircle
 10
52.6800761636
 20
118.0276484243
 30
0.0
 40
2.246316262279113
100
AcDbArc
 50
88.133723806
 51
95.7947272688
  0
LINE
  5
3AF
330
1F
100
AcDbEntity
  8
0
  6
PHANTOM
 62
     7
370
    18
100
AcDbLine
 10
60.5032317316
 20
120.2727731453
 30
0.0
 11
60.5032317314
 21
122.4835139689
 31
0.0
  0
ARC
  5
3B0
330
1F
100
AcDbEntity
  8
0
  6
PHANTOM
 62
     7
370
    18
100
AcDbCircle
 10
60.4300761636
 20
118.0276484243
 30
0.0
 40
2.246316262279113
100
AcDbArc
 50
88.133723806
 51
95.7947272688
  0
LINE
  5
3B1
330
1F
100
AcDbEntity
  8
0
  6
PHANTOM
 62
     7
370
    18
100
AcDbLine
 10
58.4136133733
 20
122.4835139674
 30
0.0
 11
58.4136133735
 21
120.2727731454
 31
0.0
  0
ARC
  5
3B2
330
1F
100
AcDbEntity
  8
0
  6
PHANTOM
 62
     7
370
    18
100
AcDbCircle
 10
58.4867689386
 20
118.0276482917
 30
0.0
 40
2.246316394678253
100
AcDbArc
 50
84.2052729975
 51
91.8662760115
  0
LINE
  5
3B3
330
1F
100
AcDbEntity
  8
0
  6
PHANTOM
 62
     7
370
    18
100
AcDbLine
 10
66.1636133733
 20
122.4835139674
 30
0.0
 11
66.1636133735
 21
120.2727731454
 31
0.0
  0
ARC
  5
3B4
330
1F
100
AcDbEntity
  8
0
  6
PHANTOM
 62
     7
370
    18
100
AcDbCircle
 10
66.2367689386
 20
118.0276482917
 30
0.0
 40
2.246316394679148
100
AcDbArc
 50
84.2052729975
 51
91.8662760115
  0
LINE
  5
3B5
330
1F
100
AcDbEntity
  8
0
  6
PHANTOM
 62
     7
370
    18
100
AcDbLine
 10
52.7532317317
 20
120.2623032966
 30
0.0
 11
52.7532317325
 21
119.9627144361
 31
0.0
  0
LINE
  5
3B6
330
1F
100
AcDbEntity
  8
0
  6
PHANTOM
 62
     7
370
    18
100
AcDbLine
 10
52.7532317316
 20
120.2727731453
 30
0.0
 11
52.7532317317
 21
120.2623032966
 31
0.0
  0
LINE
  5
3B7
330
1F
100
AcDbEntity
  8
0
  6
PHANTOM
 62
     7
370
    18
100
AcDbLine
 10
60.5032317317
 20
120.2623032966
 30
0.0
 11
60.5032317325
 21
119.9627144361
 31
0.0
  0
LINE
  5
3B8
330
1F
100
AcDbEntity
  8
0
  6
PHANTOM
 62
     7
370
    18
100
AcDbLine
 10
60.5032317316
 20
120.2727731453
 30
0.0
 11
60.5032317317
 21
120.2623032966
 31
0.0
  0
LINE
  5
3B9
330
1F
100
AcDbEntity
  8
0
  6
PHANTOM
 62
     7
370
    18
100
AcDbLine
 10
58.4136133735
 20
120.262303299
 30
0.0
 11
58.4136133735
 21
120.2727731454
 31
0.0
  0
LINE
  5
3BA
330
1F
100
AcDbEntity
  8
0
  6
PHANTOM
 62
     7
370
    18
100
AcDbLine
 10
58.4136133725
 20
119.9627144363
 30
0.0
 11
58.4136133735
 21
120.262303299
 31
0.0
  0
LINE
  5
3BB
330
1F
100
AcDbEntity
  8
0
  6
PHANTOM
 62
     7
370
    18
100
AcDbLine
 10
66.1636133725
 20
119.9627144363
 30
0.0
 11
66.1636133735
 21
120.2623032937
 31
0.0
  0
LINE
  5
3BC
330
1F
100
AcDbEntity
  8
0
  6
PHANTOM
 62
     7
370
    18
100
AcDbLine
 10
66.1636133735
 20
120.2623032937
 30
0.0
 11
66.1636133735
 21
120.2727731454
 31
0.0
  0
LINE
  5
3BD
330
1F
100
AcDbEntity
  8
0
  6
PHANTOM
 62
     7
370
    18
100
AcDbLine
 10
58.4136133735
 20
120.2727731454
 30
0.0
 11
52.7532317316
 21
120.2727731453
 31
0.0
  0
LINE
  5
3BE
330
1F
100
AcDbEntity
  8
0
  6
PHANTOM
 62
     7
370
    18
100
AcDbLine
 10
66.1636133735
 20
120.2727731454
 30
0.0
 11
60.5032317316
 21
120.2727731453
 31
0.0
  0
LINE
  5
3BF
330
1F
100
AcDbEntity
  8
9
  6
CENTERX2
 62
     7
370
    18
100
AcDbLine
 10
59.4584225523
 20
116.4586941686
 30
0.0
 11
59.4584225531
 21
145.4897079391
 31
0.0
  0
LINE
  5
3C0
330
1F
100
AcDbEntity
  8
0
  6
Continuous
 62
     7
370
    25
100
AcDbLine
 10
205.9092358022
 20
47.6560301416
 30
0.0
 11
205.9092358022
 21
51.6560301416
 31
0.0
  0
LINE
  5
3C1
330
1F
100
AcDbEntity
  8
0
  6
Continuous
 62
     7
370
    25
100
AcDbLine
 10
197.7092358022
 20
51.6560301416
 30
0.0
 11
197.7092358022
 21
47.6560301416
 31
0.0
  0
LINE
  5
3C2
330
1F
100
AcDbEntity
  8
0
  6
Continuous
 62
     7
370
    25
100
AcDbLine
 10
193.3634378934
 20
82.0507944196
 30
0.0
 11
193.3494738415
 21
82.8507944193
 31
0.0
  0
ELLIPSE
  5
3C3
330
1F
100
AcDbEntity
  8
0
  6
Continuous
 62
     7
370
    25
100
AcDbEllipse
 10
193.6494281501
 20
82.8560301414
 30
0.0
 11
0.01047264020317584
 21
-0.5999771554286041
 31
0.0
210
0.0
220
0.0
230
0.9999999999999999
 40
0.4999428824
 41
4.712388980751584
 42
5.750860212706246
  0
ELLIPSE
  5
3C4
330
1F
100
AcDbEntity
  8
0
  6
Continuous
 62
     7
370
    25
100
AcDbEllipse
 10
193.6584980679
 20
82.3364148995
 30
0.0
 11
0.2945324273167103
 21
-0.2894362102230588
 31
0.0
210
0.0
220
0.0
230
1.0
 40
0.2679138489
 41
4.446226430900941
 42
4.969825205589555
  0
ELLIPSE
  5
3C5
330
1F
100
AcDbEntity
  8
0
  6
Continuous
 62
     7
370
    25
100
AcDbEllipse
 10
209.9599735365
 20
82.3364148995
 30
0.0
 11
0.2945324272759251
 21
0.2894362101826857
 31
0.0
210
0.0
220
0.0
230
1.0
 40
0.2679138489
 41
4.45495274977594
 42
4.978551528651757
  0
LINE
  5
3C6
330
1F
100
AcDbEntity
  8
0
  6
Continuous
 62
     7
370
    25
100
AcDbLine
 10
212.3211415705
 20
85.4179359124
 30
0.0
 11
210.3138073839
 21
85.4179359124
 31
0.0
  0
LINE
  5
3C7
330
1F
100
AcDbEntity
  8
0
  6
Continuous
 62
     7
370
    25
100
AcDbLine
 10
210.3138073839
 20
85.4179359124
 30
0.0
 11
210.2689977625
 21
82.8507944203
 31
0.0
  0
ELLIPSE
  5
3C8
330
1F
100
AcDbEntity
  8
0
  6
Continuous
 62
     7
370
    25
100
AcDbEllipse
 10
209.9690434543
 20
82.8560301414
 30
0.0
 11
0.01047264020093053
 21
0.5999771552620388
 31
0.0
210
0.0
220
0.0
230
1.0
 40
0.4999428824
 41
3.673917746857167
 42
4.71238898160756
  0
LINE
  5
3C9
330
1F
100
AcDbEntity
  8
0
  6
Continuous
 62
     7
370
    25
100
AcDbLine
 10
193.3494738415
 20
82.8507944193
 30
0.0
 11
193.3046642205
 21
85.4179359124
 31
0.0
  0
LINE
  5
3CA
330
1F
100
AcDbEntity
  8
0
  6
Continuous
 62
     7
370
    25
100
AcDbLine
 10
193.3046642205
 20
85.4179359124
 30
0.0
 11
191.2973300339
 21
85.4179359124
 31
0.0
  0
LINE
  5
3CB
330
1F
100
AcDbEntity
  8
0
  6
Continuous
 62
     7
370
    25
100
AcDbLine
 10
191.2973300339
 20
85.4179359124
 30
0.0
 11
191.2973300304
 21
86.9182404994
 31
0.0
  0
ELLIPSE
  5
3CC
330
1F
100
AcDbEntity
  8
0
  6
Continuous
 62
     7
370
    25
100
AcDbEllipse
 10
191.7976348027
 20
86.9176311411
 30
0.0
 11
-0.3539842726659685
 21
0.3539842726659543
 31
0.0
210
0.0
220
0.0
230
0.9999999999999998
 40
0.998782766
 41
5.498396128045612
 42
7.067974483583582
  0
LINE
  5
3CD
330
1F
100
AcDbEntity
  8
0
  6
Continuous
 62
     7
370
    25
100
AcDbLine
 10
191.7970254457
 20
87.4179359127
 30
0.0
 11
211.8214461575
 21
87.4179359126
 31
0.0
  0
ELLIPSE
  5
3CE
330
1F
100
AcDbEntity
  8
0
  6
Continuous
 62
     7
370
    25
100
AcDbEllipse
 10
211.8208368015
 20
86.9176311409
 30
0.0
 11
0.3539842720141166
 21
0.3539842720141024
 31
0.0
210
0.0
220
0.0
230
0.9999999999999998
 40
0.998782766
 41
5.498396130819772
 42
7.067974488231171
  0
LINE
  5
3CF
330
1F
100
AcDbEntity
  8
0
  6
Continuous
 62
     7
370
    25
100
AcDbLine
 10
212.3211415734
 20
86.9182404993
 30
0.0
 11
212.3211415705
 21
85.4179359124
 31
0.0
  0
LINE
  5
3D0
330
1F
100
AcDbEntity
  8
0
  6
Continuous
 62
     7
370
    25
100
AcDbLine
 10
210.2689977625
 20
82.8507944203
 30
0.0
 11
210.2550337107
 21
82.0507944183
 31
0.0
  0
ELLIPSE
  5
3D1
330
1F
100
AcDbEntity
  8
0
  6
Continuous
 62
     7
370
    25
100
AcDbEllipse
 10
193.4906133522
 20
85.2258716805
 30
0.0
 11
2.0
 21
0.0
 31
0.0
210
0.0
220
0.0
230
1.0
 40
0.0349207695
 41
3.176499237550662
 42
4.621572909914161
  0
ELLIPSE
  5
3D2
330
1F
100
AcDbEntity
  8
0
  6
Continuous
 62
     7
370
    25
100
AcDbEllipse
 10
210.1278582522
 20
85.2258716805
 30
0.0
 11
2.0
 21
0.0
 31
0.0
210
0.0
220
0.0
230
1.0
 40
0.0349207695
 41
4.803205050855225
 42
6.248278723343907
  0
LINE
  5
3D3
330
1F
100
AcDbEntity
  8
0
  6
Continuous
 62
     7
370
    25
100
AcDbLine
 10
191.2973300339
 20
85.4179359124
 30
0.0
 11
191.4918316967
 21
85.223434246
 31
0.0
  0
LINE
  5
3D4
330
1F
100
AcDbEntity
  8
0
  6
Continuous
 62
     7
370
    25
100
AcDbLine
 10
212.1266399077
 20
85.223434246
 30
0.0
 11
212.3211415705
 21
85.4179359124
 31
0.0
  0
ARC
  5
3D5
330
1F
100
AcDbEntity
  8
0
  6
Continuous
 62
     7
370
    25
100
AcDbCircle
 10
209.9550794021
 20
82.0560301419
 30
0.0
 40
0.3000000001546681
100
AcDbArc
 50
270.0000000417
 51
358.9999996851
  0
ARC
  5
3D6
330
1F
100
AcDbEntity
  8
0
  6
Continuous
 62
     7
370
    25
100
AcDbCircle
 10
193.6633922022
 20
82.0560301416
 30
0.0
 40
0.3000000002271077
100
AcDbArc
 50
181.0000000085
 51
269.9999999923
  0
LINE
  5
3D7
330
1F
100
AcDbEntity
  8
0
  6
Continuous
 62
     7
370
    25
100
AcDbLine
 10
193.6633922021
 20
81.7560301416
 30
0.0
 11
209.9550794024
 21
81.7560301417
 31
0.0
  0
LINE
  5
3D8
330
1F
100
AcDbEntity
  8
0
  6
Continuous
 62
     7
370
    25
100
AcDbLine
 10
198.4592358022
 20
47.6560301416
 30
0.0
 11
198.4592358022
 21
51.6560301416
 31
0.0
  0
LINE
  5
3D9
330
1F
100
AcDbEntity
  8
0
  6
Continuous
 62
     7
370
    25
100
AcDbLine
 10
198.4592358022
 20
51.6560301416
 30
0.0
 11
198.9592358022
 21
51.6560301416
 31
0.0
  0
LINE
  5
3DA
330
1F
100
AcDbEntity
  8
0
  6
Continuous
 62
     7
370
    25
100
AcDbLine
 10
198.9592358022
 20
47.6560301416
 30
0.0
 11
198.9592358022
 21
51.6560301416
 31
0.0
  0
LINE
  5
3DB
330
1F
100
AcDbEntity
  8
0
  6
Continuous
 62
     7
370
    25
100
AcDbLine
 10
198.4592358022
 20
47.6560301416
 30
0.0
 11
198.9592358022
 21
47.6560301416
 31
0.0
  0
LINE
  5
3DC
330
1F
100
AcDbEntity
  8
0
  6
Continuous
 62
     7
370
    25
100
AcDbLine
 10
197.7823084052
 20
51.6560301416
 30
0.0
 11
198.4592358022
 21
51.6560301416
 31
0.0
  0
LINE
  5
3DD
330
1F
100
AcDbEntity
  8
0
  6
Continuous
 62
     7
370
    25
100
AcDbLine
 10
198.4592358022
 20
47.6560301416
 30
0.0
 11
197.7823084052
 21
47.6560301416
 31
0.0
  0
LINE
  5
3DE
330
1F
100
AcDbEntity
  8
0
  6
Continuous
 62
     7
370
    25
100
AcDbLine
 10
205.1592358022
 20
47.6560301416
 30
0.0
 11
205.8361631992
 21
47.6560301416
 31
0.0
  0
LINE
  5
3DF
330
1F
100
AcDbEntity
  8
0
  6
Continuous
 62
     7
370
    25
100
AcDbLine
 10
205.1592358022
 20
47.6560301416
 30
0.0
 11
205.1592358022
 21
51.6560301416
 31
0.0
  0
LINE
  5
3E0
330
1F
100
AcDbEntity
  8
0
  6
Continuous
 62
     7
370
    25
100
AcDbLine
 10
205.8361631992
 20
51.6560301416
 30
0.0
 11
205.1592358022
 21
51.6560301416
 31
0.0
  0
LINE
  5
3E1
330
1F
100
AcDbEntity
  8
0
  6
Continuous
 62
     7
370
    25
100
AcDbLine
 10
204.6592358022
 20
47.6560301416
 30
0.0
 11
205.1592358022
 21
47.6560301416
 31
0.0
  0
LINE
  5
3E2
330
1F
100
AcDbEntity
  8
0
  6
Continuous
 62
     7
370
    25
100
AcDbLine
 10
204.6592358022
 20
47.6560301416
 30
0.0
 11
204.6592358022
 21
51.6560301416
 31
0.0
  0
LINE
  5
3E3
330
1F
100
AcDbEntity
  8
0
  6
Continuous
 62
     7
370
    25
100
AcDbLine
 10
204.6592358022
 20
51.6560301416
 30
0.0
 11
205.1592358022
 21
51.6560301416
 31
0.0
  0
LINE
  5
3E4
330
1F
100
AcDbEntity
  8
0
  6
Continuous
 62
     7
370
    25
100
AcDbLine
 10
205.8361631992
 20
47.6560301416
 30
0.0
 11
205.9092358022
 21
47.6560301416
 31
0.0
  0
LINE
  5
3E5
330
1F
100
AcDbEntity
  8
0
  6
Continuous
 62
     7
370
    25
100
AcDbLine
 10
205.8361631992
 20
51.6560301416
 30
0.0
 11
205.9092358022
 21
51.6560301416
 31
0.0
  0
LINE
  5
3E6
330
1F
100
AcDbEntity
  8
0
  6
Continuous
 62
     7
370
    25
100
AcDbLine
 10
197.7092358022
 20
51.6560301416
 30
0.0
 11
197.7823084052
 21
51.6560301416
 31
0.0
  0
LINE
  5
3E7
330
1F
100
AcDbEntity
  8
0
  6
Continuous
 62
     7
370
    25
100
AcDbLine
 10
197.7823084052
 20
47.6560301416
 30
0.0
 11
197.7092358022
 21
47.6560301416
 31
0.0
  0
LINE
  5
3E8
330
1F
100
AcDbEntity
  8
0
  6
Continuous
 62
     7
370
    25
100
AcDbLine
 10
202.2092358022
 20
53.5560301416
 30
0.0
 11
202.2092358022
 21
55.2560301416
 31
0.0
  0
LINE
  5
3E9
330
1F
100
AcDbEntity
  8
0
  6
Continuous
 62
     7
370
    25
100
AcDbLine
 10
201.4092358022
 20
55.2560301416
 30
0.0
 11
201.4092358022
 21
53.5560301416
 31
0.0
  0
SPLINE
  5
3EA
330
1F
100
AcDbEntity
  8
0
  6
Continuous
 62
     7
370
    25
100
AcDbSpline
210
0.0
220
0.0
230
1.0
 70
     8
 71
     3
 72
    29
 73
    25
 74
     0
 42
0.00000001
 43
0.00000001
 40
3.14159265358979
 40
3.14159265358979
 40
3.14159265358979
 40
3.14159265358979
 40
3.53429173528852
 40
3.53429173528852
 40
3.53429173528852
 40
3.92699081698724
 40
3.92699081698724
 40
3.92699081698724
 40
4.31968989868597
 40
4.31968989868597
 40
4.31968989868597
 40
4.712388980384691
 40
4.712388980384691
 40
4.712388980384691
 40
5.105088062083409
 40
5.105088062083409
 40
5.105088062083409
 40
5.497787143782141
 40
5.497787143782141
 40
5.497787143782141
 40
5.89048622548086
 40
5.89048622548086
 40
5.89048622548086
 40
6.283185307179589
 40
6.283185307179589
 40
6.283185307179589
 40
6.283185307179589
 10
201.4092358021834
 20
53.55603014157613
 30
0.0
 10
201.4092358021834
 20
53.50367026357613
 30
0.0
 10
201.4196467311835
 20
53.45133098757614
 30
0.0
 10
201.4396839891835
 20
53.40295676857613
 30
0.0
 10
201.4597212471834
 20
53.35458254957613
 30
0.0
 10
201.4893690651834
 20
53.31021145357613
 30
0.0
 10
201.5263930901834
 20
53.27318742957614
 30
0.0
 10
201.5634171141835
 20
53.23616340457614
 30
0.0
 10
201.6077882101835
 20
53.20651558657615
 30
0.0
 10
201.6561624291835
 20
53.18647832857614
 30
0.0
 10
201.7045366481834
 20
53.16644107057613
 30
0.0
 10
201.7568759241834
 20
53.15603014157613
 30
0.0
 10
201.8092358021835
 20
53.15603014157613
 30
0.0
 10
201.8615956801835
 20
53.15603014157613
 30
0.0
 10
201.9139349561835
 20
53.16644107057613
 30
0.0
 10
201.9623091751835
 20
53.18647832857614
 30
0.0
 10
202.0106833941835
 20
53.20651558657615
 30
0.0
 10
202.0550544901835
 20
53.23616340457614
 30
0.0
 10
202.0920785141834
 20
53.27318742957614
 30
0.0
 10
202.1291025391835
 20
53.31021145357613
 30
0.0
 10
202.1587503571834
 20
53.35458254957613
 30
0.0
 10
202.1787876151835
 20
53.40295676857613
 30
0.0
 10
202.1988248731834
 20
53.45133098757614
 30
0.0
 10
202.2092358021835
 20
53.50367026357613
 30
0.0
 10
202.2092358021835
 20
53.55603014157613
 30
0.0
  0
SPLINE
  5
3EB
330
1F
100
AcDbEntity
  8
0
  6
Continuous
 62
     7
370
    25
100
AcDbSpline
210
0.0
220
0.0
230
1.0
 70
     8
 71
     3
 72
    29
 73
    25
 74
     0
 42
0.00000001
 43
0.00000001
 40
0.0
 40
0.0
 40
0.0
 40
0.0
 40
0.392699081698724
 40
0.392699081698724
 40
0.392699081698724
 40
0.785398163397448
 40
0.785398163397448
 40
0.785398163397448
 40
1.17809724509617
 40
1.17809724509617
 40
1.17809724509617
 40
1.5707963267949
 40
1.5707963267949
 40
1.5707963267949
 40
1.96349540849362
 40
1.96349540849362
 40
1.96349540849362
 40
2.35619449019234
 40
2.35619449019234
 40
2.35619449019234
 40
2.748893571891071
 40
2.748893571891071
 40
2.748893571891071
 40
3.141592654000035
 40
3.141592654000035
 40
3.141592654000035
 40
3.141592654000035
 10
202.2092358021835
 20
55.25603014157614
 30
0.0
 10
202.2092358021835
 20
55.30839001957613
 30
0.0
 10
202.1988248731834
 20
55.36072929557614
 30
0.0
 10
202.1787876151835
 20
55.40910351457613
 30
0.0
 10
202.1587503571834
 20
55.45747773357613
 30
0.0
 10
202.1291025391835
 20
55.50184882957613
 30
0.0
 10
202.0920785141834
 20
55.53887285357613
 30
0.0
 10
202.0550544901835
 20
55.57589687857615
 30
0.0
 10
202.0106833941835
 20
55.60554469657614
 30
0.0
 10
201.9623091751835
 20
55.62558195457613
 30
0.0
 10
201.9139349561835
 20
55.64561921257613
 30
0.0
 10
201.8615956801835
 20
55.65603014157613
 30
0.0
 10
201.8092358021835
 20
55.65603014157613
 30
0.0
 10
201.7568759241834
 20
55.65603014157613
 30
0.0
 10
201.7045366481834
 20
55.64561921257613
 30
0.0
 10
201.6561624291835
 20
55.62558195457613
 30
0.0
 10
201.6077882101835
 20
55.60554469657614
 30
0.0
 10
201.5634171141835
 20
55.57589687857615
 30
0.0
 10
201.5263930901834
 20
55.53887285357613
 30
0.0
 10
201.4893690651834
 20
55.50184882957613
 30
0.0
 10
201.4597212471834
 20
55.45747773357613
 30
0.0
 10
201.4396839891835
 20
55.40910351457613
 30
0.0
 10
201.4196467311835
 20
55.36072929557614
 30
0.0
 10
201.4092358021834
 20
55.30839001957613
 30
0.0
 10
201.4092358021834
 20
55.25603014157614
 30
0.0
  0
LINE
  5
3EC
330
1F
100
AcDbEntity
  8
0
  6
Continuous
 62
     7
370
    25
100
AcDbLine
 10
194.2092358022
 20
41.6125023185
 30
0.0
 11
194.2092358022
 21
47.6560301416
 31
0.0
  0
LINE
  5
3ED
330
1F
100
AcDbEntity
  8
0
  6
Continuous
 62
     7
370
    25
100
AcDbLine
 10
209.4092358022
 20
47.6560301416
 30
0.0
 11
209.409235802
 21
41.6125023198
 31
0.0
  0
LINE
  5
3EE
330
1F
100
AcDbEntity
  8
0
  6
Continuous
 62
     7
370
    25
100
AcDbLine
 10
194.2092358022
 20
47.6560301416
 30
0.0
 11
194.209235801
 21
81.7560301416
 31
0.0
  0
LINE
  5
3EF
330
1F
100
AcDbEntity
  8
0
  6
Continuous
 62
     7
370
    25
100
AcDbLine
 10
209.4092358034
 20
81.7560301417
 30
0.0
 11
209.4092358022
 21
47.6560301416
 31
0.0
  0
LINE
  5
3F0
330
1F
100
AcDbEntity
  8
0
  6
Continuous
 62
     7
370
    25
100
AcDbLine
 10
194.2092358022
 20
41.6125023185
 30
0.0
 11
194.2092358016
 21
29.0335515623
 31
0.0
  0
LINE
  5
3F1
330
1F
100
AcDbEntity
  8
0
  6
Continuous
 62
     7
370
    25
100
AcDbLine
 10
209.409235802
 20
41.6125023198
 30
0.0
 11
209.4092358019
 21
29.0335515642
 31
0.0
  0
ELLIPSE
  5
3F2
330
1F
100
AcDbEntity
  8
0
  6
Continuous
 62
     7
370
    25
100
AcDbEllipse
 10
206.4074071689
 20
29.0361815782
 30
0.0
 11
3.001826072617547
 21
-0.005450219146226232
 31
0.0
210
0.0
220
0.0
230
1.0
 40
0.7193381225
 41
5.288718886327634
 42
6.284491362296377
  0
LINE
  5
3F3
330
1F
100
AcDbEntity
  8
0
  6
Continuous
 62
     7
370
    25
100
AcDbLine
 10
208.0399660985
 20
27.4523186112
 30
0.0
 11
208.0399660994
 21
27.2226834351
 31
0.0
  0
SPLINE
  5
3F4
330
1F
100
AcDbEntity
  8
0
  6
Continuous
 62
     7
370
    25
100
AcDbSpline
210
0.0
220
0.0
230
1.0
 70
     8
 71
     3
 72
    14
 73
    10
 74
     0
 42
0.00000001
 43
0.00000001
 40
0.0
 40
0.0
 40
0.0
 40
0.0
 40
0.2500000000000001
 40
0.2500000000000001
 40
0.5000000000000001
 40
0.5000000000000001
 40
0.7500000000000001
 40
0.7500000000000001
 40
1.0
 40
1.0
 40
1.0
 40
1.0
 10
195.5785055032921
 20
27.4523186079711
 30
0.0
 10
196.6028645654377
 20
27.61424923459091
 30
0.0
 10
197.6389795358641
 20
27.73598815444803
 30
0.0
 10
199.7211591677093
 20
27.8981820550936
 30
0.0
 10
200.7647219997595
 20
27.93861853526033
 30
0.0
 10
202.8567712050877
 20
27.93854034491866
 30
0.0
 10
203.9061075182386
 20
27.89766945407388
 30
0.0
 10
205.9839130437459
 20
27.73547017403515
 30
0.0
 10
207.0156004449517
 20
27.61425027694067
 30
0.0
 10
208.0399661001288
 20
27.45231860812064
 30
0.0
  0
LINE
  5
3F5
330
1F
100
AcDbEntity
  8
0
  6
Continuous
 62
     7
370
    25
100
AcDbLine
 10
195.5785055036
 20
27.2226834344
 30
0.0
 11
195.5785055035
 21
27.4523186085
 31
0.0
  0
ELLIPSE
  5
3F6
330
1F
100
AcDbEntity
  8
0
  6
Continuous
 62
     7
370
    25
100
AcDbEllipse
 10
197.2110644347
 20
29.0361815778
 30
0.0
 11
3.00182607306914
 21
0.005450219147164148
 31
0.0
210
0.0
220
0.0
230
1.0
 40
0.7193381225
 41
3.140286599159485
 42
4.136059074349062
  0
ELLIPSE
  5
3F7
330
1F
100
AcDbEntity
  8
0
  6
Continuous
 62
     7
370
    25
100
AcDbEllipse
 10
201.8092358022
 20
7.1693177404
 30
0.0
 11
28.08000000061486
 21
0.0
 31
0.0
210
0.0
220
0.0
230
1.0
 40
0.7197782698
 41
1.406577185637575
 42
1.735015467931298
  0
SPLINE
  5
3F8
330
1F
100
AcDbEntity
  8
0
  6
Continuous
 62
     7
370
    25
100
AcDbSpline
210
0.0
220
0.0
230
1.0
 70
     8
 71
     3
 72
    12
 73
     8
 74
     0
 42
0.00000001
 43
0.00000001
 40
0.0
 40
0.0
 40
0.0
 40
0.0
 40
0.5000000000000004
 40
0.5000000000000004
 40
0.7500000000000002
 40
0.7500000000000002
 40
1.0
 40
1.0
 40
1.0
 40
1.0
 10
195.5785055037175
 20
27.22268343413689
 30
0.0
 10
195.8235312174531
 20
27.14971019059844
 30
0.0
 10
196.0845140409245
 20
27.10462461798556
 30
0.0
 10
196.4995159030403
 20
27.07589587668033
 30
0.0
 10
196.6422604177576
 20
27.07302237560236
 30
0.0
 10
196.928547953256
 20
27.08082411590114
 30
0.0
 10
197.0729553931929
 20
27.09139500275944
 30
0.0
 10
197.2186604697628
 20
27.10877404956102
 30
0.0
  0
SPLINE
  5
3F9
330
1F
100
AcDbEntity
  8
0
  6
Continuous
 62
     7
370
    25
100
AcDbSpline
210
0.0
220
0.0
230
1.0
 70
     8
 71
     3
 72
    12
 73
     8
 74
     0
 42
0.00000001
 43
0.00000001
 40
0.0
 40
0.0
 40
0.0
 40
0.0
 40
0.5000000000000007
 40
0.5000000000000007
 40
0.7500000000000003
 40
0.7500000000000003
 40
1.0
 40
1.0
 40
1.0
 40
1.0
 10
206.3998111339696
 20
27.10877405021767
 30
0.0
 10
206.6912350126057
 20
27.07401431951522
 30
0.0
 10
206.9751973087365
 20
27.06629908503934
 30
0.0
 10
207.3904210252948
 20
27.09451576569366
 30
0.0
 10
207.5273328781172
 20
27.11082320902222
 30
0.0
 10
207.7903998888952
 20
27.15665705609065
 30
0.0
 10
207.9174580555547
 20
27.18619824643221
 30
0.0
 10
208.0399660982365
 20
27.22268343437511
 30
0.0
  0
LWPOLYLINE
  5
3FA
330
1F
100
AcDbEntity
  8
0
  6
PHANTOM
 62
     7
370
    18
100
AcDbPolyline
 90
        9
 70
   128
 43
0.0
 10
193.6633922004
 20
81.9060301416
 10
193.6051927369
 20
81.9081186103
 10
193.5492051441
 20
81.915828457
 10
193.4975572305
 20
81.9288666688
 10
193.4522118753
 20
81.9467377286
 10
193.4148924287
 20
81.9687624467
 10
193.3870172162
 20
81.9941037737
 10
193.3696456355
 20
82.0217986123
 10
193.3634378934
 20
82.0507944196
  0
LINE
  5
3FB
330
1F
100
AcDbEntity
  8
0
  6
PHANTOM
 62
     7
370
    18
100
AcDbLine
 10
193.6633922004
 20
81.9060301416
 30
0.0
 11
193.6584980662
 21
82.186414901
 31
0.0
  0
LINE
  5
3FC
330
1F
100
AcDbEntity
  8
0
  6
PHANTOM
 62
     7
370
    18
100
AcDbLine
 10
210.112258154
 20
82.3364149006
 30
0.0
 11
193.50621345
 21
82.3364149009
 31
0.0
  0
LINE
  5
3FD
330
1F
100
AcDbEntity
  8
0
  6
PHANTOM
 62
     7
370
    18
100
AcDbLine
 10
209.9599735365
 20
82.1864148996
 30
0.0
 11
193.6584980662
 21
82.186414901
 31
0.0
  0
LWPOLYLINE
  5
3FE
330
1F
100
AcDbEntity
  8
0
  6
PHANTOM
 62
     7
370
    18
100
AcDbPolyline
 90
        9
 70
   128
 43
0.0
 10
210.2550337107
 20
82.0507944183
 10
210.2488259683
 20
82.0217986104
 10
210.2314543872
 20
81.9941037719
 10
210.2035791746
 20
81.9687624451
 10
210.1662597277
 20
81.9467377273
 10
210.1209143723
 20
81.9288666678
 10
210.0692664587
 20
81.9158284563
 10
210.0132788659
 20
81.90811861
 10
209.9550794023
 20
81.9060301405
  0
LINE
  5
3FF
330
1F
100
AcDbEntity
  8
0
  6
PHANTOM
 62
     7
370
    18
100
AcDbLine
 10
209.9550794023
 20
81.9060301405
 30
0.0
 11
209.9599735365
 21
82.1864148996
 31
0.0
  0
LINE
  5
400
330
1F
100
AcDbEntity
  8
0
  6
PHANTOM
 62
     7
370
    18
100
AcDbLine
 10
209.9550794023
 20
81.9060301405
 30
0.0
 11
193.6633922004
 21
81.9060301416
 31
0.0
  0
LINE
  5
401
330
1F
100
AcDbEntity
  8
0
  6
PHANTOM
 62
     7
370
    18
100
AcDbLine
 10
209.9550794024
 20
81.7560301417
 30
0.0
 11
209.9550794023
 21
81.9060301405
 31
0.0
  0
LINE
  5
402
330
1F
100
AcDbEntity
  8
0
  6
PHANTOM
 62
     7
370
    18
100
AcDbLine
 10
193.6633922021
 20
81.7560301416
 30
0.0
 11
193.6633922004
 21
81.9060301416
 31
0.0
  0
LINE
  5
403
330
1F
100
AcDbEntity
  8
0
  6
PHANTOM
 62
     7
370
    18
100
AcDbLine
 10
197.7823084052
 20
47.6560301416
 30
0.0
 11
197.7823084052
 21
51.6560301416
 31
0.0
  0
LINE
  5
404
330
1F
100
AcDbEntity
  8
0
  6
PHANTOM
 62
     7
370
    18
100
AcDbLine
 10
205.8361631992
 20
47.6560301416
 30
0.0
 11
205.8361631992
 21
51.6560301416
 31
0.0
  0
LINE
  5
405
330
1F
100
AcDbEntity
  8
0
  6
PHANTOM
 62
     7
370
    18
100
AcDbLine
 10
201.6092358021
 20
55.2560301416
 30
0.0
 11
201.6092358021
 21
53.5560301416
 31
0.0
  0
SPLINE
  5
406
330
1F
100
AcDbEntity
  8
0
  6
PHANTOM
 62
     7
370
    18
100
AcDbSpline
210
0.0
220
0.0
230
1.0
 70
     8
 71
     3
 72
    17
 73
    13
 74
     0
 42
0.00000001
 43
0.00000001
 40
0.0
 40
0.0
 40
0.0
 40
0.0
 40
0.0619646826815469
 40
0.1254327138053369
 40
0.2502787821887073
 40
0.3751248505720653
 40
0.4999709170909772
 40
0.6248169836098929
 40
0.7496630519932561
 40
0.8745091203766093
 40
0.9365353877305577
 40
1.0
 40
1.0
 40
1.0
 40
1.0
 10
202.0092358021425
 20
55.25603014157614
 30
0.0
 10
202.0084750080489
 20
55.26895888390374
 30
0.0
 10
202.0069349619504
 20
55.29513003763294
 30
0.0
 10
201.9914046259255
 20
55.34537038425255
 30
0.0
 10
201.9543816592881
 20
55.40116697062747
 30
0.0
 10
201.8877553449021
 20
55.44560660777645
 30
0.0
 10
201.8092318924683
 20
55.4612428885202
 30
0.0
 10
201.730731898079
 20
55.44560268719786
 30
0.0
 10
201.6640352095962
 20
55.40118265275359
 30
0.0
 10
201.6273974523544
 20
55.34558095287126
 30
0.0
 10
201.6113181287513
 20
55.29549889539938
 30
0.0
 10
201.609935194681
 20
55.26928653927462
 30
0.0
 10
201.6092358022245
 20
55.25603014149403
 30
0.0
  0
LINE
  5
407
330
1F
100
AcDbEntity
  8
0
  6
PHANTOM
 62
     7
370
    18
100
AcDbLine
 10
202.0092358021
 20
53.5560301416
 30
0.0
 11
202.0092358021
 21
55.2560301416
 31
0.0
  0
SPLINE
  5
408
330
1F
100
AcDbEntity
  8
0
  6
PHANTOM
 62
     7
370
    18
100
AcDbSpline
210
0.0
220
0.0
230
1.0
 70
     8
 71
     3
 72
    29
 73
    25
 74
     0
 42
0.00000001
 43
0.00000001
 40
3.14159265358979
 40
3.14159265358979
 40
3.14159265358979
 40
3.14159265358979
 40
3.534291735288519
 40
3.534291735288519
 40
3.534291735288519
 40
3.926990816987238
 40
3.926990816987238
 40
3.926990816987238
 40
4.31968989868597
 40
4.31968989868597
 40
4.31968989868597
 40
4.712388980384688
 40
4.712388980384688
 40
4.712388980384688
 40
5.105088062083409
 40
5.105088062083409
 40
5.105088062083409
 40
5.497787143782139
 40
5.497787143782139
 40
5.497787143782139
 40
5.890486225480859
 40
5.890486225480859
 40
5.890486225480859
 40
6.283185307179589
 40
6.283185307179589
 40
6.283185307179589
 40
6.283185307179589
 10
202.0092358021425
 20
53.55603014157613
 30
0.0
 10
202.0092358021425
 20
53.52985020258149
 30
0.0
 10
202.0040303371435
 20
53.50368056458689
 30
0.0
 10
201.9940117091456
 20
53.47949345559183
 30
0.0
 10
201.9839930801476
 20
53.45530634559678
 30
0.0
 10
201.9691691701507
 20
53.43312079760135
 30
0.0
 10
201.9506571581545
 20
53.41460878560511
 30
0.0
 10
201.9321451461583
 20
53.39609677360892
 30
0.0
 10
201.9099595981628
 20
53.38127286361198
 30
0.0
 10
201.8857724881678
 20
53.37125423461401
 30
0.0
 10
201.8615853791727
 20
53.36123560661608
 30
0.0
 10
201.8354157411781
 20
53.35603014161715
 30
0.0
 10
201.8092358021835
 20
53.35603014161715
 30
0.0
 10
201.7830558631888
 20
53.35603014161715
 30
0.0
 10
201.7568862251942
 20
53.36123560661608
 30
0.0
 10
201.7326991161991
 20
53.37125423461401
 30
0.0
 10
201.7085120062041
 20
53.38127286361198
 30
0.0
 10
201.6863264582087
 20
53.39609677360892
 30
0.0
 10
201.6678144462124
 20
53.41460878560511
 30
0.0
 10
201.6493024342163
 20
53.43312079760135
 30
0.0
 10
201.6344785242193
 20
53.45530634559678
 30
0.0
 10
201.6244598952213
 20
53.47949345559183
 30
0.0
 10
201.6144412672234
 20
53.50368056458689
 30
0.0
 10
201.6092358022244
 20
53.52985020258149
 30
0.0
 10
201.6092358022244
 20
53.55603014157613
 30
0.0
  0
SPLINE
  5
409
330
1F
100
AcDbEntity
  8
0
  6
PHANTOM
 62
     7
370
    18
100
AcDbSpline
210
0.0
220
0.0
230
1.0
 70
    24
 71
     3
 72
    17
 73
    13
 74
     0
 42
0.00000001
 43
0.00000001
 40
0.0000000000000001
 40
0.0000000000000001
 40
0.0000000000000001
 40
0.0000000000000001
 40
0.392699081698726
 40
0.392699081698726
 40
0.392699081698726
 40
0.7853981633974519
 40
0.7853981633974519
 40
0.7853981633974519
 40
1.17809724509618
 40
1.17809724509618
 40
1.17809724509618
 40
1.570796327
 40
1.570796327
 40
1.570796327
 40
1.570796327
 10
202.2092358021835
 20
53.55603014157613
 30
0.0
 10
202.2092358021835
 20
53.55603014157613
 30
0.0
 10
202.2040303371835
 20
53.55603014157613
 30
0.0
 10
202.1940117091835
 20
53.55603014157613
 30
0.0
 10
202.1839930801835
 20
53.55603014157613
 30
0.0
 10
202.1691691701835
 20
53.55603014157613
 30
0.0
 10
202.1506571581835
 20
53.55603014157613
 30
0.0
 10
202.1321451461835
 20
53.55603014157613
 30
0.0
 10
202.1099595981835
 20
53.55603014157613
 30
0.0
 10
202.0857724881835
 20
53.55603014157613
 30
0.0
 10
202.0615853791834
 20
53.55603014157613
 30
0.0
 10
202.0354157411834
 20
53.55603014157613
 30
0.0
 10
202.0092358021835
 20
53.55603014157613
 30
0.0
  0
SPLINE
  5
40A
330
1F
100
AcDbEntity
  8
0
  6
PHANTOM
 62
     7
370
    18
100
AcDbSpline
210
0.0
220
0.0
230
1.0
 70
    24
 71
     3
 72
    17
 73
    13
 74
     0
 42
0.00000001
 43
0.00000001
 40
-0.0000000000000001
 40
-0.0000000000000001
 40
-0.0000000000000001
 40
-0.0000000000000001
 40
0.3926990819038197
 40
0.3926990819038197
 40
0.3926990819038197
 40
0.7853981636025488
 40
0.7853981636025488
 40
0.7853981636025488
 40
1.178097245301274
 40
1.178097245301274
 40
1.178097245301274
 40
1.570796327
 40
1.570796327
 40
1.570796327
 40
1.570796327
 10
202.0092358021835
 20
55.25603014157614
 30
0.0
 10
202.0354157411834
 20
55.25603014157614
 30
0.0
 10
202.0615853791834
 20
55.25603014157614
 30
0.0
 10
202.0857724881835
 20
55.25603014157614
 30
0.0
 10
202.1099595981835
 20
55.25603014157614
 30
0.0
 10
202.1321451461835
 20
55.25603014157614
 30
0.0
 10
202.1506571581835
 20
55.25603014157614
 30
0.0
 10
202.1691691701835
 20
55.25603014157614
 30
0.0
 10
202.1839930801835
 20
55.25603014157614
 30
0.0
 10
202.1940117091835
 20
55.25603014157614
 30
0.0
 10
202.2040303371835
 20
55.25603014157614
 30
0.0
 10
202.2092358021835
 20
55.25603014157614
 30
0.0
 10
202.2092358021835
 20
55.25603014157614
 30
0.0
  0
SPLINE
  5
40B
330
1F
100
AcDbEntity
  8
0
  6
PHANTOM
 62
     7
370
    18
100
AcDbSpline
210
0.0
220
0.0
230
1.0
 70
    24
 71
     3
 72
    17
 73
    13
 74
     0
 42
0.00000001
 43
0.00000001
 40
-0.0000000000000001
 40
-0.0000000000000001
 40
-0.0000000000000001
 40
-0.0000000000000001
 40
0.392699081698726
 40
0.392699081698726
 40
0.392699081698726
 40
0.7853981633974509
 40
0.7853981633974509
 40
0.7853981633974509
 40
1.17809724509618
 40
1.17809724509618
 40
1.17809724509618
 40
1.570796327000006
 40
1.570796327000006
 40
1.570796327000006
 40
1.570796327000006
 10
201.4092358021834
 20
55.25603014141216
 30
0.0
 10
201.4092358021834
 20
55.25603014141216
 30
0.0
 10
201.4144412671834
 20
55.25603014141429
 30
0.0
 10
201.4244598951834
 20
55.25603014141841
 30
0.0
 10
201.4344785241834
 20
55.25603014142251
 30
0.0
 10
201.4493024341835
 20
55.25603014142859
 30
0.0
 10
201.4678144461834
 20
55.25603014143618
 30
0.0
 10
201.4863264581835
 20
55.25603014144377
 30
0.0
 10
201.5085120061835
 20
55.25603014145286
 30
0.0
 10
201.5326991161835
 20
55.25603014146278
 30
0.0
 10
201.5568862251834
 20
55.25603014147269
 30
0.0
 10
201.5830558631835
 20
55.25603014148342
 30
0.0
 10
201.6092358021835
 20
55.25603014149415
 30
0.0
  0
SPLINE
  5
40C
330
1F
100
AcDbEntity
  8
0
  6
PHANTOM
 62
     7
370
    18
100
AcDbSpline
210
0.0
220
0.0
230
1.0
 70
    24
 71
     3
 72
    17
 73
    13
 74
     0
 42
0.00000001
 43
0.00000001
 40
0.0000000000000001
 40
0.0000000000000001
 40
0.0000000000000001
 40
0.0000000000000001
 40
0.39269908190382
 40
0.39269908190382
 40
0.39269908190382
 40
0.785398163602548
 40
0.785398163602548
 40
0.785398163602548
 40
1.178097245301274
 40
1.178097245301274
 40
1.178097245301274
 40
1.570796327
 40
1.570796327
 40
1.570796327
 40
1.570796327
 10
201.6092358021835
 20
53.55603014157613
 30
0.0
 10
201.5830558631835
 20
53.55603014157613
 30
0.0
 10
201.5568862251834
 20
53.55603014157613
 30
0.0
 10
201.5326991161835
 20
53.55603014157613
 30
0.0
 10
201.5085120061835
 20
53.55603014157613
 30
0.0
 10
201.4863264581835
 20
53.55603014157613
 30
0.0
 10
201.4678144461834
 20
53.55603014157613
 30
0.0
 10
201.4493024341835
 20
53.55603014157613
 30
0.0
 10
201.4344785241834
 20
53.55603014157613
 30
0.0
 10
201.4244598951834
 20
53.55603014157613
 30
0.0
 10
201.4144412671834
 20
53.55603014157613
 30
0.0
 10
201.4092358021834
 20
53.55603014157613
 30
0.0
 10
201.4092358021834
 20
53.55603014157613
 30
0.0
  0
LINE
  5
40D
330
1F
100
AcDbEntity
  8
0
  6
PHANTOM
 62
     7
370
    18
100
AcDbLine
 10
194.2092358022
 20
47.6560301416
 30
0.0
 11
197.7092358022
 21
47.6560301399
 31
0.0
  0
LINE
  5
40E
330
1F
100
AcDbEntity
  8
0
  6
PHANTOM
 62
     7
370
    18
100
AcDbLine
 10
198.9592358022
 20
47.6560301399
 30
0.0
 11
204.6592358022
 21
47.6560301414
 31
0.0
  0
LINE
  5
40F
330
1F
100
AcDbEntity
  8
0
  6
PHANTOM
 62
     7
370
    18
100
AcDbLine
 10
205.9092358022
 20
47.6560301399
 30
0.0
 11
209.4092358022
 21
47.6560301416
 31
0.0
  0
LINE
  5
410
330
1F
100
AcDbEntity
  8
0
  6
PHANTOM
 62
     7
370
    18
100
AcDbLine
 10
209.409235802
 20
41.6125023198
 30
0.0
 11
194.2092358022
 21
41.6125023185
 31
0.0
  0
LINE
  5
411
330
1F
100
AcDbEntity
  8
9
  6
CENTERX2
 62
     7
370
    18
100
AcDbLine
 10
201.8092358019
 20
90.1130346954
 30
0.0
 11
201.8092358019
 21
23.3840195738
 31
0.0
  0
ENDSEC
  0
SECTION
  2
OBJECTS
  0
DICTIONARY
  5
C
330
0
100
AcDbDictionary
281
     1
  3
ACAD_GROUP
350
D
  3
ACAD_LAYOUT
350
1A
  3
ACAD_MLINESTYLE
350
17
  3
ACAD_PLOTSETTINGS
350
19
  3
ACAD_PLOTSTYLENAME
350
E
  3
ACAD_SCALELIST
350
47
  3
DWGPROPS
350
412
  0
DICTIONARY
  5
D
102
{ACAD_REACTORS
330
C
102
}
330
C
100
AcDbDictionary
281
     1
  0
DICTIONARY
  5
1A
102
{ACAD_REACTORS
330
C
102
}
330
C
100
AcDbDictionary
281
     1
  3
Layout1
350
1E
  3
Layout2
350
26
  3
Model
350
22
  0
DICTIONARY
  5
17
102
{ACAD_REACTORS
330
C
102
}
330
C
100
AcDbDictionary
281
     1
  3
Standard
350
18
  0
DICTIONARY
  5
19
102
{ACAD_REACTORS
330
C
102
}
330
C
100
AcDbDictionary
281
     1
  0
ACDBDICTIONARYWDFLT
  5
E
102
{ACAD_REACTORS
330
C
102
}
330
C
100
AcDbDictionary
281
     1
  3
Normal
350
F
100
AcDbDictionaryWithDefault
340
F
  0
DICTIONARY
  5
47
102
{ACAD_REACTORS
330
C
102
}
330
C
100
AcDbDictionary
281
     1
  3
A0
350
48
  3
A1
350
49
  3
A2
350
4A
  3
A3
350
4B
  3
A4
350
4C
  3
A5
350
4D
  3
A6
350
4E
  3
A7
350
4F
  3
A8
350
50
  3
A9
350
51
  3
B0
350
52
  3
B1
350
53
  3
B2
350
54
  3
B3
350
55
  3
B4
350
56
  3
B5
350
57
  3
B6
350
58
  0
XRECORD
  5
412
102
{ACAD_REACTORS
330
C
102
}
330
C
100
AcDbXrecord
280
     1
  1
DWGPROPS COOKIE
  2

  3

  4

  6

  7

  8
takamatsu
  9

300
=
301
=
302
=
303
=
304
=
305
=
306
=
307
=
308
=
309
=
 40
0.0
 41
2460200.245150648
 42
2460200.245151875
  1

 90
        0
  0
LAYOUT
  5
1E
102
{ACAD_REACTORS
330
1A
102
}
330
1A
100
AcDbPlotSettings
  1

  2
none_device
  4

  6

 40
0.0
 41
0.0
 42
0.0
 43
0.0
 44
0.0
 45
0.0
 46
0.0
 47
0.0
 48
0.0
 49
0.0
140
0.0
141
0.0
142
1.0
143
1.0
 70
   688
 72
     1
 73
     0
 74
     5
  7

 75
    16
147
1.0
148
0.0
149
0.0
100
AcDbLayout
  1
Layout1
 70
     1
 71
     1
 10
0.0
 20
0.0
 11
420.0
 21
297.0
 12
0.0
 22
0.0
 32
0.0
 14
1.0000000000E+20
 24
1.0000000000E+20
 34
1.0000000000E+20
 15
-1.0000000000E+20
 25
-1.0000000000E+20
 35
-1.0000000000E+20
146
0.0
 13
0.0
 23
0.0
 33
0.0
 16
1.0
 26
0.0
 36
0.0
 17
0.0
 27
1.0
 37
0.0
 76
     0
330
1B
  0
LAYOUT
  5
26
102
{ACAD_REACTORS
330
1A
102
}
330
1A
100
AcDbPlotSettings
  1

  2
none_device
  4

  6

 40
0.0
 41
0.0
 42
0.0
 43
0.0
 44
0.0
 45
0.0
 46
0.0
 47
0.0
 48
0.0
 49
0.0
140
0.0
141
0.0
142
1.0
143
1.0
 70
   688
 72
     1
 73
     0
 74
     5
  7

 75
    16
147
1.0
148
0.0
149
0.0
100
AcDbLayout
  1
Layout2
 70
     1
 71
     2
 10
0.0
 20
0.0
 11
0.0
 21
0.0
 12
0.0
 22
0.0
 32
0.0
 14
0.0
 24
0.0
 34
0.0
 15
0.0
 25
0.0
 35
0.0
146
0.0
 13
0.0
 23
0.0
 33
0.0
 16
1.0
 26
0.0
 36
0.0
 17
0.0
 27
1.0
 37
0.0
 76
     0
330
23
  0
LAYOUT
  5
22
102
{ACAD_REACTORS
330
1A
102
}
330
1A
100
AcDbPlotSettings
  1

  2
none_device
  4
Letter_(8.50_x_11.00_Inches)
  6

 40
6.35
 41
6.35
 42
6.35000508
 43
6.35000508
 44
215.9
 45
279.4
 46
0.0
 47
0.0
 48
0.0
 49
0.0
140
0.0
141
0.0
142
1.0
143
1.0
 70
  1712
 72
     1
 73
     0
 74
     0
  7

 75
     0
147
1.0
148
0.0
149
0.0
100
AcDbLayout
  1
Model
 70
     1
 71
     0
 10
0.0
 20
0.0
 11
1189.0
 21
841.0
 12
0.0
 22
0.0
 32
0.0
 14
0.0
 24
0.0
 34
0.0
 15
1189.0
 25
841.0
 35
0.0
146
0.0
 13
0.0
 23
0.0
 33
0.0
 16
1.0
 26
0.0
 36
0.0
 17
0.0
 27
1.0
 37
0.0
 76
     0
330
1F
331
29
  0
MLINESTYLE
  5
18
102
{ACAD_REACTORS
330
17
102
}
330
17
100
AcDbMlineStyle
  2
Standard
 70
     0
  3

 62
   256
 51
90.0
 52
90.0
 71
     2
 49
0.5
 62
   256
  6
BYLAYER
 49
-0.5
 62
   256
  6
BYLAYER
  0
ACDBPLACEHOLDER
  5
F
102
{ACAD_REACTORS
330
E
102
}
330
E
  0
SCALE
  5
48
102
{ACAD_REACTORS
330
47
102
}
330
47
100
AcDbScale
 70
     0
300
1:1
140
1.0
141
1.0
290
     1
  0
SCALE
  5
49
102
{ACAD_REACTORS
330
47
102
}
330
47
100
AcDbScale
 70
     0
300
1:2
140
1.0
141
2.0
290
     0
  0
SCALE
  5
4A
102
{ACAD_REACTORS
330
47
102
}
330
47
100
AcDbScale
 70
     0
300
1:4
140
1.0
141
4.0
290
     0
  0
SCALE
  5
4B
102
{ACAD_REACTORS
330
47
102
}
330
47
100
AcDbScale
 70
     0
300
1:5
140
1.0
141
5.0
290
     0
  0
SCALE
  5
4C
102
{ACAD_REACTORS
330
47
102
}
330
47
100
AcDbScale
 70
     0
300
1:8
140
1.0
141
8.0
290
     0
  0
SCALE
  5
4D
102
{ACAD_REACTORS
330
47
102
}
330
47
100
AcDbScale
 70
     0
300
1:10
140
1.0
141
10.0
290
     0
  0
SCALE
  5
4E
102
{ACAD_REACTORS
330
47
102
}
330
47
100
AcDbScale
 70
     0
300
1:16
140
1.0
141
16.0
290
     0
  0
SCALE
  5
4F
102
{ACAD_REACTORS
330
47
102
}
330
47
100
AcDbScale
 70
     0
300
1:20
140
1.0
141
20.0
290
     0
  0
SCALE
  5
50
102
{ACAD_REACTORS
330
47
102
}
330
47
100
AcDbScale
 70
     0
300
1:30
140
1.0
141
30.0
290
     0
  0
SCALE
  5
51
102
{ACAD_REACTORS
330
47
102
}
330
47
100
AcDbScale
 70
     0
300
1:40
140
1.0
141
40.0
290
     0
  0
SCALE
  5
52
102
{ACAD_REACTORS
330
47
102
}
330
47
100
AcDbScale
 70
     0
300
1:50
140
1.0
141
50.0
290
     0
  0
SCALE
  5
53
102
{ACAD_REACTORS
330
47
102
}
330
47
100
AcDbScale
 70
     0
300
1:100
140
1.0
141
100.0
290
     0
  0
SCALE
  5
54
102
{ACAD_REACTORS
330
47
102
}
330
47
100
AcDbScale
 70
     0
300
2:1
140
2.0
141
1.0
290
     0
  0
SCALE
  5
55
102
{ACAD_REACTORS
330
47
102
}
330
47
100
AcDbScale
 70
     0
300
4:1
140
4.0
141
1.0
290
     0
  0
SCALE
  5
56
102
{ACAD_REACTORS
330
47
102
}
330
47
100
AcDbScale
 70
     0
300
8:1
140
8.0
141
1.0
290
     0
  0
SCALE
  5
57
102
{ACAD_REACTORS
330
47
102
}
330
47
100
AcDbScale
 70
     0
300
10:1
140
10.0
141
1.0
290
     0
  0
SCALE
  5
58
102
{ACAD_REACTORS
330
47
102
}
330
47
100
AcDbScale
 70
     0
300
100:1
140
100.0
141
1.0
290
     0
  0
ENDSEC
  0
EOF
