  0
SECTION
  2
HEADER
  9
$ACADVER
  1
AC1015
  9
$ACADMAINTVER
 70
     6
  9
$DWGCODEPAGE
  3
DOS932
  9
$INSBASE
 10
0.0
 20
0.0
 30
0.0
  9
$EXTMIN
 10
0.0
 20
0.0
 30
0.0
  9
$EXTMAX
 10
1189.0
 20
841.0
 30
0.0
  9
$LIMMIN
 10
0.0
 20
0.0
  9
$LIMMAX
 10
1189.0
 20
841.0
  9
$ORTHOMODE
 70
     0
  9
$REGENMODE
 70
     1
  9
$FILLMODE
 70
     1
  9
$QTEXTMODE
 70
     0
  9
$MIRRTEXT
 70
     1
  9
$LTSCALE
 40
1.0
  9
$ATTMODE
 70
     1
  9
$TEXTSIZE
 40
4.0
  9
$TRACEWID
 40
1.0
  9
$TEXTSTYLE
  7
Standard
  9
$CLAYER
  8
0
  9
$CELTYPE
  6
ByLayer
  9
$CECOLOR
 62
   256
  9
$CELTSCALE
 40
1.0
  9
$DISPSILH
 70
     0
  9
$DIMSCALE
 40
1.0
  9
$DIMASZ
 40
3.0
  9
$DIMEXO
 40
0.0
  9
$DIMDLI
 40
3.75
  9
$DIMRND
 40
0.0
  9
$DIMDLE
 40
0.0
  9
$DIMEXE
 40
1.0
  9
$DIMTP
 40
0.0
  9
$DIMTM
 40
0.0
  9
$DIMTXT
 40
4.0
  9
$DIMCEN
 40
2.5
  9
$DIMTSZ
 40
0.0
  9
$DIMTOL
 70
     0
  9
$DIMLIM
 70
     0
  9
$DIMTIH
 70
     1
  9
$DIMTOH
 70
     1
  9
$DIMSE1
 70
     0
  9
$DIMSE2
 70
     0
  9
$DIMTAD
 70
     1
  9
$DIMZIN
 70
     0
  9
$DIMBLK
  1

  9
$DIMASO
 70
     1
  9
$DIMSHO
 70
     1
  9
$DIMPOST
  1

  9
$DIMAPOST
  1

  9
$DIMALT
 70
     0
  9
$DIMALTD
 70
     3
  9
$DIMALTF
 40
0.0393700787
  9
$DIMLFAC
 40
1.0
  9
$DIMTOFL
 70
     1
  9
$DIMTVP
 40
0.0
  9
$DIMTIX
 70
     0
  9
$DIMSOXD
 70
     0
  9
$DIMSAH
 70
     0
  9
$DIMBLK1
  1

  9
$DIMBLK2
  1

  9
$DIMSTYLE
  2
ISO-25
  9
$DIMCLRD
 70
     0
  9
$DIMCLRE
 70
     0
  9
$DIMCLRT
 70
     0
  9
$DIMTFAC
 40
1.0
  9
$DIMGAP
 40
1.0
  9
$DIMJUST
 70
     0
  9
$DIMSD1
 70
     0
  9
$DIMSD2
 70
     0
  9
$DIMTOLJ
 70
     0
  9
$DIMTZIN
 70
     0
  9
$DIMALTZ
 70
     0
  9
$DIMALTTZ
 70
     0
  9
$DIMUPT
 70
     0
  9
$DIMDEC
 70
     2
  9
$DIMTDEC
 70
     2
  9
$DIMALTU
 70
     2
  9
$DIMALTTD
 70
     3
  9
$DIMTXSTY
  7
Standard
  9
$DIMAUNIT
 70
     0
  9
$DIMADEC
 70
     2
  9
$DIMALTRND
 40
0.0
  9
$DIMAZIN
 70
     0
  9
$DIMDSEP
 70
    44
  9
$DIMATFIT
 70
     3
  9
$DIMFRAC
 70
     0
  9
$DIMLDRBLK
  1

  9
$DIMLUNIT
 70
     2
  9
$DIMLWD
 70
    -2
  9
$DIMLWE
 70
    -2
  9
$DIMTMOVE
 70
     0
  9
$LUNITS
 70
     2
  9
$LUPREC
 70
     2
  9
$SKETCHINC
 40
1.0
  9
$FILLETRAD
 40
10.0
  9
$AUNITS
 70
     0
  9
$AUPREC
 70
     2
  9
$MENU
  1
.
  9
$ELEVATION
 40
0.0
  9
$PELEVATION
 40
0.0
  9
$THICKNESS
 40
0.0
  9
$LIMCHECK
 70
     0
  9
$CHAMFERA
 40
0.0
  9
$CHAMFERB
 40
0.0
  9
$CHAMFERC
 40
0.0
  9
$CHAMFERD
 40
0.0
  9
$SKPOLY
 70
     0
  9
$TDCREATE
 40
2457494.46239294
  9
$TDUCREATE
 40
2457494.08739294
  9
$TDUPDATE
 40
2457494.462393495
  9
$TDUUPDATE
 40
2457494.087393495
  9
$TDINDWG
 40
0.0000000116
  9
$TDUSRTIMER
 40
0.0000000116
  9
$USRTIMER
 70
     1
  9
$ANGBASE
 50
0.0
  9
$ANGDIR
 70
     0
  9
$PDMODE
 70
     0
  9
$PDSIZE
 40
-1.0
  9
$PLINEWID
 40
0.0
  9
$SPLFRAME
 70
     0
  9
$SPLINETYPE
 70
     6
  9
$SPLINESEGS
 70
     8
  9
$HANDSEED
  5
418
  9
$SURFTAB1
 70
     6
  9
$SURFTAB2
 70
     6
  9
$SURFTYPE
 70
     6
  9
$SURFU
 70
     6
  9
$SURFV
 70
     6
  9
$UCSBASE
  2

  9
$UCSNAME
  2

  9
$UCSORG
 10
0.0
 20
0.0
 30
0.0
  9
$UCSXDIR
 10
1.0
 20
0.0
 30
0.0
  9
$UCSYDIR
 10
0.0
 20
1.0
 30
0.0
  9
$UCSORTHOREF
  2

  9
$UCSORTHOVIEW
 70
     0
  9
$UCSORGTOP
 10
0.0
 20
0.0
 30
0.0
  9
$UCSORGBOTTOM
 10
0.0
 20
0.0
 30
0.0
  9
$UCSORGLEFT
 10
0.0
 20
0.0
 30
0.0
  9
$UCSORGRIGHT
 10
0.0
 20
0.0
 30
0.0
  9
$UCSORGFRONT
 10
0.0
 20
0.0
 30
0.0
  9
$UCSORGBACK
 10
0.0
 20
0.0
 30
0.0
  9
$PUCSBASE
  2

  9
$PUCSNAME
  2

  9
$PUCSORG
 10
0.0
 20
0.0
 30
0.0
  9
$PUCSXDIR
 10
1.0
 20
0.0
 30
0.0
  9
$PUCSYDIR
 10
0.0
 20
1.0
 30
0.0
  9
$PUCSORTHOREF
  2

  9
$PUCSORTHOVIEW
 70
     0
  9
$PUCSORGTOP
 10
0.0
 20
0.0
 30
0.0
  9
$PUCSORGBOTTOM
 10
0.0
 20
0.0
 30
0.0
  9
$PUCSORGLEFT
 10
0.0
 20
0.0
 30
0.0
  9
$PUCSORGRIGHT
 10
0.0
 20
0.0
 30
0.0
  9
$PUCSORGFRONT
 10
0.0
 20
0.0
 30
0.0
  9
$PUCSORGBACK
 10
0.0
 20
0.0
 30
0.0
  9
$USERI1
 70
     0
  9
$USERI2
 70
     0
  9
$USERI3
 70
     0
  9
$USERI4
 70
     0
  9
$USERI5
 70
     0
  9
$USERR1
 40
0.0
  9
$USERR2
 40
0.0
  9
$USERR3
 40
0.0
  9
$USERR4
 40
0.0
  9
$USERR5
 40
0.0
  9
$WORLDVIEW
 70
     1
  9
$SHADEDGE
 70
     3
  9
$SHADEDIF
 70
    70
  9
$TILEMODE
 70
     1
  9
$MAXACTVP
 70
    64
  9
$PINSBASE
 10
0.0
 20
0.0
 30
0.0
  9
$PLIMCHECK
 70
     0
  9
$PEXTMIN
 10
1.0000000000E+20
 20
1.0000000000E+20
 30
1.0000000000E+20
  9
$PEXTMAX
 10
-1.0000000000E+20
 20
-1.0000000000E+20
 30
-1.0000000000E+20
  9
$PLIMMIN
 10
0.0
 20
0.0
  9
$PLIMMAX
 10
420.0
 20
297.0
  9
$UNITMODE
 70
     0
  9
$VISRETAIN
 70
     1
  9
$PLINEGEN
 70
     0
  9
$PSLTSCALE
 70
     1
  9
$TREEDEPTH
 70
  3020
  9
$CMLSTYLE
  2
Standard
  9
$CMLJUST
 70
     0
  9
$CMLSCALE
 40
20.0
  9
$PROXYGRAPHICS
 70
     1
  9
$MEASUREMENT
 70
     1
  9
$CELWEIGHT
370
    -1
  9
$ENDCAPS
280
     0
  9
$JOINSTYLE
280
     0
  9
$LWDISPLAY
290
     1
  9
$INSUNITS
 70
     4
  9
$HYPERLINKBASE
  1

  9
$STYLESHEET
  1

  9
$XEDIT
290
     1
  9
$CEPSNTYPE
380
     0
  9
$PSTYLEMODE
290
     1
  9
$FINGERPRINTGUID
  2
{823CAD44-B30D-415C-AEE7-210BA95A6578}
  9
$VERSIONGUID
  2
{FAEB1C32-E019-11D5-929B-00C0DF256EC4}
  9
$EXTNAMES
290
     1
  9
$PSVPSCALE
 40
0.0
  9
$OLESTARTUP
290
     0
  0
ENDSEC
  0
SECTION
  2
CLASSES
  0
CLASS
  1
ACDBDICTIONARYWDFLT
  2
AcDbDictionaryWithDefault
  3
ObjectDBX Classes
 90
        0
280
     0
281
     0
  0
CLASS
  1
VISUALSTYLE
  2
AcDbVisualStyle
  3
ObjectDBX Classes
 90
     4095
280
     0
281
     0
  0
CLASS
  1
MATERIAL
  2
AcDbMaterial
  3
ObjectDBX Classes
 90
     1153
280
     0
281
     0
  0
CLASS
  1
SCALE
  2
AcDbScale
  3
ObjectDBX Classes
 90
     1153
280
     0
281
     0
  0
CLASS
  1
SUN
  2
AcDbSun
  3
SCENEOE
 90
     1153
280
     0
281
     0
  0
CLASS
  1
ACDBPLACEHOLDER
  2
AcDbPlaceHolder
  3
ObjectDBX Classes
 90
        0
280
     0
281
     0
  0
CLASS
  1
LAYOUT
  2
AcDbLayout
  3
ObjectDBX Classes
 90
        0
280
     0
281
     0
  0
ENDSEC
  0
SECTION
  2
TABLES
  0
TABLE
  2
VPORT
  5
8
330
0
100
AcDbSymbolTable
 70
     1
  0
VPORT
  5
29
330
8
100
AcDbSymbolTableRecord
100
AcDbViewportTableRecord
  2
*Active
 70
     0
 10
0.0
 20
0.0
 11
1.0
 21
1.0
 12
594.5
 22
420.5
 13
0.0
 23
0.0
 14
10.0
 24
10.0
 15
10.0
 25
10.0
 16
0.0
 26
0.0
 36
1.0
 17
0.0
 27
0.0
 37
0.0
 40
841.0
 41
1.4137931034
 42
50.0
 43
0.0
 44
0.0
 50
0.0
 51
0.0
 71
     0
 72
  2000
 73
     1
 74
     3
 75
     0
 76
     0
 77
     0
 78
     0
281
     0
 65
     1
110
0.0
120
0.0
130
0.0
111
1.0
121
0.0
131
0.0
112
0.0
122
1.0
132
0.0
 79
     0
146
0.0
  0
ENDTAB
  0
TABLE
  2
LTYPE
  5
5
330
0
100
AcDbSymbolTable
 70
     6
  0
LTYPE
  5
14
330
5
100
AcDbSymbolTableRecord
100
AcDbLinetypeTableRecord
  2
ByBlock
 70
     0
  3

 72
    65
 73
     0
 40
0.0
  0
LTYPE
  5
15
330
5
100
AcDbSymbolTableRecord
100
AcDbLinetypeTableRecord
  2
ByLayer
 70
     0
  3

 72
    65
 73
     0
 40
0.0
  0
LTYPE
  5
16
330
5
100
AcDbSymbolTableRecord
100
AcDbLinetypeTableRecord
  2
Continuous
 70
     0
  3
Solid line
 72
    65
 73
     0
 40
0.0
  0
LTYPE
  5
6A
330
5
100
AcDbSymbolTableRecord
100
AcDbLinetypeTableRecord
  2
HIDDEN
 70
     0
  3
Hidden __ __ __ __ __ __ __ __ __ __ __ __ __ __
 72
    65
 73
     2
 40
1.905
 49
1.27
 74
     0
 49
-0.635
 74
     0
  0
LTYPE
  5
6B
330
5
100
AcDbSymbolTableRecord
100
AcDbLinetypeTableRecord
  2
PHANTOM
 70
     0
  3
Phantom ______  __  __  ______  __  __  ______
 72
    65
 73
     6
 40
12.7
 49
6.35
 74
     0
 49
-1.27
 74
     0
 49
1.27
 74
     0
 49
-1.27
 74
     0
 49
1.27
 74
     0
 49
-1.27
 74
     0
  0
LTYPE
  5
6C
330
5
100
AcDbSymbolTableRecord
100
AcDbLinetypeTableRecord
  2
CENTER
 70
     0
  3
Center ____ _ ____ _ ____ _ ____ _ ____ _ ____
 72
    65
 73
     4
 40
10.16
 49
6.35
 74
     0
 49
-1.27
 74
     0
 49
1.27
 74
     0
 49
-1.27
 74
     0
  0
LTYPE
  5
6D
330
5
100
AcDbSymbolTableRecord
100
AcDbLinetypeTableRecord
  2
CENTERX2
 70
     0
  3
Center (2x) ________  __  ________  __  _____
 72
    65
 73
     4
 40
20.32
 49
12.7
 74
     0
 49
-2.54
 74
     0
 49
2.54
 74
     0
 49
-2.54
 74
     0
  0
LTYPE
  5
6E
330
5
100
AcDbSymbolTableRecord
100
AcDbLinetypeTableRecord
  2
DOT2
 70
     0
  3
Dot (.5x) ........................................
 72
    65
 73
     2
 40
0.635
 49
0.0
 74
     0
 49
-0.635
 74
     0
  0
ENDTAB
  0
TABLE
  2
LAYER
  5
2
330
0
100
AcDbSymbolTable
 70
     6
  0
LAYER
  5
10
330
2
100
AcDbSymbolTableRecord
100
AcDbLayerTableRecord
  2
0
 70
     0
 62
     7
  6
Continuous
370
    -3
390
F
  0
LAYER
  5
6F
330
2
100
AcDbSymbolTableRecord
100
AcDbLayerTableRecord
  2
SLD-0
 70
     0
 62
     7
  6
Continuous
370
    -3
390
F
  0
LAYER
  5
70
330
2
100
AcDbSymbolTableRecord
100
AcDbLayerTableRecord
  2
8
 70
     0
 62
     7
  6
Continuous
370
    15
390
F
  0
LAYER
  5
71
330
2
100
AcDbSymbolTableRecord
100
AcDbLayerTableRecord
  2
9
 70
     0
 62
     7
  6
Continuous
370
    -3
390
F
  0
LAYER
  5
72
330
2
100
AcDbSymbolTableRecord
100
AcDbLayerTableRecord
  2
10
 70
     0
 62
     1
  6
Continuous
370
    -3
390
F
  0
LAYER
  5
73
330
2
100
AcDbSymbolTableRecord
100
AcDbLayerTableRecord
  2
11
 70
     0
 62
     7
  6
Continuous
370
    -3
390
F
  0
ENDTAB
  0
TABLE
  2
STYLE
  5
3
330
0
100
AcDbSymbolTable
 70
     2
  0
STYLE
  5
11
330
3
100
AcDbSymbolTableRecord
100
AcDbTextStyleTableRecord
  2
Standard
 70
     0
 40
0.0
 41
1.0
 50
0.0
 71
     0
 42
4.0
  3
txt
  4
bigfont
  0
STYLE
  5
7E
330
3
100
AcDbSymbolTableRecord
100
AcDbTextStyleTableRecord
  2
SLDTEXTSTYLE0
 70
     0
 40
0.0
 41
0.7
 50
0.0
 71
     0
 42
4.0
  3
TXT
  4
bigfont
  0
ENDTAB
  0
TABLE
  2
VIEW
  5
6
330
0
100
AcDbSymbolTable
 70
     0
  0
ENDTAB
  0
TABLE
  2
UCS
  5
7
330
0
100
AcDbSymbolTable
 70
     0
  0
ENDTAB
  0
TABLE
  2
APPID
  5
9
330
0
100
AcDbSymbolTable
 70
     1
  0
APPID
  5
12
330
9
100
AcDbSymbolTableRecord
100
AcDbRegAppTableRecord
  2
ACAD
 70
     0
  0
ENDTAB
  0
TABLE
  2
DIMSTYLE
  5
A
330
0
100
AcDbSymbolTable
 70
     1
100
AcDbDimStyleTable
  0
DIMSTYLE
105
27
330
A
100
AcDbSymbolTableRecord
100
AcDbDimStyleTableRecord
  2
ISO-25
 70
     0
 41
2.5
 42
0.625
 43
3.75
 44
1.25
 73
     0
 74
     0
 77
     1
 78
     8
140
2.5
141
2.5
143
0.0393700787
147
0.625
171
     3
172
     1
178
     0
271
     2
272
     2
274
     3
278
    44
283
     0
284
     8
340
11
  0
ENDTAB
  0
TABLE
  2
BLOCK_RECORD
  5
1
330
0
100
AcDbSymbolTable
 70
     4
  0
BLOCK_RECORD
  5
1F
330
1
100
AcDbSymbolTableRecord
100
AcDbBlockTableRecord
  2
*Model_Space
340
22
  0
BLOCK_RECORD
  5
1B
330
1
100
AcDbSymbolTableRecord
100
AcDbBlockTableRecord
  2
*Paper_Space
340
1E
  0
BLOCK_RECORD
  5
23
330
1
100
AcDbSymbolTableRecord
100
AcDbBlockTableRecord
  2
*Paper_Space0
340
26
  0
BLOCK_RECORD
  5
74
330
1
100
AcDbSymbolTableRecord
100
AcDbBlockTableRecord
  2
ﾌﾞﾛｯｸ2
340
0
102
{BLKREFS
331
172
102
}
  0
BLOCK_RECORD
  5
86
330
1
100
AcDbSymbolTableRecord
100
AcDbBlockTableRecord
  2
新SUGATSUNEロゴ
340
0
102
{BLKREFS
331
170
102
}
  0
BLOCK_RECORD
  5
164
330
1
100
AcDbSymbolTableRecord
100
AcDbBlockTableRecord
  2
ﾌﾞﾛｯｸ1
340
0
102
{BLKREFS
331
171
102
}
  0
ENDTAB
  0
ENDSEC
  0
SECTION
  2
BLOCKS
  0
BLOCK
  5
20
330
1F
100
AcDbEntity
  8
0
100
AcDbBlockBegin
  2
*Model_Space
 70
     0
 10
0.0
 20
0.0
 30
0.0
  3
*Model_Space
  1
*Model_Space
  0
ENDBLK
  5
21
330
1F
100
AcDbEntity
  8
0
100
AcDbBlockEnd
  0
BLOCK
  5
1C
330
1B
100
AcDbEntity
 67
     1
  8
0
100
AcDbBlockBegin
  2
*Paper_Space
 70
     0
 10
0.0
 20
0.0
 30
0.0
  3
*Paper_Space
  1
*Paper_Space
  0
ENDBLK
  5
1D
330
1B
100
AcDbEntity
 67
     1
  8
0
100
AcDbBlockEnd
  0
BLOCK
  5
24
330
23
100
AcDbEntity
  8
0
100
AcDbBlockBegin
  2
*Paper_Space0
 70
     0
 10
0.0
 20
0.0
 30
0.0
  3
*Paper_Space0
  1
*Paper_Space0
  0
ENDBLK
  5
25
330
23
100
AcDbEntity
  8
0
100
AcDbBlockEnd
  0
BLOCK
  5
75
330
74
100
AcDbEntity
  8
0
100
AcDbBlockBegin
  2
ﾌﾞﾛｯｸ2
 70
     2
 10
0.0
 20
0.0
 30
0.0
  3
ﾌﾞﾛｯｸ2
  1
ﾌﾞﾛｯｸ2
  0
LINE
  5
77
330
74
100
AcDbEntity
  8
8
100
AcDbLine
 10
0.0
 20
21.0
 30
0.0
 11
135.0
 21
21.0
 31
0.0
  0
LINE
  5
78
330
74
100
AcDbEntity
  8
8
100
AcDbLine
 10
0.0
 20
0.0
 30
0.0
 11
135.0
 21
0.0
 31
0.0
  0
LINE
  5
79
330
74
100
AcDbEntity
  8
8
100
AcDbLine
 10
135.0
 20
21.0
 30
0.0
 11
135.0
 21
0.0
 31
0.0
  0
LINE
  5
7A
330
74
100
AcDbEntity
  8
9
100
AcDbLine
 10
36.0
 20
7.0
 30
0.0
 11
135.0
 21
7.0
 31
0.0
  0
LINE
  5
7B
330
74
100
AcDbEntity
  8
9
100
AcDbLine
 10
36.0
 20
0.0
 30
0.0
 11
36.0
 21
21.0
 31
0.0
  0
LINE
  5
7C
330
74
100
AcDbEntity
  8
9
100
AcDbLine
 10
65.0
 20
21.0
 30
0.0
 11
65.0
 21
0.0
 31
0.0
  0
LINE
  5
7D
330
74
100
AcDbEntity
  8
8
  6
Continuous
 62
     7
100
AcDbLine
 10
0.0
 20
21.0
 30
0.0
 11
0.0
 21
0.0
 31
0.0
  0
ATTDEF
  5
7F
330
74
100
AcDbEntity
  8
SLD-0
 62
     7
100
AcDbText
 10
78.3050930978
 20
15.9259892778
 30
0.0
 40
4.0
  1
230-(C)26/19T
 41
0.7
  7
SLDTEXTSTYLE0
 11
78.3050930978
 21
14.5129490301
 31
0.0
100
AcDbAttributeDefinition
  3

  2
AUTOATTR0
 70
     0
 74
     1
  0
ATTDEF
  5
80
330
74
100
AcDbEntity
  8
SLD-0
 62
     7
100
AcDbText
 10
78.3050930978
 20
9.8784312972
 30
0.0
 40
4.0
  1
230-P4W-32T
 41
0.7
  7
SLDTEXTSTYLE0
 11
78.3050930978
 21
8.4653910495
 31
0.0
100
AcDbAttributeDefinition
  3

  2
AUTOATTR0
 70
     0
 74
     1
  0
ATTDEF
  5
81
330
74
100
AcDbEntity
  8
SLD-0
 62
     7
100
AcDbText
 10
66.9646413579
 20
16.8429035566
 30
0.0
 40
2.38125
  1
Title
 41
0.7
  7
SLDTEXTSTYLE0
 11
66.9646413579
 21
16.0017030342
 31
0.0
100
AcDbAttributeDefinition
  3

  2
AUTOATTR0
 70
     0
 74
     1
  0
ATTDEF
  5
82
330
74
100
AcDbEntity
  8
SLD-0
 62
     7
100
AcDbText
 10
66.9646413579
 20
2.4516379051
 30
0.0
 40
2.38125
  1
Date
 41
0.7
  7
SLDTEXTSTYLE0
 11
66.9646413579
 21
1.6104373826
 31
0.0
100
AcDbAttributeDefinition
  3

  2
AUTOATTR0
 70
     0
 74
     1
  0
ATTDEF
  5
83
330
74
100
AcDbEntity
  8
SLD-0
 62
     7
100
AcDbText
 10
51.857512217
 20
2.0282473934
 30
0.0
 40
4.0
  1
1:1
 41
0.7
  7
SLDTEXTSTYLE0
 11
51.857512217
 21
0.6152071457
 31
0.0
100
AcDbAttributeDefinition
  3

  2
AUTOATTR0
 70
     0
 74
     1
  0
ATTDEF
  5
84
330
74
100
AcDbEntity
  8
SLD-0
 62
     7
100
AcDbText
 10
38.4275608796
 20
2.4516379051
 30
0.0
 40
2.38125
  1
Scale
 41
0.7
  7
SLDTEXTSTYLE0
 11
38.4275608796
 21
1.6104373826
 31
0.0
100
AcDbAttributeDefinition
  3

  2
AUTOATTR0
 70
     0
 74
     1
  0
ATTDEF
  5
85
330
74
100
AcDbEntity
  8
SLD-0
 62
     7
100
AcDbText
 10
78.3050930978
 20
2.0282473934
 30
0.0
 40
4.0
  1
2015/05/19
 41
0.7
  7
SLDTEXTSTYLE0
 11
78.3050930978
 21
0.6152071457
 31
0.0
100
AcDbAttributeDefinition
  3

  2
AUTOATTR0
 70
     0
 74
     1
  0
INSERT
  5
170
330
74
100
AcDbEntity
  8
0
  6
Continuous
 62
     7
100
AcDbBlockReference
  2
新SUGATSUNEロゴ
 10
0.0273220162
 20
-1.67308293
 30
0.0
  0
INSERT
  5
171
330
74
100
AcDbEntity
  8
0
  6
Continuous
 62
     7
100
AcDbBlockReference
  2
ﾌﾞﾛｯｸ1
 10
39.5300077037
 20
10.3519919558
 30
0.0
  0
ENDBLK
  5
76
330
74
100
AcDbEntity
  8
0
100
AcDbBlockEnd
  0
BLOCK
  5
87
330
86
100
AcDbEntity
  8
0
100
AcDbBlockBegin
  2
新SUGATSUNEロゴ
 70
     0
 10
0.0
 20
0.0
 30
0.0
  3
新SUGATSUNEロゴ
  1
新SUGATSUNEロゴ
  0
LINE
  5
89
330
86
100
AcDbEntity
  8
0
100
AcDbLine
 10
32.7336985468
 20
9.4483046908
 30
0.0
 11
31.5209513067
 21
9.4483046908
 31
0.0
  0
LINE
  5
8A
330
86
100
AcDbEntity
  8
0
100
AcDbLine
 10
31.5209513067
 20
9.4483046908
 30
0.0
 11
31.5209513067
 21
11.8677744187
 31
0.0
  0
LINE
  5
8B
330
86
100
AcDbEntity
  8
0
100
AcDbLine
 10
31.5209513067
 20
11.8677744187
 30
0.0
 11
32.484911708
 21
11.8677744187
 31
0.0
  0
LINE
  5
8C
330
86
100
AcDbEntity
  8
0
100
AcDbLine
 10
32.484911708
 20
11.8677744187
 30
0.0
 11
32.484911708
 21
12.7076957977
 31
0.0
  0
LINE
  5
8D
330
86
100
AcDbEntity
  8
0
100
AcDbLine
 10
32.484911708
 20
12.7076957977
 30
0.0
 11
31.5209513067
 21
12.7076957977
 31
0.0
  0
LINE
  5
8E
330
86
100
AcDbEntity
  8
0
100
AcDbLine
 10
31.5209513067
 20
12.7076957977
 30
0.0
 11
31.5209513067
 21
14.492440129
 31
0.0
  0
LINE
  5
8F
330
86
100
AcDbEntity
  8
0
100
AcDbLine
 10
31.5209513067
 20
14.492440129
 30
0.0
 11
32.5596186391
 21
14.492440129
 31
0.0
  0
LINE
  5
90
330
86
100
AcDbEntity
  8
0
100
AcDbLine
 10
32.5596186391
 20
14.492440129
 30
0.0
 11
32.5596186391
 21
15.3325032669
 31
0.0
  0
LINE
  5
91
330
86
100
AcDbEntity
  8
0
100
AcDbLine
 10
32.5596186391
 20
15.3325032669
 30
0.0
 11
30.6808881687
 21
15.3325032669
 31
0.0
  0
LINE
  5
92
330
86
100
AcDbEntity
  8
0
100
AcDbLine
 10
30.6808881687
 20
15.3325032669
 30
0.0
 11
30.6808881687
 21
8.5904508131
 31
0.0
  0
LINE
  5
93
330
86
100
AcDbEntity
  8
0
100
AcDbLine
 10
30.6808881687
 20
8.5904508131
 30
0.0
 11
32.7336985468
 21
8.5896002598
 31
0.0
  0
LINE
  5
94
330
86
100
AcDbEntity
  8
0
100
AcDbLine
 10
32.7336985468
 20
8.5896002598
 30
0.0
 11
32.7336985468
 21
9.4483046908
 31
0.0
  0
LINE
  5
95
330
86
100
AcDbEntity
  8
0
100
AcDbLine
 10
21.049364412
 20
15.3325032669
 30
0.0
 11
18.7355759311
 21
15.3325032669
 31
0.0
  0
LINE
  5
96
330
86
100
AcDbEntity
  8
0
100
AcDbLine
 10
18.7355759311
 20
15.3325032669
 30
0.0
 11
18.7355759311
 21
14.492440129
 31
0.0
  0
LINE
  5
97
330
86
100
AcDbEntity
  8
0
100
AcDbLine
 10
18.7355759311
 20
14.492440129
 30
0.0
 11
19.4922848461
 21
14.492440129
 31
0.0
  0
LINE
  5
98
330
86
100
AcDbEntity
  8
0
100
AcDbLine
 10
19.4922848461
 20
14.492440129
 30
0.0
 11
19.4922848461
 21
8.5904508131
 31
0.0
  0
LINE
  5
99
330
86
100
AcDbEntity
  8
0
100
AcDbLine
 10
19.4922848461
 20
8.5904508131
 30
0.0
 11
20.3323479841
 21
8.5904508131
 31
0.0
  0
LINE
  5
9A
330
86
100
AcDbEntity
  8
0
100
AcDbLine
 10
20.3323479841
 20
8.5904508131
 30
0.0
 11
20.3323479841
 21
14.492440129
 31
0.0
  0
LINE
  5
9B
330
86
100
AcDbEntity
  8
0
100
AcDbLine
 10
20.3323479841
 20
14.492440129
 30
0.0
 11
21.049364412
 21
14.492440129
 31
0.0
  0
LINE
  5
9C
330
86
100
AcDbEntity
  8
0
100
AcDbLine
 10
21.049364412
 20
14.492440129
 30
0.0
 11
21.049364412
 21
15.3325032669
 31
0.0
  0
LINE
  5
9D
330
86
100
AcDbEntity
  8
0
100
AcDbLine
 10
29.175550595
 20
15.3418593532
 30
0.0
 11
29.175550595
 21
10.4115562977
 31
0.0
  0
LINE
  5
9E
330
86
100
AcDbEntity
  8
0
100
AcDbLine
 10
29.175550595
 20
10.4115562977
 30
0.0
 11
28.3179093556
 21
15.3418593532
 31
0.0
  0
LINE
  5
9F
330
86
100
AcDbEntity
  8
0
100
AcDbLine
 10
28.3179093556
 20
15.3418593532
 30
0.0
 11
26.9115194818
 21
15.3418593532
 31
0.0
  0
LINE
  5
A0
330
86
100
AcDbEntity
  8
0
100
AcDbLine
 10
26.9115194818
 20
15.3418593532
 30
0.0
 11
26.9115194818
 21
8.5904508131
 31
0.0
  0
LINE
  5
A1
330
86
100
AcDbEntity
  8
0
100
AcDbLine
 10
26.9115194818
 20
8.5904508131
 30
0.0
 11
27.7517243787
 21
8.5904508131
 31
0.0
  0
LINE
  5
A2
330
86
100
AcDbEntity
  8
0
100
AcDbLine
 10
27.7517243787
 20
8.5904508131
 30
0.0
 11
27.7517243787
 21
13.7348097812
 31
0.0
  0
LINE
  5
A3
330
86
100
AcDbEntity
  8
0
100
AcDbLine
 10
27.7517243787
 20
13.7348097812
 30
0.0
 11
28.6387097068
 21
8.5883244299
 31
0.0
  0
LINE
  5
A4
330
86
100
AcDbEntity
  8
0
100
AcDbLine
 10
28.6387097068
 20
8.5883244299
 30
0.0
 11
30.0157554918
 21
8.5904508131
 31
0.0
  0
LINE
  5
A5
330
86
100
AcDbEntity
  8
0
100
AcDbLine
 10
30.0157554918
 20
8.5904508131
 30
0.0
 11
30.0157554918
 21
15.3418593532
 31
0.0
  0
LINE
  5
A6
330
86
100
AcDbEntity
  8
0
100
AcDbLine
 10
30.0157554918
 20
15.3418593532
 30
0.0
 11
29.175550595
 21
15.3418593532
 31
0.0
  0
LINE
  5
A7
330
86
100
AcDbEntity
  8
0
100
AcDbLine
 10
3.3854988525
 20
9.4534080106
 30
0.0
 11
3.292575905
 21
9.4549673583
 31
0.0
  0
LINE
  5
A8
330
86
100
AcDbEntity
  8
0
100
AcDbLine
 10
3.292575905
 20
9.4549673583
 30
0.0
 11
3.292575905
 21
8.5959794095
 31
0.0
  0
LINE
  5
A9
330
86
100
AcDbEntity
  8
0
100
AcDbLine
 10
3.292575905
 20
8.5959794095
 30
0.0
 11
3.4568035704
 21
8.5959794095
 31
0.0
  0
LINE
  5
AA
330
86
100
AcDbEntity
  8
0
100
AcDbLine
 10
4.9498790008
 20
9.2970479632
 30
0.0
 11
4.9498790008
 21
9.2973314809
 31
0.0
  0
LINE
  5
AB
330
86
100
AcDbEntity
  8
0
100
AcDbLine
 10
4.9498790008
 20
14.5159721035
 30
0.0
 11
4.9498790008
 21
15.3285340182
 31
0.0
  0
LINE
  5
AC
330
86
100
AcDbEntity
  8
0
100
AcDbLine
 10
4.9498790008
 20
15.3285340182
 30
0.0
 11
4.6043417246
 21
15.3285340182
 31
0.0
  0
LINE
  5
AD
330
86
100
AcDbEntity
  8
0
100
AcDbLine
 10
21.230390505
 20
9.4534080106
 30
0.0
 11
21.1375384369
 21
9.4549673583
 31
0.0
  0
LINE
  5
AE
330
86
100
AcDbEntity
  8
0
100
AcDbLine
 10
21.1375384369
 20
9.4549673583
 30
0.0
 11
21.1375384369
 21
8.5959794095
 31
0.0
  0
LINE
  5
AF
330
86
100
AcDbEntity
  8
0
100
AcDbLine
 10
21.1375384369
 20
8.5959794095
 30
0.0
 11
21.301553464
 21
8.5959794095
 31
0.0
  0
LINE
  5
B0
330
86
100
AcDbEntity
  8
0
100
AcDbLine
 10
22.7946997739
 20
9.2970479632
 30
0.0
 11
22.7946997739
 21
9.2973314809
 31
0.0
  0
LINE
  5
B1
330
86
100
AcDbEntity
  8
0
100
AcDbLine
 10
22.7946997739
 20
14.5159721035
 30
0.0
 11
22.7946997739
 21
15.3285340182
 31
0.0
  0
LINE
  5
B2
330
86
100
AcDbEntity
  8
0
100
AcDbLine
 10
22.7946997739
 20
15.3285340182
 30
0.0
 11
22.4490916182
 21
15.3285340182
 31
0.0
  0
LINE
  5
B3
330
86
100
AcDbEntity
  8
0
 62
     1
100
AcDbLine
 10
12.1710764777
 20
17.9278248886
 30
0.0
 11
9.7662787942
 21
17.9278248886
 31
0.0
  0
LINE
  5
B4
330
86
100
AcDbEntity
  8
0
 62
     1
100
AcDbLine
 10
9.7662787942
 20
17.9278248886
 30
0.0
 11
9.7662787942
 21
20.3329060898
 31
0.0
  0
LINE
  5
B5
330
86
100
AcDbEntity
  8
0
 62
     1
100
AcDbLine
 10
9.7662787942
 20
20.3329060898
 30
0.0
 11
12.1710764777
 21
20.3329060898
 31
0.0
  0
LINE
  5
B6
330
86
100
AcDbEntity
  8
0
 62
     1
100
AcDbLine
 10
12.1710764777
 20
20.3329060898
 30
0.0
 11
12.1710764777
 21
17.9278248886
 31
0.0
  0
LINE
  5
B7
330
86
100
AcDbEntity
  8
0
 62
     1
100
AcDbLine
 10
12.1710764777
 20
3.67
 30
0.0
 11
9.7662787942
 21
3.67
 31
0.0
  0
LINE
  5
B8
330
86
100
AcDbEntity
  8
0
 62
     1
100
AcDbLine
 10
9.7662787942
 20
3.67
 30
0.0
 11
9.7662787942
 21
6.0749394424
 31
0.0
  0
LINE
  5
B9
330
86
100
AcDbEntity
  8
0
 62
     1
100
AcDbLine
 10
9.7662787942
 20
6.0749394424
 30
0.0
 11
12.1710764777
 21
6.0749394424
 31
0.0
  0
LINE
  5
BA
330
86
100
AcDbEntity
  8
0
 62
     1
100
AcDbLine
 10
12.1710764777
 20
6.0749394424
 30
0.0
 11
12.1710764777
 21
3.67
 31
0.0
  0
LINE
  5
BB
330
86
100
AcDbEntity
  8
0
 62
     1
100
AcDbLine
 10
25.8269222715
 20
17.9278248886
 30
0.0
 11
23.422124588
 21
17.9278248886
 31
0.0
  0
LINE
  5
BC
330
86
100
AcDbEntity
  8
0
 62
     1
100
AcDbLine
 10
23.422124588
 20
17.9278248886
 30
0.0
 11
23.422124588
 21
20.3329060898
 31
0.0
  0
LINE
  5
BD
330
86
100
AcDbEntity
  8
0
 62
     1
100
AcDbLine
 10
23.422124588
 20
20.3329060898
 30
0.0
 11
25.8269222715
 21
20.3329060898
 31
0.0
  0
LINE
  5
BE
330
86
100
AcDbEntity
  8
0
 62
     1
100
AcDbLine
 10
25.8269222715
 20
20.3329060898
 30
0.0
 11
25.8269222715
 21
17.9278248886
 31
0.0
  0
LINE
  5
BF
330
86
100
AcDbEntity
  8
0
 62
     1
100
AcDbLine
 10
25.8269222715
 20
3.67
 30
0.0
 11
23.422124588
 21
3.67
 31
0.0
  0
LINE
  5
C0
330
86
100
AcDbEntity
  8
0
 62
     1
100
AcDbLine
 10
23.422124588
 20
3.67
 30
0.0
 11
23.422124588
 21
6.0749394424
 31
0.0
  0
LINE
  5
C1
330
86
100
AcDbEntity
  8
0
 62
     1
100
AcDbLine
 10
23.422124588
 20
6.0749394424
 30
0.0
 11
25.8269222715
 21
6.0749394424
 31
0.0
  0
LINE
  5
C2
330
86
100
AcDbEntity
  8
0
 62
     1
100
AcDbLine
 10
25.8269222715
 20
6.0749394424
 30
0.0
 11
25.8269222715
 21
3.67
 31
0.0
  0
LINE
  5
C3
330
86
100
AcDbEntity
  8
0
100
AcDbLine
 10
8.2465526938
 20
15.3418593532
 30
0.0
 11
7.4064186764
 21
15.3418593532
 31
0.0
  0
LINE
  5
C4
330
86
100
AcDbEntity
  8
0
100
AcDbLine
 10
7.4064186764
 20
15.3418593532
 30
0.0
 11
7.4025203072
 21
9.7790281638
 31
0.0
  0
LINE
  5
C5
330
86
100
AcDbEntity
  8
0
100
AcDbLine
 10
6.5577791261
 20
9.7866831435
 30
0.0
 11
6.554873069
 21
15.3418593532
 31
0.0
  0
LINE
  5
C6
330
86
100
AcDbEntity
  8
0
100
AcDbLine
 10
6.554873069
 20
15.3418593532
 30
0.0
 11
5.7147390516
 21
15.3418593532
 31
0.0
  0
LINE
  5
C7
330
86
100
AcDbEntity
  8
0
100
AcDbLine
 10
26.1769249525
 20
15.3418593532
 30
0.0
 11
25.3368618145
 21
15.3418593532
 31
0.0
  0
LINE
  5
C8
330
86
100
AcDbEntity
  8
0
100
AcDbLine
 10
25.3368618145
 20
15.3418593532
 30
0.0
 11
25.3327508069
 21
9.7790281638
 31
0.0
  0
LINE
  5
C9
330
86
100
AcDbEntity
  8
0
100
AcDbLine
 10
24.4880096259
 20
9.7866831435
 30
0.0
 11
24.4851744482
 21
15.3418593532
 31
0.0
  0
LINE
  5
CA
330
86
100
AcDbEntity
  8
0
100
AcDbLine
 10
24.4851744482
 20
15.3418593532
 30
0.0
 11
23.6451113103
 21
15.3418593532
 31
0.0
  0
LINE
  5
CB
330
86
100
AcDbEntity
  8
0
100
AcDbLine
 10
12.9538690271
 20
12.6636087853
 30
0.0
 11
11.909956616
 21
11.8235456473
 31
0.0
  0
LINE
  5
CC
330
86
100
AcDbEntity
  8
0
100
AcDbLine
 10
11.909956616
 20
11.8235456473
 30
0.0
 11
14.4506301884
 21
11.8235456473
 31
0.0
  0
LINE
  5
CD
330
86
100
AcDbEntity
  8
0
100
AcDbLine
 10
14.4506301884
 20
11.8235456473
 30
0.0
 11
14.4506301884
 21
10.4153837876
 31
0.0
  0
LINE
  5
CE
330
86
100
AcDbEntity
  8
0
100
AcDbLine
 10
14.5099562808
 20
13.5421594598
 30
0.0
 11
15.2200265234
 21
14.0836783912
 31
0.0
  0
LINE
  5
CF
330
86
100
AcDbEntity
  8
0
100
AcDbLine
 10
15.2916856385
 20
10.0266809316
 30
0.0
 11
15.2905515675
 21
12.6636087853
 31
0.0
  0
LINE
  5
D0
330
86
100
AcDbEntity
  8
0
100
AcDbLine
 10
15.2905515675
 20
12.6636087853
 30
0.0
 11
12.9538690271
 21
12.6636087853
 31
0.0
  0
LINE
  5
D1
330
86
100
AcDbEntity
  8
0
100
AcDbLine
 10
17.7875634041
 20
15.3342043735
 30
0.0
 11
16.3643042233
 21
15.3342043735
 31
0.0
  0
LINE
  5
D2
330
86
100
AcDbEntity
  8
0
100
AcDbLine
 10
16.3643042233
 20
15.3342043735
 30
0.0
 11
15.5117663037
 21
8.5904508131
 31
0.0
  0
LINE
  5
D3
330
86
100
AcDbEntity
  8
0
100
AcDbLine
 10
15.5117663037
 20
8.5904508131
 30
0.0
 11
16.3519003211
 21
8.5904508131
 31
0.0
  0
LINE
  5
D4
330
86
100
AcDbEntity
  8
0
100
AcDbLine
 10
16.3519003211
 20
8.5904508131
 30
0.0
 11
16.5956547196
 21
10.5190095307
 31
0.0
  0
LINE
  5
D5
330
86
100
AcDbEntity
  8
0
100
AcDbLine
 10
16.5956547196
 20
10.5190095307
 30
0.0
 11
17.5561420283
 21
10.5190095307
 31
0.0
  0
LINE
  5
D6
330
86
100
AcDbEntity
  8
0
100
AcDbLine
 10
17.5561420283
 20
10.5190095307
 30
0.0
 11
17.8000381857
 21
8.5904508131
 31
0.0
  0
LINE
  5
D7
330
86
100
AcDbEntity
  8
0
100
AcDbLine
 10
17.8000381857
 20
8.5904508131
 30
0.0
 11
18.6401722031
 21
8.5904508131
 31
0.0
  0
LINE
  5
D8
330
86
100
AcDbEntity
  8
0
100
AcDbLine
 10
18.6401722031
 20
8.5904508131
 30
0.0
 11
17.7875634041
 21
15.3342043735
 31
0.0
  0
LINE
  5
D9
330
86
100
AcDbEntity
  8
0
100
AcDbLine
 10
16.7253640972
 20
11.5449894431
 30
0.0
 11
17.0745162249
 21
14.306594234
 31
0.0
  0
LINE
  5
DA
330
86
100
AcDbEntity
  8
0
100
AcDbLine
 10
17.0745162249
 20
14.306594234
 30
0.0
 11
17.4265035302
 21
11.5449894431
 31
0.0
  0
LINE
  5
DB
330
86
100
AcDbEntity
  8
0
100
AcDbLine
 10
17.4265035302
 20
11.5449894431
 30
0.0
 11
16.7253640972
 21
11.5449894431
 31
0.0
  0
LINE
  5
DC
330
86
100
AcDbEntity
  8
0
370
     0
100
AcDbLine
 10
32.7336985468
 20
9.4483046908
 30
0.0
 11
31.5209513067
 21
9.4483046908
 31
0.0
  0
LINE
  5
DD
330
86
100
AcDbEntity
  8
0
370
     0
100
AcDbLine
 10
31.5209513067
 20
9.4483046908
 30
0.0
 11
31.5209513067
 21
11.8677744187
 31
0.0
  0
LINE
  5
DE
330
86
100
AcDbEntity
  8
0
370
     0
100
AcDbLine
 10
31.5209513067
 20
11.8677744187
 30
0.0
 11
32.484911708
 21
11.8677744187
 31
0.0
  0
LINE
  5
DF
330
86
100
AcDbEntity
  8
0
370
     0
100
AcDbLine
 10
32.484911708
 20
11.8677744187
 30
0.0
 11
32.484911708
 21
12.7076957977
 31
0.0
  0
LINE
  5
E0
330
86
100
AcDbEntity
  8
0
370
     0
100
AcDbLine
 10
32.484911708
 20
12.7076957977
 30
0.0
 11
31.5209513067
 21
12.7076957977
 31
0.0
  0
LINE
  5
E1
330
86
100
AcDbEntity
  8
0
370
     0
100
AcDbLine
 10
31.5209513067
 20
12.7076957977
 30
0.0
 11
31.5209513067
 21
14.492440129
 31
0.0
  0
LINE
  5
E2
330
86
100
AcDbEntity
  8
0
370
     0
100
AcDbLine
 10
31.5209513067
 20
14.492440129
 30
0.0
 11
32.5596186391
 21
14.492440129
 31
0.0
  0
LINE
  5
E3
330
86
100
AcDbEntity
  8
0
370
     0
100
AcDbLine
 10
32.5596186391
 20
14.492440129
 30
0.0
 11
32.5596186391
 21
15.3325032669
 31
0.0
  0
LINE
  5
E4
330
86
100
AcDbEntity
  8
0
370
     0
100
AcDbLine
 10
32.5596186391
 20
15.3325032669
 30
0.0
 11
30.6808881687
 21
15.3325032669
 31
0.0
  0
LINE
  5
E5
330
86
100
AcDbEntity
  8
0
370
     0
100
AcDbLine
 10
30.6808881687
 20
15.3325032669
 30
0.0
 11
30.6808881687
 21
8.5904508131
 31
0.0
  0
LINE
  5
E6
330
86
100
AcDbEntity
  8
0
370
     0
100
AcDbLine
 10
30.6808881687
 20
8.5904508131
 30
0.0
 11
32.7336985468
 21
8.5896002598
 31
0.0
  0
LINE
  5
E7
330
86
100
AcDbEntity
  8
0
370
     0
100
AcDbLine
 10
32.7336985468
 20
8.5896002598
 30
0.0
 11
32.7336985468
 21
9.4483046908
 31
0.0
  0
LINE
  5
E8
330
86
100
AcDbEntity
  8
0
370
     0
100
AcDbLine
 10
21.049364412
 20
15.3325032669
 30
0.0
 11
18.7355759311
 21
15.3325032669
 31
0.0
  0
LINE
  5
E9
330
86
100
AcDbEntity
  8
0
370
     0
100
AcDbLine
 10
18.7355759311
 20
15.3325032669
 30
0.0
 11
18.7355759311
 21
14.492440129
 31
0.0
  0
LINE
  5
EA
330
86
100
AcDbEntity
  8
0
370
     0
100
AcDbLine
 10
18.7355759311
 20
14.492440129
 30
0.0
 11
19.4922848461
 21
14.492440129
 31
0.0
  0
LINE
  5
EB
330
86
100
AcDbEntity
  8
0
370
     0
100
AcDbLine
 10
19.4922848461
 20
14.492440129
 30
0.0
 11
19.4922848461
 21
8.5904508131
 31
0.0
  0
LINE
  5
EC
330
86
100
AcDbEntity
  8
0
370
     0
100
AcDbLine
 10
19.4922848461
 20
8.5904508131
 30
0.0
 11
20.3323479841
 21
8.5904508131
 31
0.0
  0
LINE
  5
ED
330
86
100
AcDbEntity
  8
0
370
     0
100
AcDbLine
 10
20.3323479841
 20
8.5904508131
 30
0.0
 11
20.3323479841
 21
14.492440129
 31
0.0
  0
LINE
  5
EE
330
86
100
AcDbEntity
  8
0
370
     0
100
AcDbLine
 10
20.3323479841
 20
14.492440129
 30
0.0
 11
21.049364412
 21
14.492440129
 31
0.0
  0
LINE
  5
EF
330
86
100
AcDbEntity
  8
0
370
     0
100
AcDbLine
 10
21.049364412
 20
14.492440129
 30
0.0
 11
21.049364412
 21
15.3325032669
 31
0.0
  0
LINE
  5
F0
330
86
100
AcDbEntity
  8
0
370
     0
100
AcDbLine
 10
29.175550595
 20
15.3418593532
 30
0.0
 11
29.175550595
 21
10.4115562977
 31
0.0
  0
LINE
  5
F1
330
86
100
AcDbEntity
  8
0
370
     0
100
AcDbLine
 10
29.175550595
 20
10.4115562977
 30
0.0
 11
28.3179093556
 21
15.3418593532
 31
0.0
  0
LINE
  5
F2
330
86
100
AcDbEntity
  8
0
370
     0
100
AcDbLine
 10
28.3179093556
 20
15.3418593532
 30
0.0
 11
26.9115194818
 21
15.3418593532
 31
0.0
  0
LINE
  5
F3
330
86
100
AcDbEntity
  8
0
370
     0
100
AcDbLine
 10
26.9115194818
 20
15.3418593532
 30
0.0
 11
26.9115194818
 21
8.5904508131
 31
0.0
  0
LINE
  5
F4
330
86
100
AcDbEntity
  8
0
370
     0
100
AcDbLine
 10
26.9115194818
 20
8.5904508131
 30
0.0
 11
27.7517243787
 21
8.5904508131
 31
0.0
  0
LINE
  5
F5
330
86
100
AcDbEntity
  8
0
370
     0
100
AcDbLine
 10
27.7517243787
 20
8.5904508131
 30
0.0
 11
27.7517243787
 21
13.7348097812
 31
0.0
  0
LINE
  5
F6
330
86
100
AcDbEntity
  8
0
370
     0
100
AcDbLine
 10
27.7517243787
 20
13.7348097812
 30
0.0
 11
28.6387097068
 21
8.5883244299
 31
0.0
  0
LINE
  5
F7
330
86
100
AcDbEntity
  8
0
370
     0
100
AcDbLine
 10
28.6387097068
 20
8.5883244299
 30
0.0
 11
30.0157554918
 21
8.5904508131
 31
0.0
  0
LINE
  5
F8
330
86
100
AcDbEntity
  8
0
370
     0
100
AcDbLine
 10
30.0157554918
 20
8.5904508131
 30
0.0
 11
30.0157554918
 21
15.3418593532
 31
0.0
  0
LINE
  5
F9
330
86
100
AcDbEntity
  8
0
370
     0
100
AcDbLine
 10
30.0157554918
 20
15.3418593532
 30
0.0
 11
29.175550595
 21
15.3418593532
 31
0.0
  0
LINE
  5
FA
330
86
100
AcDbEntity
  8
0
370
     0
100
AcDbLine
 10
3.3854988525
 20
9.4534080106
 30
0.0
 11
3.292575905
 21
9.4549673583
 31
0.0
  0
LINE
  5
FB
330
86
100
AcDbEntity
  8
0
370
     0
100
AcDbLine
 10
3.292575905
 20
9.4549673583
 30
0.0
 11
3.292575905
 21
8.5959794095
 31
0.0
  0
LINE
  5
FC
330
86
100
AcDbEntity
  8
0
370
     0
100
AcDbLine
 10
3.292575905
 20
8.5959794095
 30
0.0
 11
3.4568035704
 21
8.5959794095
 31
0.0
  0
LINE
  5
FD
330
86
100
AcDbEntity
  8
0
370
     0
100
AcDbLine
 10
4.9498790008
 20
9.2970479632
 30
0.0
 11
4.9498790008
 21
9.2973314809
 31
0.0
  0
LINE
  5
FE
330
86
100
AcDbEntity
  8
0
370
     0
100
AcDbLine
 10
4.9498790008
 20
14.5159721035
 30
0.0
 11
4.9498790008
 21
15.3285340182
 31
0.0
  0
LINE
  5
FF
330
86
100
AcDbEntity
  8
0
370
     0
100
AcDbLine
 10
4.9498790008
 20
15.3285340182
 30
0.0
 11
4.6043417246
 21
15.3285340182
 31
0.0
  0
LINE
  5
100
330
86
100
AcDbEntity
  8
0
370
     0
100
AcDbLine
 10
21.230390505
 20
9.4534080106
 30
0.0
 11
21.1375384369
 21
9.4549673583
 31
0.0
  0
LINE
  5
101
330
86
100
AcDbEntity
  8
0
370
     0
100
AcDbLine
 10
21.1375384369
 20
9.4549673583
 30
0.0
 11
21.1375384369
 21
8.5959794095
 31
0.0
  0
LINE
  5
102
330
86
100
AcDbEntity
  8
0
370
     0
100
AcDbLine
 10
21.1375384369
 20
8.5959794095
 30
0.0
 11
21.301553464
 21
8.5959794095
 31
0.0
  0
LINE
  5
103
330
86
100
AcDbEntity
  8
0
370
     0
100
AcDbLine
 10
22.7946997739
 20
9.2970479632
 30
0.0
 11
22.7946997739
 21
9.2973314809
 31
0.0
  0
LINE
  5
104
330
86
100
AcDbEntity
  8
0
370
     0
100
AcDbLine
 10
22.7946997739
 20
14.5159721035
 30
0.0
 11
22.7946997739
 21
15.3285340182
 31
0.0
  0
LINE
  5
105
330
86
100
AcDbEntity
  8
0
370
     0
100
AcDbLine
 10
22.7946997739
 20
15.3285340182
 30
0.0
 11
22.4490916182
 21
15.3285340182
 31
0.0
  0
LINE
  5
106
330
86
100
AcDbEntity
  8
0
 62
     1
370
     0
100
AcDbLine
 10
12.1710764777
 20
17.9278248886
 30
0.0
 11
9.7662787942
 21
17.9278248886
 31
0.0
  0
LINE
  5
107
330
86
100
AcDbEntity
  8
0
 62
     1
370
     0
100
AcDbLine
 10
9.7662787942
 20
17.9278248886
 30
0.0
 11
9.7662787942
 21
20.3329060898
 31
0.0
  0
LINE
  5
108
330
86
100
AcDbEntity
  8
0
 62
     1
370
     0
100
AcDbLine
 10
9.7662787942
 20
20.3329060898
 30
0.0
 11
12.1710764777
 21
20.3329060898
 31
0.0
  0
LINE
  5
109
330
86
100
AcDbEntity
  8
0
 62
     1
370
     0
100
AcDbLine
 10
12.1710764777
 20
20.3329060898
 30
0.0
 11
12.1710764777
 21
17.9278248886
 31
0.0
  0
LINE
  5
10A
330
86
100
AcDbEntity
  8
0
 62
     1
370
     0
100
AcDbLine
 10
12.1710764777
 20
3.67
 30
0.0
 11
9.7662787942
 21
3.67
 31
0.0
  0
LINE
  5
10B
330
86
100
AcDbEntity
  8
0
 62
     1
370
     0
100
AcDbLine
 10
9.7662787942
 20
3.67
 30
0.0
 11
9.7662787942
 21
6.0749394424
 31
0.0
  0
LINE
  5
10C
330
86
100
AcDbEntity
  8
0
 62
     1
370
     0
100
AcDbLine
 10
9.7662787942
 20
6.0749394424
 30
0.0
 11
12.1710764777
 21
6.0749394424
 31
0.0
  0
LINE
  5
10D
330
86
100
AcDbEntity
  8
0
 62
     1
370
     0
100
AcDbLine
 10
12.1710764777
 20
6.0749394424
 30
0.0
 11
12.1710764777
 21
3.67
 31
0.0
  0
LINE
  5
10E
330
86
100
AcDbEntity
  8
0
 62
     1
370
     0
100
AcDbLine
 10
25.8269222715
 20
17.9278248886
 30
0.0
 11
23.422124588
 21
17.9278248886
 31
0.0
  0
LINE
  5
10F
330
86
100
AcDbEntity
  8
0
 62
     1
370
     0
100
AcDbLine
 10
23.422124588
 20
17.9278248886
 30
0.0
 11
23.422124588
 21
20.3329060898
 31
0.0
  0
LINE
  5
110
330
86
100
AcDbEntity
  8
0
 62
     1
370
     0
100
AcDbLine
 10
23.422124588
 20
20.3329060898
 30
0.0
 11
25.8269222715
 21
20.3329060898
 31
0.0
  0
LINE
  5
111
330
86
100
AcDbEntity
  8
0
 62
     1
370
     0
100
AcDbLine
 10
25.8269222715
 20
20.3329060898
 30
0.0
 11
25.8269222715
 21
17.9278248886
 31
0.0
  0
LINE
  5
112
330
86
100
AcDbEntity
  8
0
 62
     1
370
     0
100
AcDbLine
 10
25.8269222715
 20
3.67
 30
0.0
 11
23.422124588
 21
3.67
 31
0.0
  0
LINE
  5
113
330
86
100
AcDbEntity
  8
0
 62
     1
370
     0
100
AcDbLine
 10
23.422124588
 20
3.67
 30
0.0
 11
23.422124588
 21
6.0749394424
 31
0.0
  0
LINE
  5
114
330
86
100
AcDbEntity
  8
0
 62
     1
370
     0
100
AcDbLine
 10
23.422124588
 20
6.0749394424
 30
0.0
 11
25.8269222715
 21
6.0749394424
 31
0.0
  0
LINE
  5
115
330
86
100
AcDbEntity
  8
0
 62
     1
370
     0
100
AcDbLine
 10
25.8269222715
 20
6.0749394424
 30
0.0
 11
25.8269222715
 21
3.67
 31
0.0
  0
LINE
  5
116
330
86
100
AcDbEntity
  8
0
370
     0
100
AcDbLine
 10
8.2465526938
 20
15.3418593532
 30
0.0
 11
7.4064186764
 21
15.3418593532
 31
0.0
  0
LINE
  5
117
330
86
100
AcDbEntity
  8
0
370
     0
100
AcDbLine
 10
7.4064186764
 20
15.3418593532
 30
0.0
 11
7.4025203072
 21
9.7790281638
 31
0.0
  0
LINE
  5
118
330
86
100
AcDbEntity
  8
0
370
     0
100
AcDbLine
 10
6.5577791261
 20
9.7866831435
 30
0.0
 11
6.554873069
 21
15.3418593532
 31
0.0
  0
LINE
  5
119
330
86
100
AcDbEntity
  8
0
370
     0
100
AcDbLine
 10
6.554873069
 20
15.3418593532
 30
0.0
 11
5.7147390516
 21
15.3418593532
 31
0.0
  0
LINE
  5
11A
330
86
100
AcDbEntity
  8
0
370
     0
100
AcDbLine
 10
26.1769249525
 20
15.3418593532
 30
0.0
 11
25.3368618145
 21
15.3418593532
 31
0.0
  0
LINE
  5
11B
330
86
100
AcDbEntity
  8
0
370
     0
100
AcDbLine
 10
25.3368618145
 20
15.3418593532
 30
0.0
 11
25.3327508069
 21
9.7790281638
 31
0.0
  0
LINE
  5
11C
330
86
100
AcDbEntity
  8
0
370
     0
100
AcDbLine
 10
24.4880096259
 20
9.7866831435
 30
0.0
 11
24.4851744482
 21
15.3418593532
 31
0.0
  0
LINE
  5
11D
330
86
100
AcDbEntity
  8
0
370
     0
100
AcDbLine
 10
24.4851744482
 20
15.3418593532
 30
0.0
 11
23.6451113103
 21
15.3418593532
 31
0.0
  0
LINE
  5
11E
330
86
100
AcDbEntity
  8
0
370
     0
100
AcDbLine
 10
12.9538690271
 20
12.6636087853
 30
0.0
 11
11.909956616
 21
11.8235456473
 31
0.0
  0
LINE
  5
11F
330
86
100
AcDbEntity
  8
0
370
     0
100
AcDbLine
 10
11.909956616
 20
11.8235456473
 30
0.0
 11
14.4506301884
 21
11.8235456473
 31
0.0
  0
LINE
  5
120
330
86
100
AcDbEntity
  8
0
370
     0
100
AcDbLine
 10
14.4506301884
 20
11.8235456473
 30
0.0
 11
14.4506301884
 21
10.4153837876
 31
0.0
  0
LINE
  5
121
330
86
100
AcDbEntity
  8
0
370
     0
100
AcDbLine
 10
14.5099562808
 20
13.5421594598
 30
0.0
 11
15.2200265234
 21
14.0836783912
 31
0.0
  0
LINE
  5
122
330
86
100
AcDbEntity
  8
0
370
     0
100
AcDbLine
 10
15.2916856385
 20
10.0266809316
 30
0.0
 11
15.2905515675
 21
12.6636087853
 31
0.0
  0
LINE
  5
123
330
86
100
AcDbEntity
  8
0
370
     0
100
AcDbLine
 10
15.2905515675
 20
12.6636087853
 30
0.0
 11
12.9538690271
 21
12.6636087853
 31
0.0
  0
LINE
  5
124
330
86
100
AcDbEntity
  8
0
370
     0
100
AcDbLine
 10
17.7875634041
 20
15.3342043735
 30
0.0
 11
16.3643042233
 21
15.3342043735
 31
0.0
  0
LINE
  5
125
330
86
100
AcDbEntity
  8
0
370
     0
100
AcDbLine
 10
16.3643042233
 20
15.3342043735
 30
0.0
 11
15.5117663037
 21
8.5904508131
 31
0.0
  0
LINE
  5
126
330
86
100
AcDbEntity
  8
0
370
     0
100
AcDbLine
 10
15.5117663037
 20
8.5904508131
 30
0.0
 11
16.3519003211
 21
8.5904508131
 31
0.0
  0
LINE
  5
127
330
86
100
AcDbEntity
  8
0
370
     0
100
AcDbLine
 10
16.3519003211
 20
8.5904508131
 30
0.0
 11
16.5956547196
 21
10.5190095307
 31
0.0
  0
LINE
  5
128
330
86
100
AcDbEntity
  8
0
370
     0
100
AcDbLine
 10
16.5956547196
 20
10.5190095307
 30
0.0
 11
17.5561420283
 21
10.5190095307
 31
0.0
  0
LINE
  5
129
330
86
100
AcDbEntity
  8
0
370
     0
100
AcDbLine
 10
17.5561420283
 20
10.5190095307
 30
0.0
 11
17.8000381857
 21
8.5904508131
 31
0.0
  0
LINE
  5
12A
330
86
100
AcDbEntity
  8
0
370
     0
100
AcDbLine
 10
17.8000381857
 20
8.5904508131
 30
0.0
 11
18.6401722031
 21
8.5904508131
 31
0.0
  0
LINE
  5
12B
330
86
100
AcDbEntity
  8
0
370
     0
100
AcDbLine
 10
18.6401722031
 20
8.5904508131
 30
0.0
 11
17.7875634041
 21
15.3342043735
 31
0.0
  0
LINE
  5
12C
330
86
100
AcDbEntity
  8
0
370
     0
100
AcDbLine
 10
16.7253640972
 20
11.5449894431
 30
0.0
 11
17.0745162249
 21
14.306594234
 31
0.0
  0
LINE
  5
12D
330
86
100
AcDbEntity
  8
0
370
     0
100
AcDbLine
 10
17.0745162249
 20
14.306594234
 30
0.0
 11
17.4265035302
 21
11.5449894431
 31
0.0
  0
LINE
  5
12E
330
86
100
AcDbEntity
  8
0
370
     0
100
AcDbLine
 10
17.4265035302
 20
11.5449894431
 30
0.0
 11
16.7253640972
 21
11.5449894431
 31
0.0
  0
SPLINE
  5
12F
330
86
100
AcDbEntity
  8
0
370
     0
100
AcDbSpline
210
0.0
220
0.0
230
1.0
 70
     8
 71
     3
 72
     8
 73
     4
 74
     0
 42
0.000000001
 43
0.00000001
 40
0.0
 40
0.0
 40
0.0
 40
0.0
 40
1.0
 40
1.0
 40
1.0
 40
1.0
 10
3.610044922460022
 20
12.39688944776983
 30
0.0
 10
4.129095070897104
 20
11.47510231402356
 30
0.0
 10
4.338118543209125
 20
11.01807167669972
 30
0.0
 10
4.392341315782439
 20
10.69273504125985
 30
0.0
  0
SPLINE
  5
130
330
86
100
AcDbEntity
  8
0
100
AcDbSpline
210
0.0
220
0.0
230
1.0
 70
     8
 71
     3
 72
     8
 73
     4
 74
     0
 42
0.000000001
 43
0.00000001
 40
0.0
 40
0.0
 40
0.0
 40
0.0
 40
1.0
 40
1.0
 40
1.0
 40
1.0
 10
3.456803570429299
 20
8.59597940954257
 30
0.0
 10
4.008670900175461
 20
8.625890533759485
 30
0.0
 10
4.525665544815639
 20
8.733627284493354
 30
0.0
 10
4.949879000830379
 20
9.297047963166914
 30
0.0
  0
SPLINE
  5
131
330
86
100
AcDbEntity
  8
0
370
     0
100
AcDbSpline
210
0.0
220
0.0
230
1.0
 70
     8
 71
     3
 72
     8
 73
     4
 74
     0
 42
0.000000001
 43
0.00000001
 40
1.0
 40
1.0
 40
1.0
 40
1.0
 40
2.0
 40
2.0
 40
2.0
 40
2.0
 10
4.392341315782439
 20
10.69273504125985
 30
0.0
 10
4.44656408835575
 20
10.36732752637871
 30
0.0
 10
4.45662896901642
 20
9.982593919152642
 30
0.0
 10
4.129095070897104
 20
9.654989141592026
 30
0.0
  0
SPLINE
  5
132
330
86
100
AcDbEntity
  8
0
100
AcDbSpline
210
0.0
220
0.0
230
1.0
 70
     8
 71
     3
 72
     8
 73
     4
 74
     0
 42
0.000000001
 43
0.00000001
 40
0.0
 40
0.0
 40
0.0
 40
0.0
 40
1.0
 40
1.0
 40
1.0
 40
1.0
 10
21.30155346402704
 20
8.59597940954257
 30
0.0
 10
21.85327903489065
 20
8.625890533759485
 30
0.0
 10
22.37041543841338
 20
8.733627284493354
 30
0.0
 10
22.79469977386939
 20
9.297047963166914
 30
0.0
  0
SPLINE
  5
133
330
86
100
AcDbEntity
  8
0
370
     0
100
AcDbSpline
210
0.0
220
0.0
230
1.0
 70
     8
 71
     2
 72
     6
 73
     3
 74
     0
 42
0.000000001
 43
0.00000001
 40
2.0
 40
2.0
 40
2.0
 40
3.0
 40
3.0
 40
3.0
 10
4.129095070897104
 20
9.654989141592026
 30
0.0
 10
3.919858960261265
 20
9.445611272073664
 30
0.0
 10
3.385498852509362
 20
9.453408010613625
 30
0.0
  0
SPLINE
  5
134
330
86
100
AcDbEntity
  8
0
370
     0
100
AcDbSpline
210
0.0
220
0.0
230
1.0
 70
     8
 71
     3
 72
     8
 73
     4
 74
     0
 42
0.000000001
 43
0.00000001
 40
6.0
 40
6.0
 40
6.0
 40
6.0
 40
7.0
 40
7.0
 40
7.0
 40
7.0
 10
3.456803570429299
 20
8.59597940954257
 30
0.0
 10
4.008670900175461
 20
8.625890533759485
 30
0.0
 10
4.525665544815639
 20
8.733627284493354
 30
0.0
 10
4.949879000830379
 20
9.297047963166914
 30
0.0
  0
SPLINE
  5
135
330
86
100
AcDbEntity
  8
0
100
AcDbSpline
210
0.0
220
0.0
230
1.0
 70
     8
 71
     2
 72
     6
 73
     3
 74
     0
 42
0.000000001
 43
0.00000001
 40
0.0
 40
0.0
 40
0.0
 40
1.0
 40
1.0
 40
1.0
 10
14.45063018841125
 20
10.41538378756133
 30
0.0
 10
14.35969186525889
 20
10.27064796848328
 30
0.0
 10
14.18199710598922
 20
10.09600102518832
 30
0.0
  0
SPLINE
  5
136
330
86
100
AcDbEntity
  8
0
370
     0
100
AcDbSpline
210
0.0
220
0.0
230
1.0
 70
     8
 71
     3
 72
     8
 73
     4
 74
     0
 42
0.000000001
 43
0.00000001
 40
8.0
 40
8.0
 40
8.0
 40
8.0
 40
9.0
 40
9.0
 40
9.0
 40
9.0
 10
4.949879000830379
 20
9.297331480932005
 30
0.0
 10
5.118713829941009
 20
9.538605099022927
 30
0.0
 10
5.231270382681425
 20
9.822689899642315
 30
0.0
 10
5.267560656612845
 20
10.088629563296
 30
0.0
  0
SPLINE
  5
137
330
86
100
AcDbEntity
  8
0
370
     0
100
AcDbSpline
210
0.0
220
0.0
230
1.0
 70
     8
 71
     3
 72
     8
 73
     4
 74
     0
 42
0.000000001
 43
0.00000001
 40
9.0
 40
9.0
 40
9.0
 40
9.0
 40
10.0
 40
10.0
 40
10.0
 40
10.0
 10
5.267560656612845
 20
10.088629563296
 30
0.0
 10
5.314057570087478
 20
10.42941791693324
 30
0.0
 10
5.252038058974208
 20
10.71612525687973
 30
0.0
 10
5.182363568203539
 20
11.01041669704231
 30
0.0
  0
SPLINE
  5
138
330
86
100
AcDbEntity
  8
0
370
     0
100
AcDbSpline
210
0.0
220
0.0
230
1.0
 70
     8
 71
     3
 72
     8
 73
     4
 74
     0
 42
0.000000001
 43
0.00000001
 40
10.0
 40
10.0
 40
10.0
 40
10.0
 40
11.0
 40
11.0
 40
11.0
 40
11.0
 10
5.182363568203539
 20
11.01041669704231
 30
0.0
 10
5.137851279084528
 20
11.19796369864881
 30
0.0
 10
4.872478650961024
 20
11.82099398743238
 30
0.0
 10
4.833849355467621
 20
11.90122951495261
 30
0.0
  0
SPLINE
  5
139
330
86
100
AcDbEntity
  8
0
370
     0
100
AcDbSpline
210
0.0
220
0.0
230
1.0
 70
     8
 71
     3
 72
     8
 73
     4
 74
     0
 42
0.000000001
 43
0.00000001
 40
11.0
 40
11.0
 40
11.0
 40
11.0
 40
12.0
 40
12.0
 40
12.0
 40
12.0
 10
4.833849355467621
 20
11.90122951495261
 30
0.0
 10
4.648145219334186
 20
12.28582136329613
 30
0.0
 10
4.291692509175768
 20
12.88482352148837
 30
0.0
 10
4.175521104930461
 20
13.22568275456688
 30
0.0
  0
SPLINE
  5
13A
330
86
100
AcDbEntity
  8
0
370
     0
100
AcDbSpline
210
0.0
220
0.0
230
1.0
 70
     8
 71
     3
 72
     8
 73
     4
 74
     0
 42
0.000000001
 43
0.00000001
 40
12.0
 40
12.0
 40
12.0
 40
12.0
 40
13.0
 40
13.0
 40
13.0
 40
13.0
 10
4.175521104930461
 20
13.22568275456688
 30
0.0
 10
4.059349700685156
 20
13.56640022876286
 30
0.0
 10
4.098049875619833
 20
13.97693395261202
 30
0.0
 10
4.160069386733099
 20
14.14711549110683
 30
0.0
  0
SPLINE
  5
13B
330
86
100
AcDbEntity
  8
0
370
     0
100
AcDbSpline
210
0.0
220
0.0
230
1.0
 70
     8
 71
     3
 72
     8
 73
     4
 74
     0
 42
0.000000001
 43
0.00000001
 40
13.0
 40
13.0
 40
13.0
 40
13.0
 40
14.0
 40
14.0
 40
14.0
 40
14.0
 10
4.160069386733099
 20
14.14711549110683
 30
0.0
 10
4.222018018405095
 20
14.31750966792545
 30
0.0
 10
4.40006717488112
 20
14.46493890577188
 30
0.0
 10
4.578258090239689
 20
14.50349732182399
 30
0.0
  0
SPLINE
  5
13C
330
86
100
AcDbEntity
  8
0
370
     0
100
AcDbSpline
210
0.0
220
0.0
230
1.0
 70
     8
 71
     3
 72
     8
 73
     4
 74
     0
 42
0.000000001
 43
0.00000001
 40
14.0
 40
14.0
 40
14.0
 40
14.0
 40
15.0
 40
15.0
 40
15.0
 40
15.0
 10
4.578258090239689
 20
14.50349732182399
 30
0.0
 10
4.678694258522547
 20
14.52539906917713
 30
0.0
 10
4.815845977384454
 20
14.52242213264369
 30
0.0
 10
4.949879000830379
 20
14.51597210348793
 30
0.0
  0
SPLINE
  5
13D
330
86
100
AcDbEntity
  8
0
370
     0
100
AcDbSpline
210
0.0
220
0.0
230
1.0
 70
     8
 71
     3
 72
     8
 73
     4
 74
     0
 42
0.000000001
 43
0.00000001
 40
17.0
 40
17.0
 40
17.0
 40
17.0
 40
18.0
 40
18.0
 40
18.0
 40
18.0
 10
4.604341724627901
 20
15.3285340182336
 30
0.0
 10
4.293818892413936
 20
15.3285340182336
 30
0.0
 10
3.922056222940704
 20
15.17954543267921
 30
0.0
 10
3.648886856277244
 20
14.89078258893584
 30
0.0
  0
SPLINE
  5
13E
330
86
100
AcDbEntity
  8
0
370
     0
100
AcDbSpline
210
0.0
220
0.0
230
1.0
 70
     8
 71
     3
 72
     8
 73
     4
 74
     0
 42
0.000000001
 43
0.00000001
 40
18.0
 40
18.0
 40
18.0
 40
18.0
 40
19.0
 40
19.0
 40
19.0
 40
19.0
 10
3.648886856277244
 20
14.89078258893584
 30
0.0
 10
3.355091572203543
 20
14.5804723950457
 30
0.0
 10
3.176404500756066
 20
14.23252521783996
 30
0.0
 10
3.230627273329383
 20
13.57412608786154
 30
0.0
  0
SPLINE
  5
13F
330
86
100
AcDbEntity
  8
0
370
     0
100
AcDbSpline
210
0.0
220
0.0
230
1.0
 70
     8
 71
     3
 72
     8
 73
     4
 74
     0
 42
0.000000001
 43
0.00000001
 40
19.0
 40
19.0
 40
19.0
 40
19.0
 40
20.0
 40
20.0
 40
20.0
 40
20.0
 10
3.230627273329383
 20
13.57412608786154
 30
0.0
 10
3.261530709724104
 20
13.17124734366976
 30
0.0
 10
3.356792678794077
 20
12.84683214096644
 30
0.0
 10
3.610044922460022
 20
12.39688944776983
 30
0.0
  0
SPLINE
  5
140
330
86
100
AcDbEntity
  8
0
370
     0
100
AcDbSpline
210
0.0
220
0.0
230
1.0
 70
     8
 71
     3
 72
     8
 73
     4
 74
     0
 42
0.000000001
 43
0.00000001
 40
0.0
 40
0.0
 40
0.0
 40
0.0
 40
1.0
 40
1.0
 40
1.0
 40
1.0
 10
21.45465305717521
 20
12.39688944776983
 30
0.0
 10
21.97377408505358
 20
11.47510231402356
 30
0.0
 10
22.18301019568941
 20
11.01807167669972
 30
0.0
 10
22.23716208882146
 20
10.69273504125985
 30
0.0
  0
SPLINE
  5
141
330
86
100
AcDbEntity
  8
0
370
     0
100
AcDbSpline
210
0.0
220
0.0
230
1.0
 70
     8
 71
     3
 72
     8
 73
     4
 74
     0
 42
0.000000001
 43
0.00000001
 40
1.0
 40
1.0
 40
1.0
 40
1.0
 40
2.0
 40
2.0
 40
2.0
 40
2.0
 10
22.23716208882146
 20
10.69273504125985
 30
0.0
 10
22.29117222307095
 20
10.36732752637871
 30
0.0
 10
22.30137886261416
 20
9.982593919152642
 30
0.0
 10
21.97377408505358
 20
9.654989141592026
 30
0.0
  0
SPLINE
  5
142
330
86
100
AcDbEntity
  8
0
370
     0
100
AcDbSpline
210
0.0
220
0.0
230
1.0
 70
     8
 71
     2
 72
     6
 73
     3
 74
     0
 42
0.000000001
 43
0.00000001
 40
2.0
 40
2.0
 40
2.0
 40
3.0
 40
3.0
 40
3.0
 10
21.97377408505358
 20
9.654989141592026
 30
0.0
 10
21.76453797441773
 20
9.445611272073664
 30
0.0
 10
21.23039050498965
 20
9.453408010613625
 30
0.0
  0
SPLINE
  5
143
330
86
100
AcDbEntity
  8
0
370
     0
100
AcDbSpline
210
0.0
220
0.0
230
1.0
 70
     8
 71
     3
 72
     8
 73
     4
 74
     0
 42
0.000000001
 43
0.00000001
 40
6.0
 40
6.0
 40
6.0
 40
6.0
 40
7.0
 40
7.0
 40
7.0
 40
7.0
 10
21.30155346402704
 20
8.59597940954257
 30
0.0
 10
21.85327903489065
 20
8.625890533759485
 30
0.0
 10
22.37041543841338
 20
8.733627284493354
 30
0.0
 10
22.79469977386939
 20
9.297047963166914
 30
0.0
  0
SPLINE
  5
144
330
86
100
AcDbEntity
  8
0
370
     0
100
AcDbSpline
210
0.0
220
0.0
230
1.0
 70
     8
 71
     3
 72
     8
 73
     4
 74
     0
 42
0.000000001
 43
0.00000001
 40
8.0
 40
8.0
 40
8.0
 40
8.0
 40
9.0
 40
9.0
 40
9.0
 40
9.0
 10
22.79469977386939
 20
9.297331480932005
 30
0.0
 10
22.96353460298002
 20
9.538605099022927
 30
0.0
 10
23.07609115572044
 20
9.822689899642315
 30
0.0
 10
23.11238142965186
 20
10.088629563296
 30
0.0
  0
SPLINE
  5
145
330
86
100
AcDbEntity
  8
0
370
     0
100
AcDbSpline
210
0.0
220
0.0
230
1.0
 70
     8
 71
     3
 72
     8
 73
     4
 74
     0
 42
0.000000001
 43
0.00000001
 40
9.0
 40
9.0
 40
9.0
 40
9.0
 40
10.0
 40
10.0
 40
10.0
 40
10.0
 10
23.11238142965186
 20
10.088629563296
 30
0.0
 10
23.15887834312649
 20
10.42941791693324
 30
0.0
 10
23.09678795257196
 20
10.71612525687973
 30
0.0
 10
23.02704258236
 20
11.01041669704231
 30
0.0
  0
SPLINE
  5
146
330
86
100
AcDbEntity
  8
0
370
     0
100
AcDbSpline
210
0.0
220
0.0
230
1.0
 70
     8
 71
     3
 72
     8
 73
     4
 74
     0
 42
0.000000001
 43
0.00000001
 40
10.0
 40
10.0
 40
10.0
 40
10.0
 40
11.0
 40
11.0
 40
11.0
 40
11.0
 10
23.02704258236
 20
11.01041669704231
 30
0.0
 10
22.982530293241
 20
11.19796369864881
 30
0.0
 10
22.7171576651175
 20
11.82099398743238
 30
0.0
 10
22.67859924906536
 20
11.90122951495261
 30
0.0
  0
SPLINE
  5
147
330
86
100
AcDbEntity
  8
0
370
     0
100
AcDbSpline
210
0.0
220
0.0
230
1.0
 70
     8
 71
     3
 72
     8
 73
     4
 74
     0
 42
0.000000001
 43
0.00000001
 40
11.0
 40
11.0
 40
11.0
 40
11.0
 40
12.0
 40
12.0
 40
12.0
 40
12.0
 10
22.67859924906536
 20
11.90122951495261
 30
0.0
 10
22.49289511293193
 20
12.28582136329613
 30
0.0
 10
22.13651328221478
 20
12.88482352148837
 30
0.0
 10
22.02041275741075
 20
13.22568275456688
 30
0.0
  0
SPLINE
  5
148
330
86
100
AcDbEntity
  8
0
370
     0
100
AcDbSpline
210
0.0
220
0.0
230
1.0
 70
     8
 71
     3
 72
     8
 73
     4
 74
     0
 42
0.000000001
 43
0.00000001
 40
12.0
 40
12.0
 40
12.0
 40
12.0
 40
13.0
 40
13.0
 40
13.0
 40
13.0
 10
22.02041275741075
 20
13.22568275456688
 30
0.0
 10
21.90417047372417
 20
13.56640022876286
 30
0.0
 10
21.9427288897763
 20
13.97693395261202
 30
0.0
 10
22.00467752144829
 20
14.14711549110683
 30
0.0
  0
SPLINE
  5
149
330
86
100
AcDbEntity
  8
0
370
     0
100
AcDbSpline
210
0.0
220
0.0
230
1.0
 70
     8
 71
     3
 72
     8
 73
     4
 74
     0
 42
0.000000001
 43
0.00000001
 40
13.0
 40
13.0
 40
13.0
 40
13.0
 40
14.0
 40
14.0
 40
14.0
 40
14.0
 10
22.00467752144829
 20
14.14711549110683
 30
0.0
 10
22.06676791200283
 20
14.31750966792545
 30
0.0
 10
22.24481706847886
 20
14.46493890577188
 30
0.0
 10
22.42286622495489
 20
14.50349732182399
 30
0.0
  0
SPLINE
  5
14A
330
86
100
AcDbEntity
  8
0
370
     0
100
AcDbSpline
210
0.0
220
0.0
230
1.0
 70
     8
 71
     3
 72
     8
 73
     4
 74
     0
 42
0.000000001
 43
0.00000001
 40
14.0
 40
14.0
 40
14.0
 40
14.0
 40
15.0
 40
15.0
 40
15.0
 40
15.0
 10
22.42286622495489
 20
14.50349732182399
 30
0.0
 10
22.52351503156157
 20
14.52539906917713
 30
0.0
 10
22.6605958709822
 20
14.52242213264369
 30
0.0
 10
22.79469977386939
 20
14.51597210348793
 30
0.0
  0
SPLINE
  5
14B
330
86
100
AcDbEntity
  8
0
370
     0
100
AcDbSpline
210
0.0
220
0.0
230
1.0
 70
     8
 71
     3
 72
     8
 73
     4
 74
     0
 42
0.000000001
 43
0.00000001
 40
17.0
 40
17.0
 40
17.0
 40
17.0
 40
18.0
 40
18.0
 40
18.0
 40
18.0
 10
22.44909161822564
 20
15.3285340182336
 30
0.0
 10
22.13849790657041
 20
15.3285340182336
 30
0.0
 10
21.76680611653844
 20
15.17954543267921
 30
0.0
 10
21.49363674987499
 20
14.89078258893584
 30
0.0
  0
SPLINE
  5
14C
330
86
100
AcDbEntity
  8
0
370
     0
100
AcDbSpline
210
0.0
220
0.0
230
1.0
 70
     8
 71
     3
 72
     8
 73
     4
 74
     0
 42
0.000000001
 43
0.00000001
 40
18.0
 40
18.0
 40
18.0
 40
18.0
 40
19.0
 40
19.0
 40
19.0
 40
19.0
 10
21.49363674987499
 20
14.89078258893584
 30
0.0
 10
21.19977058636001
 20
14.5804723950457
 30
0.0
 10
21.02115439435381
 20
14.23252521783996
 30
0.0
 10
21.07530628748584
 20
13.57412608786154
 30
0.0
  0
SPLINE
  5
14D
330
86
100
AcDbEntity
  8
0
370
     0
100
AcDbSpline
210
0.0
220
0.0
230
1.0
 70
     8
 71
     3
 72
     8
 73
     4
 74
     0
 42
0.000000001
 43
0.00000001
 40
19.0
 40
19.0
 40
19.0
 40
19.0
 40
20.0
 40
20.0
 40
20.0
 40
20.0
 10
21.07530628748584
 20
13.57412608786154
 30
0.0
 10
21.10620972388057
 20
13.17124734366976
 30
0.0
 10
21.20147169295055
 20
12.84683214096644
 30
0.0
 10
21.45465305717521
 20
12.39688944776983
 30
0.0
  0
SPLINE
  5
14E
330
86
100
AcDbEntity
  8
0
370
     0
100
AcDbSpline
210
0.0
220
0.0
230
1.0
 70
     8
 71
     3
 72
     8
 73
     4
 74
     0
 42
0.000000001
 43
0.00000001
 40
2.0
 40
2.0
 40
2.0
 40
2.0
 40
3.0
 40
3.0
 40
3.0
 40
3.0
 10
7.402520307175909
 20
9.779028163818586
 30
0.0
 10
7.391392234896158
 20
9.555332647163173
 30
0.0
 10
7.206893049264348
 20
9.376999972922052
 30
0.0
 10
6.980291475516796
 20
9.376999972922052
 30
0.0
  0
SPLINE
  5
14F
330
86
100
AcDbEntity
  8
0
370
     0
100
AcDbSpline
210
0.0
220
0.0
230
1.0
 70
     8
 71
     3
 72
     8
 73
     4
 74
     0
 42
0.000000001
 43
0.00000001
 40
3.0
 40
3.0
 40
3.0
 40
3.0
 40
4.0
 40
4.0
 40
4.0
 40
4.0
 10
6.980291475516796
 20
9.376999972922052
 30
0.0
 10
6.751138241883437
 20
9.376999972922052
 30
0.0
 10
6.564937949661092
 20
9.559301895874432
 30
0.0
 10
6.557779126092594
 20
9.786683143475988
 30
0.0
  0
SPLINE
  5
150
330
86
100
AcDbEntity
  8
0
370
     0
100
AcDbSpline
210
0.0
220
0.0
230
1.0
 70
     8
 71
     2
 72
     6
 73
     3
 74
     0
 42
0.000000001
 43
0.00000001
 40
6.0
 40
6.0
 40
6.0
 40
7.0
 40
7.0
 40
7.0
 10
5.714739051599811
 20
15.34185935319279
 30
0.0
 10
5.713888498304544
 20
9.698509118533215
 30
0.0
 10
5.713888498304544
 20
9.695815699764879
 30
0.0
  0
SPLINE
  5
151
330
86
100
AcDbEntity
  8
0
370
     0
100
AcDbSpline
210
0.0
220
0.0
230
1.0
 70
     8
 71
     3
 72
     8
 73
     4
 74
     0
 42
0.000000001
 43
0.00000001
 40
7.0
 40
7.0
 40
7.0
 40
7.0
 40
8.0
 40
8.0
 40
8.0
 40
8.0
 10
5.713888498304544
 20
9.695815699764879
 30
0.0
 10
5.713888498304544
 20
8.997582323791436
 30
0.0
 10
6.279931716305157
 20
8.431680864673364
 30
0.0
 10
6.978094212837349
 20
8.431680864673364
 30
0.0
  0
SPLINE
  5
152
330
86
100
AcDbEntity
  8
0
370
     0
100
AcDbSpline
210
0.0
220
0.0
230
1.0
 70
     8
 71
     3
 72
     8
 73
     4
 74
     0
 42
0.000000001
 43
0.00000001
 40
8.0
 40
8.0
 40
8.0
 40
8.0
 40
9.0
 40
9.0
 40
9.0
 40
9.0
 10
6.978094212837349
 20
8.431680864673364
 30
0.0
 10
7.676256709369548
 20
8.431680864673364
 30
0.0
 10
8.242299927370162
 20
8.997298806026343
 30
0.0
 10
8.242299927370162
 20
9.695815699764879
 30
0.0
  0
SPLINE
  5
153
330
86
100
AcDbEntity
  8
0
370
     0
100
AcDbSpline
210
0.0
220
0.0
230
1.0
 70
     8
 71
     2
 72
     6
 73
     3
 74
     0
 42
0.000000001
 43
0.00000001
 40
9.0
 40
9.0
 40
9.0
 40
10.0
 40
10.0
 40
10.0
 10
8.242299927370162
 20
9.695815699764879
 30
0.0
 10
8.242299927370162
 20
9.701060778419045
 30
0.0
 10
8.246552693846501
 20
15.34185935319279
 30
0.0
  0
SPLINE
  5
154
330
86
100
AcDbEntity
  8
0
370
     0
100
AcDbSpline
210
0.0
220
0.0
230
1.0
 70
     8
 71
     3
 72
     8
 73
     4
 74
     0
 42
0.000000001
 43
0.00000001
 40
2.0
 40
2.0
 40
2.0
 40
2.0
 40
3.0
 40
3.0
 40
3.0
 40
3.0
 10
25.33275080694805
 20
9.779028163818586
 30
0.0
 10
25.32155185522702
 20
9.555332647163173
 30
0.0
 10
25.13726530791903
 20
9.376999972922052
 30
0.0
 10
24.91073461361275
 20
9.376999972922052
 30
0.0
  0
SPLINE
  5
155
330
86
100
AcDbEntity
  8
0
370
     0
100
AcDbSpline
210
0.0
220
0.0
230
1.0
 70
     8
 71
     3
 72
     8
 73
     4
 74
     0
 42
0.000000001
 43
0.00000001
 40
3.0
 40
3.0
 40
3.0
 40
3.0
 40
4.0
 40
4.0
 40
4.0
 40
4.0
 10
24.91073461361275
 20
9.376999972922052
 30
0.0
 10
24.68136874165558
 20
9.376999972922052
 30
0.0
 10
24.4952393288745
 20
9.559301895874432
 30
0.0
 10
24.48800962586473
 20
9.786683143475988
 30
0.0
  0
SPLINE
  5
156
330
86
100
AcDbEntity
  8
0
370
     0
100
AcDbSpline
210
0.0
220
0.0
230
1.0
 70
     8
 71
     2
 72
     6
 73
     3
 74
     0
 42
0.000000001
 43
0.00000001
 40
6.0
 40
6.0
 40
6.0
 40
7.0
 40
7.0
 40
7.0
 10
23.64511131025449
 20
15.34185935319279
 30
0.0
 10
23.64426075695922
 20
9.698509118533215
 30
0.0
 10
23.64426075695922
 20
9.695815699764879
 30
0.0
  0
SPLINE
  5
157
330
86
100
AcDbEntity
  8
0
370
     0
100
AcDbSpline
210
0.0
220
0.0
230
1.0
 70
     8
 71
     3
 72
     8
 73
     4
 74
     0
 42
0.000000001
 43
0.00000001
 40
7.0
 40
7.0
 40
7.0
 40
7.0
 40
8.0
 40
8.0
 40
8.0
 40
8.0
 10
23.64426075695922
 20
9.695815699764879
 30
0.0
 10
23.64426075695922
 20
8.997582323791436
 30
0.0
 10
24.2101622160773
 20
8.431680864673364
 30
0.0
 10
24.9083247126095
 20
8.431680864673364
 30
0.0
  0
SPLINE
  5
158
330
86
100
AcDbEntity
  8
0
370
     0
100
AcDbSpline
210
0.0
220
0.0
230
1.0
 70
     8
 71
     3
 72
     8
 73
     4
 74
     0
 42
0.000000001
 43
0.00000001
 40
8.0
 40
8.0
 40
8.0
 40
8.0
 40
9.0
 40
9.0
 40
9.0
 40
9.0
 10
24.9083247126095
 20
8.431680864673364
 30
0.0
 10
25.60648720914169
 20
8.431680864673364
 30
0.0
 10
26.17267218602484
 20
8.997298806026343
 30
0.0
 10
26.17267218602484
 20
9.695815699764879
 30
0.0
  0
SPLINE
  5
159
330
86
100
AcDbEntity
  8
0
370
     0
100
AcDbSpline
210
0.0
220
0.0
230
1.0
 70
     8
 71
     2
 72
     6
 73
     3
 74
     0
 42
0.000000001
 43
0.00000001
 40
9.0
 40
9.0
 40
9.0
 40
10.0
 40
10.0
 40
10.0
 10
26.17267218602484
 20
9.695815699764879
 30
0.0
 10
26.17267218602484
 20
9.701060778419045
 30
0.0
 10
26.17692495250119
 20
15.34185935319279
 30
0.0
  0
SPLINE
  5
15A
330
86
100
AcDbEntity
  8
0
370
     0
100
AcDbSpline
210
0.0
220
0.0
230
1.0
 70
     8
 71
     2
 72
     6
 73
     3
 74
     0
 42
0.000000001
 43
0.00000001
 40
3.0
 40
3.0
 40
3.0
 40
4.0
 40
4.0
 40
4.0
 10
14.45063018841125
 20
10.41538378756133
 30
0.0
 10
14.35969186525889
 20
10.27064796848328
 30
0.0
 10
14.18199710598922
 20
10.09600102518832
 30
0.0
  0
SPLINE
  5
15B
330
86
100
AcDbEntity
  8
0
370
     0
100
AcDbSpline
210
0.0
220
0.0
230
1.0
 70
     8
 71
     3
 72
     8
 73
     4
 74
     0
 42
0.000000001
 43
0.00000001
 40
4.0
 40
4.0
 40
4.0
 40
4.0
 40
5.0
 40
5.0
 40
5.0
 40
5.0
 10
14.18199710598922
 20
10.09600102518832
 30
0.0
 10
13.69647293327394
 20
9.605231773818897
 30
0.0
 10
13.01900723359326
 20
9.300450176347976
 30
0.0
 10
12.26938626269738
 20
9.300450176347976
 30
0.0
  0
SPLINE
  5
15C
330
86
100
AcDbEntity
  8
0
370
     0
100
AcDbSpline
210
0.0
220
0.0
230
1.0
 70
     8
 71
     3
 72
     8
 73
     4
 74
     0
 42
0.000000001
 43
0.00000001
 40
5.0
 40
5.0
 40
5.0
 40
5.0
 40
6.0
 40
6.0
 40
6.0
 40
6.0
 10
12.26938626269738
 20
9.300450176347976
 30
0.0
 10
10.79254222434765
 20
9.300450176347976
 30
0.0
 10
9.595246702375896
 20
10.48300277453512
 30
0.0
 10
9.595246702375896
 20
11.94219783200801
 30
0.0
  0
SPLINE
  5
15D
330
86
100
AcDbEntity
  8
0
370
     0
100
AcDbSpline
210
0.0
220
0.0
230
1.0
 70
     8
 71
     3
 72
     8
 73
     4
 74
     0
 42
0.000000001
 43
0.00000001
 40
6.0
 40
6.0
 40
6.0
 40
6.0
 40
7.0
 40
7.0
 40
7.0
 40
7.0
 10
9.595246702375896
 20
11.94219783200801
 30
0.0
 10
9.595246702375896
 20
13.40096761283331
 30
0.0
 10
10.79254222434765
 20
14.58366196990294
 30
0.0
 10
12.26938626269738
 20
14.58366196990294
 30
0.0
  0
SPLINE
  5
15E
330
86
100
AcDbEntity
  8
0
370
     0
100
AcDbSpline
210
0.0
220
0.0
230
1.0
 70
     8
 71
     3
 72
     8
 73
     4
 74
     0
 42
0.000000001
 43
0.00000001
 40
7.0
 40
7.0
 40
7.0
 40
7.0
 40
8.0
 40
8.0
 40
8.0
 40
8.0
 10
12.26938626269738
 20
14.58366196990294
 30
0.0
 10
13.16296337881731
 20
14.58366196990294
 30
0.0
 10
13.95355266676859
 20
14.15037594540535
 30
0.0
 10
14.50995628075617
 20
13.54215945984774
 30
0.0
  0
SPLINE
  5
15F
330
86
100
AcDbEntity
  8
0
370
     0
100
AcDbSpline
210
0.0
220
0.0
230
1.0
 70
     8
 71
     3
 72
     8
 73
     4
 74
     0
 42
0.000000001
 43
0.00000001
 40
9.0
 40
9.0
 40
9.0
 40
9.0
 40
10.0
 40
10.0
 40
10.0
 40
10.0
 10
15.22002652342211
 20
14.08367839116812
 30
0.0
 10
14.4993952440066
 20
14.90127274624418
 30
0.0
 10
13.45172622256067
 20
15.46922970915913
 30
0.0
 10
12.26938626269738
 20
15.46922970915913
 30
0.0
  0
SPLINE
  5
160
330
86
100
AcDbEntity
  8
0
370
     0
100
AcDbSpline
210
0.0
220
0.0
230
1.0
 70
     8
 71
     3
 72
     8
 73
     4
 74
     0
 42
0.000000001
 43
0.00000001
 40
10.0
 40
10.0
 40
10.0
 40
10.0
 40
11.0
 40
11.0
 40
11.0
 40
11.0
 10
12.26938626269738
 20
15.46922970915913
 30
0.0
 10
10.2974493270606
 20
15.46922970915913
 30
0.0
 10
8.698692649722526
 20
13.89010663705348
 30
0.0
 10
8.698692649722526
 20
11.94219783200801
 30
0.0
  0
SPLINE
  5
161
330
86
100
AcDbEntity
  8
0
370
     0
100
AcDbSpline
210
0.0
220
0.0
230
1.0
 70
     8
 71
     3
 72
     8
 73
     4
 74
     0
 42
0.000000001
 43
0.00000001
 40
11.0
 40
11.0
 40
11.0
 40
11.0
 40
12.0
 40
12.0
 40
12.0
 40
12.0
 10
8.698692649722526
 20
11.94219783200801
 30
0.0
 10
8.698692649722526
 20
9.993934629756218
 30
0.0
 10
10.2974493270606
 20
8.414811557650523
 30
0.0
 10
12.26938626269738
 20
8.414811557650523
 30
0.0
  0
SPLINE
  5
162
330
86
100
AcDbEntity
  8
0
370
     0
100
AcDbSpline
210
0.0
220
0.0
230
1.0
 70
     8
 71
     3
 72
     8
 73
     4
 74
     0
 42
0.000000001
 43
0.00000001
 40
12.0
 40
12.0
 40
12.0
 40
12.0
 40
13.0
 40
13.0
 40
13.0
 40
13.0
 10
12.26938626269738
 20
8.414811557650523
 30
0.0
 10
13.33966582590916
 20
8.414811557650523
 30
0.0
 10
14.33247415981032
 20
8.880489486809598
 30
0.0
 10
14.98683316163622
 20
9.61742303771775
 30
0.0
  0
SPLINE
  5
163
330
86
100
AcDbEntity
  8
0
370
     0
100
AcDbSpline
210
0.0
220
0.0
230
1.0
 70
     8
 71
     2
 72
     6
 73
     3
 74
     0
 42
0.000000001
 43
0.00000001
 40
13.0
 40
13.0
 40
13.0
 40
14.0
 40
14.0
 40
14.0
 10
14.98683316163622
 20
9.61742303771775
 30
0.0
 10
15.15226577756578
 20
9.800291996200263
 30
0.0
 10
15.29168563854841
 20
10.02668093162401
 30
0.0
  0
ENDBLK
  5
88
330
86
100
AcDbEntity
  8
0
100
AcDbBlockEnd
  0
BLOCK
  5
165
330
164
100
AcDbEntity
  8
0
100
AcDbBlockBegin
  2
ﾌﾞﾛｯｸ1
 70
     0
 10
0.0
 20
0.0
 30
0.0
  3
ﾌﾞﾛｯｸ1
  1
ﾌﾞﾛｯｸ1
  0
CIRCLE
  5
167
330
164
100
AcDbEntity
  8
9
  6
Continuous
 62
   179
100
AcDbCircle
 10
4.437888
 20
3.2320596145
 30
0.0
 40
1.109472
  0
CIRCLE
  5
168
330
164
100
AcDbEntity
  8
9
  6
Continuous
 62
   179
100
AcDbCircle
 10
4.437888
 20
3.2320596145
 30
0.0
 40
2.218944
  0
LINE
  5
169
330
164
100
AcDbEntity
  8
9
  6
CENTER
 62
   179
100
AcDbLine
 10
4.437888
 20
6.1328113459
 30
0.0
 11
4.437888
 21
0.0
 31
0.0
  0
LINE
  5
16A
330
164
100
AcDbEntity
  8
9
  6
CENTER
 62
   179
100
AcDbLine
 10
0.0
 20
3.2320596145
 30
0.0
 11
19.970496
 21
3.2320596145
 31
0.0
  0
LINE
  5
16B
330
164
100
AcDbEntity
  8
9
  6
Continuous
 62
   179
100
AcDbLine
 10
9.985248
 20
2.1225876145
 30
0.0
 11
17.751552
 21
1.0131156145
 31
0.0
  0
LINE
  5
16C
330
164
100
AcDbEntity
  8
9
  6
Continuous
 62
   179
100
AcDbLine
 10
17.751552
 20
1.0131156145
 30
0.0
 11
17.751552
 21
3.2320596145
 31
0.0
  0
LINE
  5
16D
330
164
100
AcDbEntity
  8
9
  6
Continuous
 62
   179
100
AcDbLine
 10
9.985248
 20
4.3415316145
 30
0.0
 11
9.985248
 21
2.1225876145
 31
0.0
  0
LINE
  5
16E
330
164
100
AcDbEntity
  8
9
  6
Continuous
 62
   179
100
AcDbLine
 10
17.751552
 20
3.2320596145
 30
0.0
 11
17.751552
 21
5.4510036145
 31
0.0
  0
LINE
  5
16F
330
164
100
AcDbEntity
  8
9
  6
Continuous
 62
   179
100
AcDbLine
 10
17.751552
 20
5.4510036145
 30
0.0
 11
9.985248
 21
4.3415316145
 31
0.0
  0
ENDBLK
  5
166
330
164
100
AcDbEntity
  8
0
100
AcDbBlockEnd
  0
ENDSEC
  0
SECTION
  2
ENTITIES
  0
INSERT
  5
172
330
1F
100
AcDbEntity
  8
0
  6
Continuous
 62
     7
100
AcDbBlockReference
 66
     1
  2
ﾌﾞﾛｯｸ2
 10
0.0
 20
0.0
 30
0.0
  0
ATTRIB
  5
173
330
172
100
AcDbEntity
  8
SLD-0
 62
     7
100
AcDbText
 10
78.3050930978
 20
15.9259892778
 30
0.0
 40
4.0
  1
J95SC-16GR,J95SC-16NI
 41
0.7
  7
SLDTEXTSTYLE0
 11
78.3050930978
 21
14.5129490301
 31
0.0
100
AcDbAttribute
  2
AUTOATTR0
 70
     0
 74
     1
  0
ATTRIB
  5
174
330
172
100
AcDbEntity
  8
SLD-0
 62
     7
100
AcDbText
 10
78.3050930978
 20
9.8784313554
 30
0.0
 40
4.0
  1

 41
0.7
  7
SLDTEXTSTYLE0
 11
78.3050930978
 21
8.4653911077
 31
0.0
100
AcDbAttribute
  2
AUTOATTR0
 70
     0
 74
     1
  0
ATTRIB
  5
175
330
172
100
AcDbEntity
  8
SLD-0
 62
     7
100
AcDbText
 10
66.9646413579
 20
16.8429035566
 30
0.0
 40
2.38125
  1
Title
 41
0.7
  7
SLDTEXTSTYLE0
 11
66.9646413579
 21
16.0017030342
 31
0.0
100
AcDbAttribute
  2
AUTOATTR0
 70
     0
 74
     1
  0
ATTRIB
  5
176
330
172
100
AcDbEntity
  8
SLD-0
 62
     7
100
AcDbText
 10
66.9646413579
 20
2.4516379051
 30
0.0
 40
2.38125
  1
Date
 41
0.7
  7
SLDTEXTSTYLE0
 11
66.9646413579
 21
1.6104373826
 31
0.0
100
AcDbAttribute
  2
AUTOATTR0
 70
     0
 74
     1
  0
ATTRIB
  5
177
330
172
100
AcDbEntity
  8
SLD-0
 62
     7
100
AcDbText
 10
51.857512217
 20
2.0282473934
 30
0.0
 40
4.0
  1
1:1
 41
0.7
  7
SLDTEXTSTYLE0
 11
51.857512217
 21
0.6152071457
 31
0.0
100
AcDbAttribute
  2
AUTOATTR0
 70
     0
 74
     1
  0
ATTRIB
  5
178
330
172
100
AcDbEntity
  8
SLD-0
 62
     7
100
AcDbText
 10
38.4275608796
 20
2.4516379051
 30
0.0
 40
2.38125
  1
Scale
 41
0.7
  7
SLDTEXTSTYLE0
 11
38.4275608796
 21
1.6104373826
 31
0.0
100
AcDbAttribute
  2
AUTOATTR0
 70
     0
 74
     1
  0
ATTRIB
  5
179
330
172
100
AcDbEntity
  8
SLD-0
 62
     7
100
AcDbText
 10
78.3050930978
 20
2.0282473934
 30
0.0
 40
4.0
  1
2016/04/15
 41
0.7
  7
SLDTEXTSTYLE0
 11
78.3050930978
 21
0.6152071457
 31
0.0
100
AcDbAttribute
  2
AUTOATTR0
 70
     0
 74
     1
  0
SEQEND
  5
17A
330
172
100
AcDbEntity
  8
0
  6
Continuous
 62
     7
  0
SPLINE
  5
17B
330
1F
100
AcDbEntity
  8
0
  6
Continuous
 62
     7
370
    15
100
AcDbSpline
210
0.0
220
0.0
230
1.0
 70
     8
 71
     3
 72
    20
 73
    16
 74
     0
 42
0.000000001
 43
0.00000001
 40
0.0
 40
0.0
 40
0.0
 40
0.0
 40
0.0264576862301091
 40
0.1190260263082346
 40
0.2122392209030077
 40
0.305582335944391
 40
0.3986962042585534
 40
0.4933085408972511
 40
0.5880998721215575
 40
0.6859622589891365
 40
0.7888644905492204
 40
0.8640578601811411
 40
0.9284818545377084
 40
0.9871960532478287
 40
1.0
 40
1.0
 40
1.0
 40
1.0
 10
153.53550394888
 20
123.4785562199745
 30
0.0
 10
153.4969839601567
 20
123.4733602419162
 30
0.0
 10
153.323692873729
 20
123.4499849317817
 30
0.0
 10
153.0162465616247
 20
123.3860766778425
 30
0.0
 10
152.6226160883346
 20
123.2889663486322
 30
0.0
 10
152.2471911530623
 20
123.1718265338748
 30
0.0
 10
151.895376641017
 20
123.0400072264811
 30
0.0
 10
151.5743514844726
 20
122.8945583377166
 30
0.0
 10
151.2872306263801
 20
122.7371493478812
 30
0.0
 10
151.0343667502289
 20
122.5640821245914
 30
0.0
 10
150.8437489876045
 20
122.3899828813774
 30
0.0
 10
150.7056059108457
 20
122.2097487859263
 30
0.0
 10
150.6275131414889
 20
122.0342364491295
 30
0.0
 10
150.5896641876421
 20
121.8961726313418
 30
0.0
 10
150.5971543968025
 20
121.8191150270146
 30
0.0
 10
150.5984953745171
 20
121.8053193468235
 30
0.0
  0
SPLINE
  5
17C
330
1F
100
AcDbEntity
  8
0
  6
Continuous
 62
     7
370
    15
100
AcDbSpline
210
0.0
220
0.0
230
1.0
 70
     8
 71
     3
 72
    20
 73
    16
 74
     0
 42
0.000000001
 43
0.00000001
 40
0.0
 40
0.0
 40
0.0
 40
0.0
 40
0.0178645108808437
 40
0.0759964177779837
 40
0.1372324015659711
 40
0.2080099663463945
 40
0.2934941935663825
 40
0.3932493281275987
 40
0.4924788739786515
 40
0.589474220759913
 40
0.6844370260722661
 40
0.7785612281332536
 40
0.87315529840838
 40
0.9672939462461498
 40
1.0
 40
1.0
 40
1.0
 40
1.0
 10
165.7439768404244
 20
121.8319545867209
 30
0.0
 10
165.7448524015559
 20
121.8510837189521
 30
0.0
 10
165.7485770772542
 20
121.9324598917714
 30
0.0
 10
165.7045146574478
 20
122.0665131244185
 30
0.0
 10
165.6253917031232
 20
122.2281353170711
 30
0.0
 10
165.5019099235828
 20
122.3862025009486
 30
0.0
 10
165.3265921511589
 20
122.5494963305979
 30
0.0
 10
165.0932212829059
 20
122.7150801286949
 30
0.0
 10
164.8039515304964
 20
122.877799226624
 30
0.0
 10
164.479876007392
 20
123.0271594144981
 30
0.0
 10
164.1271408049171
 20
123.1616720665003
 30
0.0
 10
163.7511885136226
 20
123.2804362858387
 30
0.0
 10
163.3569386971616
 20
123.3799447486749
 30
0.0
 10
163.039200231336
 20
123.4465878165391
 30
0.0
 10
162.8560203300239
 20
123.4717998112266
 30
0.0
 10
162.8087886236636
 20
123.4783005546013
 30
0.0
  0
SPLINE
  5
17D
330
1F
100
AcDbEntity
  8
0
  6
Continuous
 62
     7
370
    15
100
AcDbSpline
210
0.0
220
0.0
230
1.0
 70
     8
 71
     3
 72
    15
 73
    11
 74
     0
 42
0.000000001
 43
0.00000001
 40
0.0
 40
0.0
 40
0.0
 40
0.0
 40
0.0741232847401883
 40
0.2139460201959951
 40
0.3537770134466828
 40
0.4936086812634134
 40
0.6334410644781527
 40
0.7732741977708917
 40
0.9131081095027509
 40
0.9999999999999999
 40
0.9999999999999999
 40
0.9999999999999999
 40
0.9999999999999999
 10
162.8088855992874
 20
123.4808355152718
 30
0.0
 10
162.5814364550592
 20
123.5138847841371
 30
0.0
 10
161.9249377667566
 20
123.6092766649597
 30
0.0
 10
160.833133754116
 20
123.725232320386
 30
0.0
 10
159.5338232399444
 20
123.8107452692769
 30
0.0
 10
158.2316836728114
 20
123.8405447903085
 30
0.0
 10
156.9294178254073
 20
123.8157815070554
 30
0.0
 10
155.629721521048
 20
123.7352224901135
 30
0.0
 10
154.497935083868
 20
123.6196310982002
 30
0.0
 10
153.8020889529606
 20
123.5192906498928
 30
0.0
 10
153.5354082963468
 20
123.4808355152718
 30
0.0
  0
LINE
  5
17E
330
1F
100
AcDbEntity
  8
0
  6
Continuous
 62
     7
370
    15
100
AcDbLine
 10
147.6602411766
 20
105.8593800386
 30
0.0
 11
147.8547428434
 21
111.429179032
 31
0.0
  0
LINE
  5
17F
330
1F
100
AcDbEntity
  8
0
  6
Continuous
 62
     7
370
    15
100
AcDbLine
 10
148.1599365901
 20
105.8593800386
 30
0.0
 11
147.6602411766
 21
105.8593800386
 31
0.0
  0
LINE
  5
180
330
1F
100
AcDbEntity
  8
0
  6
Continuous
 62
     7
370
    15
100
AcDbLine
 10
168.4895510522
 20
111.429179032
 30
0.0
 11
168.684052719
 21
105.8593800386
 31
0.0
  0
LINE
  5
181
330
1F
100
AcDbEntity
  8
0
  6
Continuous
 62
     7
370
    15
100
AcDbLine
 10
168.684052719
 20
105.8593800386
 30
0.0
 11
168.1843573055
 21
105.8593800386
 31
0.0
  0
LINE
  5
182
330
1F
100
AcDbEntity
  8
0
  6
Continuous
 62
     7
370
    15
100
AcDbLine
 10
168.1843573055
 20
105.8593800386
 30
0.0
 11
148.1599365901
 21
105.8593800386
 31
0.0
  0
ARC
  5
183
330
1F
100
AcDbEntity
  8
0
  6
Continuous
 62
     7
370
    15
100
AcDbCircle
 10
149.8535244974
 20
111.3593800386
 30
0.0
 40
2.000000000000014
100
AcDbArc
 50
90.0
 51
178.0
  0
ARC
  5
184
330
1F
100
AcDbEntity
  8
0
  6
Continuous
 62
     7
370
    15
100
AcDbCircle
 10
166.4907693982
 20
111.3593800386
 30
0.0
 40
2.000000000000014
100
AcDbArc
 50
2.0
 51
90.0
  0
ELLIPSE
  5
185
330
1F
100
AcDbEntity
  8
0
  6
Continuous
 62
     7
370
    15
100
AcDbEllipse
 10
165.2893025604
 20
112.8593800386
 30
0.0
 11
0.4827758901571713
 21
0.4999290690249438
 31
0.0
210
0.0
220
0.0
230
1.0
 40
0.0174444382
 41
0.0168443049361666
 42
1.552734046689302
  0
LINE
  5
186
330
1F
100
AcDbEntity
  8
0
  6
Continuous
 62
     7
370
    15
100
AcDbLine
 10
165.7499145908
 20
113.9960314454
 30
0.0
 11
165.7721469478
 21
113.3593800386
 31
0.0
  0
LINE
  5
187
330
1F
100
AcDbEntity
  8
0
  6
Continuous
 62
     7
370
    15
100
AcDbLine
 10
149.8535244974
 20
113.3593800386
 30
0.0
 11
150.5724308245
 21
113.3593800386
 31
0.0
  0
ELLIPSE
  5
188
330
1F
100
AcDbEntity
  8
0
  6
Continuous
 62
     7
370
    15
100
AcDbEllipse
 10
151.0549913352
 20
112.8593800386
 30
0.0
 11
-0.4827758901571713
 21
0.4999290690249723
 31
0.0
210
0.0
220
0.0
230
1.0
 40
0.0174444382
 41
4.73045126049024
 42
6.266341002245796
  0
LINE
  5
189
330
1F
100
AcDbEntity
  8
0
  6
Continuous
 62
     7
370
    15
100
AcDbLine
 10
150.5721469478
 20
113.3593800386
 30
0.0
 11
150.5943793048
 21
113.9960314454
 31
0.0
  0
LINE
  5
18A
330
1F
100
AcDbEntity
  8
0
  6
Continuous
 62
     7
370
    15
100
AcDbLine
 10
165.7718630711
 20
113.3593800386
 30
0.0
 11
166.4907693982
 21
113.3593800386
 31
0.0
  0
ARC
  5
18B
330
1F
100
AcDbEntity
  8
0
  6
Continuous
 62
     7
370
    15
100
AcDbCircle
 10
165.2502191773
 20
113.9785816971
 30
0.0
 40
0.5000000000000091
100
AcDbArc
 50
2.0
 51
75.8131073153
  0
ARC
  5
18C
330
1F
100
AcDbEntity
  8
0
  6
Continuous
 62
     7
370
    15
100
AcDbCircle
 10
151.0940747184
 20
113.9785816971
 30
0.0
 40
0.5000000000000114
100
AcDbArc
 50
104.1868926847
 51
178.0
  0
ARC
  5
18D
330
1F
100
AcDbEntity
  8
0
  6
Continuous
 62
     7
370
    15
100
AcDbCircle
 10
158.1721469478
 20
85.9793800386
 30
0.0
 40
29.38
100
AcDbArc
 50
75.8131073153
 51
104.1868926847
  0
LINE
  5
18E
330
1F
100
AcDbEntity
  8
0
  6
Continuous
 62
     7
370
    15
100
AcDbLine
 10
165.7721469478
 20
113.6964032839
 30
0.0
 11
165.7721469478
 21
113.3593800386
 31
0.0
  0
LINE
  5
18F
330
1F
100
AcDbEntity
  8
0
  6
Continuous
 62
     7
370
    15
100
AcDbLine
 10
150.5721469478
 20
113.6964032839
 30
0.0
 11
150.5721469478
 21
113.3593800386
 31
0.0
  0
LINE
  5
190
330
1F
100
AcDbEntity
  8
0
  6
Continuous
 62
     7
370
    15
100
AcDbLine
 10
150.5721469478
 20
113.6964032839
 30
0.0
 11
150.5721469478
 21
121.2155484118
 31
0.0
  0
LINE
  5
191
330
1F
100
AcDbEntity
  8
0
  6
Continuous
 62
     7
370
    15
100
AcDbLine
 10
150.5943793048
 20
121.8214089548
 30
0.0
 11
150.5721469478
 21
121.2155484118
 31
0.0
  0
LINE
  5
192
330
1F
100
AcDbEntity
  8
0
  6
Continuous
 62
     7
370
    15
100
AcDbLine
 10
165.7721469478
 20
113.6964032839
 30
0.0
 11
165.7721469478
 21
121.2155484118
 31
0.0
  0
LINE
  5
193
330
1F
100
AcDbEntity
  8
0
  6
Continuous
 62
     7
370
    15
100
AcDbLine
 10
165.7721469478
 20
121.2155484118
 30
0.0
 11
165.7499145908
 21
121.8214089548
 31
0.0
  0
ARC
  5
194
330
1F
100
AcDbEntity
  8
0
  6
PHANTOM
 62
     8
370
     0
100
AcDbCircle
 10
148.1045905501
 20
107.8445938683
 30
0.0
 40
3.593281880413769
100
AcDbArc
 50
86.0128986004
 51
93.9871013996
  0
LINE
  5
195
330
1F
100
AcDbEntity
  8
0
  6
PHANTOM
 62
     8
370
     0
100
AcDbLine
 10
148.3544382569
 20
111.429179032
 30
0.0
 11
148.1599365901
 21
105.8593800386
 31
0.0
  0
LINE
  5
196
330
1F
100
AcDbEntity
  8
0
  6
PHANTOM
 62
     8
370
     0
100
AcDbLine
 10
168.1843573055
 20
105.8593800386
 30
0.0
 11
167.9898556387
 21
111.429179032
 31
0.0
  0
ARC
  5
197
330
1F
100
AcDbEntity
  8
0
  6
PHANTOM
 62
     8
370
     0
100
AcDbCircle
 10
168.2397033455
 20
107.8445938683
 30
0.0
 40
3.593281880413657
100
AcDbArc
 50
86.0128986004
 51
93.9871013996
  0
LINE
  5
198
330
1F
100
AcDbEntity
  8
0
  6
PHANTOM
 62
     8
370
     0
100
AcDbLine
 10
151.0549913352
 20
112.8768297869
 30
0.0
 11
149.8535244974
 21
112.8768297869
 31
0.0
  0
LINE
  5
199
330
1F
100
AcDbEntity
  8
0
  6
PHANTOM
 62
     8
370
     0
100
AcDbLine
 10
151.0940747184
 20
113.9960314454
 30
0.0
 11
151.0549913352
 21
112.8768297869
 31
0.0
  0
ARC
  5
19A
330
1F
100
AcDbEntity
  8
0
  6
PHANTOM
 62
     8
370
     0
100
AcDbCircle
 10
158.1721469478
 20
85.9968297869
 30
0.0
 40
28.88
100
AcDbArc
 50
75.8131073153
 51
104.1868926847
  0
LINE
  5
19B
330
1F
100
AcDbEntity
  8
0
  6
PHANTOM
 62
     8
370
     0
100
AcDbLine
 10
165.2893025604
 20
112.8768297869
 30
0.0
 11
165.2502191773
 21
113.9960314454
 31
0.0
  0
LINE
  5
19C
330
1F
100
AcDbEntity
  8
0
  6
PHANTOM
 62
     8
370
     0
100
AcDbLine
 10
166.4907693982
 20
112.8768297869
 30
0.0
 11
165.2893025604
 21
112.8768297869
 31
0.0
  0
ARC
  5
19D
330
1F
100
AcDbEntity
  8
0
  6
PHANTOM
 62
     8
370
     0
100
AcDbCircle
 10
166.4907693982
 20
111.3768297869
 30
0.0
 40
1.500000000000026
100
AcDbArc
 50
2.0
 51
90.0
  0
ARC
  5
19E
330
1F
100
AcDbEntity
  8
0
  6
PHANTOM
 62
     8
370
     0
100
AcDbCircle
 10
149.8535244974
 20
111.3768297869
 30
0.0
 40
1.5
100
AcDbArc
 50
90.0
 51
178.0
  0
LINE
  5
19F
330
1F
100
AcDbEntity
  8
0
  6
PHANTOM
 62
     8
370
     0
100
AcDbLine
 10
149.8535244974
 20
113.3593800386
 30
0.0
 11
149.8535244974
 21
112.8768297869
 31
0.0
  0
LINE
  5
1A0
330
1F
100
AcDbEntity
  8
0
  6
PHANTOM
 62
     8
370
     0
100
AcDbLine
 10
166.4907693982
 20
112.8768297869
 30
0.0
 11
166.4907693982
 21
113.3593800386
 31
0.0
  0
ARC
  5
1A1
330
1F
100
AcDbEntity
  8
0
  6
PHANTOM
 62
     8
370
     0
100
AcDbCircle
 10
165.500066884
 20
110.4114462818
 30
0.0
 40
3.593281880410843
100
AcDbArc
 50
86.0128986004
 51
93.9871013996
  0
ARC
  5
1A2
330
1F
100
AcDbEntity
  8
0
  6
PHANTOM
 62
     8
370
     0
100
AcDbCircle
 10
150.8442270116
 20
110.4114462818
 30
0.0
 40
3.593281880405194
100
AcDbArc
 50
86.0128986004
 51
93.9871013996
  0
ARC
  5
1A3
330
1F
100
AcDbEntity
  8
0
  6
PHANTOM
 62
     8
370
     0
100
AcDbCircle
 10
178.8008842415
 20
110.6922869992
 30
0.0
 40
13.94758943507413
100
AcDbArc
 50
164.3135626426
 51
166.2982105113
  0
ARC
  5
1A4
330
1F
100
AcDbEntity
  8
0
  6
PHANTOM
 62
     8
370
     0
100
AcDbCircle
 10
137.5434096541
 20
110.6922869992
 30
0.0
 40
13.94758943512082
100
AcDbArc
 50
13.7017894887
 51
15.6864373574
  0
LINE
  5
1A5
330
1F
100
AcDbEntity
  8
0
  6
PHANTOM
 62
     8
370
     0
100
AcDbLine
 10
150.9715319166
 20
114.7575904207
 30
0.0
 11
150.9715319166
 21
114.4633324183
 31
0.0
  0
ARC
  5
1A6
330
1F
100
AcDbEntity
  8
0
  6
PHANTOM
 62
     8
370
     0
100
AcDbCircle
 10
158.1721469478
 20
85.098866483
 30
0.0
 40
30.5203008248686
100
AcDbArc
 50
76.3536269679
 51
103.6463730321
  0
LINE
  5
1A7
330
1F
100
AcDbEntity
  8
0
  6
PHANTOM
 62
     8
370
     0
100
AcDbLine
 10
165.372761979
 20
114.4633324183
 30
0.0
 11
165.372761979
 21
114.7575904207
 31
0.0
  0
LINE
  5
1A8
330
1F
100
AcDbEntity
  8
0
  6
PHANTOM
 62
     8
370
     0
100
AcDbLine
 10
150.5943793048
 20
113.9960314454
 30
0.0
 11
150.5943793048
 21
114.308391895
 31
0.0
  0
ARC
  5
1A9
330
1F
100
AcDbEntity
  8
0
  6
PHANTOM
 62
     8
370
     0
100
AcDbCircle
 10
151.0792426918
 20
114.2842248773
 30
0.0
 40
0.4854652910373298
100
AcDbArc
 50
102.8189624198
 51
177.1465711597
  0
LINE
  5
1AA
330
1F
100
AcDbEntity
  8
0
  6
PHANTOM
 62
     8
370
     0
100
AcDbLine
 10
165.7499145908
 20
114.308391895
 30
0.0
 11
165.7499145908
 21
113.9960314454
 31
0.0
  0
LINE
  5
1AB
330
1F
100
AcDbEntity
  8
0
  6
PHANTOM
 62
     8
370
     0
100
AcDbLine
 10
165.7499145908
 20
114.308391895
 30
0.0
 11
165.7721469478
 21
113.6964032839
 31
0.0
  0
ARC
  5
1AC
330
1F
100
AcDbEntity
  8
0
  6
PHANTOM
 62
     8
370
     0
100
AcDbCircle
 10
165.2650512038
 20
114.2842248773
 30
0.0
 40
0.4854652910373399
100
AcDbArc
 50
2.8534288403
 51
77.1810375802
  0
LINE
  5
1AD
330
1F
100
AcDbEntity
  8
0
  6
PHANTOM
 62
     8
370
     0
100
AcDbLine
 10
150.5721469478
 20
113.6964032839
 30
0.0
 11
150.5943793048
 21
114.308391895
 31
0.0
  0
LINE
  5
1AE
330
1F
100
AcDbEntity
  8
0
  6
PHANTOM
 62
     8
370
     0
100
AcDbLine
 10
150.9715319166
 20
122.2706074805
 30
0.0
 11
150.9715319166
 21
114.7575904207
 31
0.0
  0
SPLINE
  5
1AF
330
1F
100
AcDbEntity
  8
0
  6
PHANTOM
 62
     8
370
     0
100
AcDbSpline
210
0.0
220
0.0
230
1.0
 70
     8
 71
     3
 72
    20
 73
    16
 74
     0
 42
0.000000001
 43
0.00000001
 40
0.0
 40
0.0
 40
0.0
 40
0.0
 40
0.125
 40
0.125
 40
0.25
 40
0.25
 40
0.375
 40
0.375
 40
0.5
 40
0.5
 40
0.625
 40
0.625
 40
0.75
 40
0.75
 40
1.0
 40
1.0
 40
1.0
 40
1.0
 10
153.5316774906667
 20
123.46112717202
 30
0.0
 10
153.3655376304851
 20
123.4358332835986
 30
0.0
 10
153.2021345461671
 20
123.4052464958325
 30
0.0
 10
152.8805496214287
 20
123.3340535660003
 30
0.0
 10
152.7209437203915
 20
123.2930115438416
 30
0.0
 10
152.414346231092
 20
123.2027478591667
 30
0.0
 10
152.2685417508897
 20
123.1540034589227
 30
0.0
 10
151.9917838959264
 20
123.0499241596257
 30
0.0
 10
151.8597135172725
 20
122.9939727192126
 30
0.0
 10
151.6212810050557
 20
122.8802473239463
 30
0.0
 10
151.5138596498405
 20
122.8221973503669
 30
0.0
 10
151.3233386388884
 20
122.7044580628431
 30
0.0
 10
151.2407536518236
 20
122.644832156119
 30
0.0
 10
151.0426568020349
 20
122.4729864503076
 30
0.0
 10
150.9715319165959
 20
122.3634804588648
 30
0.0
 10
150.9715319165959
 20
122.2706074805383
 30
0.0
  0
ELLIPSE
  5
1B0
330
1F
100
AcDbEntity
  8
0
  6
PHANTOM
 62
     8
370
     0
100
AcDbEllipse
 10
158.1721469478
 20
95.8482541568
 30
0.0
 11
29.38000000000002
 21
0.0
 31
0.0
210
0.0
220
0.0
230
1.0
 40
0.9518000373
 41
1.412185580843998
 42
1.729407072745796
  0
SPLINE
  5
1B1
330
1F
100
AcDbEntity
  8
0
  6
PHANTOM
 62
     8
370
     0
100
AcDbSpline
210
0.0
220
0.0
230
1.0
 70
     8
 71
     3
 72
    20
 73
    16
 74
     0
 42
0.000000001
 43
0.00000001
 40
0.0
 40
0.0
 40
0.0
 40
0.0
 40
0.1250000000000009
 40
0.1250000000000009
 40
0.2500000000000018
 40
0.2500000000000018
 40
0.3750000000000028
 40
0.3750000000000028
 40
0.5000000000000037
 40
0.5000000000000037
 40
0.7500000000000018
 40
0.7500000000000018
 40
0.875000000000001
 40
0.875000000000001
 40
1.0
 40
1.0
 40
1.0
 40
1.0
 10
165.3727619790383
 20
122.2706074805383
 30
0.0
 10
165.3727619790383
 20
122.3170196465396
 30
0.0
 10
165.3554902456733
 20
122.3667872886591
 30
0.0
 10
165.2878937832816
 20
122.4725631060988
 30
0.0
 10
165.2366170409407
 20
122.5292891987419
 30
0.0
 10
165.1042085910194
 20
122.6443521630883
 30
0.0
 10
165.0234300187371
 20
122.7027716246898
 30
0.0
 10
164.8332067338232
 20
122.8206367938022
 30
0.0
 10
164.7238709957287
 20
122.879791663845
 30
0.0
 10
164.3672527546755
 20
123.0500266322511
 30
0.0
 10
164.082998483629
 20
123.1575880586263
 30
0.0
 10
163.626452760171
 20
123.2921481108511
 30
0.0
 10
163.4666453733485
 20
123.3333708233443
 30
0.0
 10
163.1426836547682
 20
123.405170491681
 30
0.0
 10
162.9786844197039
 20
123.4358442216761
 30
0.0
 10
162.8126164049675
 20
123.46112717202
 30
0.0
  0
LINE
  5
1B2
330
1F
100
AcDbEntity
  8
0
  6
PHANTOM
 62
     8
370
     0
100
AcDbLine
 10
165.372761979
 20
114.7575904207
 30
0.0
 11
165.372761979
 21
122.2706074805
 31
0.0
  0
LINE
  5
1B3
330
1F
100
AcDbEntity
  8
0
  6
PHANTOM
 62
     8
370
     0
100
AcDbLine
 10
150.5943793048
 20
114.308391895
 30
0.0
 11
150.5943793048
 21
121.8214089548
 31
0.0
  0
ARC
  5
1B4
330
1F
100
AcDbEntity
  8
0
  6
PHANTOM
 62
     8
370
     0
100
AcDbCircle
 10
151.0792426918
 20
121.7972419371
 30
0.0
 40
0.4854652910373324
100
AcDbArc
 50
102.8189624198
 51
177.1465711597
  0
LINE
  5
1B5
330
1F
100
AcDbEntity
  8
0
  6
PHANTOM
 62
     8
370
     0
100
AcDbLine
 10
165.7499145908
 20
121.8214089548
 30
0.0
 11
165.7499145908
 21
114.308391895
 31
0.0
  0
ARC
  5
1B6
330
1F
100
AcDbEntity
  8
0
  6
PHANTOM
 62
     8
370
     0
100
AcDbCircle
 10
165.2650512038
 20
121.7972419371
 30
0.0
 40
0.4854652910372723
100
AcDbArc
 50
2.8534288403
 51
77.1810375802
  0
LWPOLYLINE
  5
1B7
330
1F
100
AcDbEntity
  8
0
  6
PHANTOM
 62
     8
370
     0
100
AcDbPolyline
 90
        3
 70
   128
 43
0.0
 10
153.535142274
 20
123.48076321
 10
153.5336490257
 20
123.4787864823
 10
153.5316774907
 20
123.461127172
  0
LWPOLYLINE
  5
1B8
330
1F
100
AcDbEntity
  8
0
  6
PHANTOM
 62
     8
370
     0
100
AcDbPolyline
 90
        3
 70
   128
 43
0.0
 10
162.8091815141
 20
123.4807509475
 10
162.81064487
 20
123.4787864823
 10
162.812616405
 20
123.461127172
  0
LINE
  5
1B9
330
1F
100
AcDbEntity
  8
0
  6
Continuous
 62
     7
370
    15
100
AcDbLine
 10
162.2721469478
 20
29.8258119598
 30
0.0
 11
162.2721469478
 21
34.6286513901
 31
0.0
  0
LINE
  5
1BA
330
1F
100
AcDbEntity
  8
0
  6
Continuous
 62
     7
370
    15
100
AcDbLine
 10
154.0721469478
 20
34.6286513901
 30
0.0
 11
154.0721469478
 21
29.8258119598
 31
0.0
  0
LINE
  5
1BB
330
1F
100
AcDbEntity
  8
0
  6
Continuous
 62
     7
370
    15
100
AcDbLine
 10
149.726349039
 20
64.9343924327
 30
0.0
 11
149.712384987
 21
65.7343924327
 31
0.0
  0
ELLIPSE
  5
1BC
330
1F
100
AcDbEntity
  8
0
  6
Continuous
 62
     7
370
    15
100
AcDbEllipse
 10
150.0123392956
 20
65.7396281547
 30
0.0
 11
0.01047264020607486
 21
-0.599977155578344
 31
0.0
210
0.0
220
0.0
230
1.0
 40
0.4999428824
 41
4.712388980384692
 42
5.750860217574443
  0
ELLIPSE
  5
1BD
330
1F
100
AcDbEntity
  8
0
  6
Continuous
 62
     7
370
    15
100
AcDbEllipse
 10
150.0214092134
 20
65.2200129124
 30
0.0
 11
0.2945324273535164
 21
-0.289436210259126
 31
0.0
210
0.0
220
0.0
230
1.0
 40
0.2679138489
 41
4.446226435601793
 42
4.969825211200021
  0
ELLIPSE
  5
1BE
330
1F
100
AcDbEntity
  8
0
  6
Continuous
 62
     7
370
    15
100
AcDbEllipse
 10
166.3228846823
 20
65.2200129124
 30
0.0
 11
0.2945324273535448
 21
0.2894362102591401
 31
0.0
210
0.0
220
0.0
230
1.0
 40
0.2679138489
 41
4.454952749569401
 42
4.978551525167594
  0
ELLIPSE
  5
1BF
330
1F
100
AcDbEntity
  8
0
  6
Continuous
 62
     7
370
    15
100
AcDbEllipse
 10
166.3319546001
 20
65.7396281547
 30
0.0
 11
0.01047264020607486
 21
0.5999771555783298
 31
0.0
210
0.0
220
0.0
230
1.0
 40
0.4999428824
 41
3.673917743195095
 42
4.712388980384702
  0
LINE
  5
1C0
330
1F
100
AcDbEntity
  8
0
  6
Continuous
 62
     7
370
    15
100
AcDbLine
 10
166.6319089086
 20
65.7343924327
 30
0.0
 11
166.6179448567
 21
64.9343924327
 31
0.0
  0
ELLIPSE
  5
1C1
330
1F
100
AcDbEntity
  8
0
  6
Continuous
 62
     7
370
    15
100
AcDbEllipse
 10
168.1837479469
 20
69.8012291537
 30
0.0
 11
0.3539842722995843
 21
0.3539842722995843
 31
0.0
210
0.0
220
0.0
230
1.0
 40
0.998782766
 41
5.498396131367756
 42
7.067974482991429
  0
LINE
  5
1C2
330
1F
100
AcDbEntity
  8
0
  6
Continuous
 62
     7
370
    15
100
AcDbLine
 10
168.684052719
 20
69.8018385123
 30
0.0
 11
168.684052719
 21
68.3015339258
 31
0.0
  0
LINE
  5
1C3
330
1F
100
AcDbEntity
  8
0
  6
Continuous
 62
     7
370
    15
100
AcDbLine
 10
168.684052719
 20
68.3015339258
 30
0.0
 11
166.6767185301
 21
68.3015339258
 31
0.0
  0
LINE
  5
1C4
330
1F
100
AcDbEntity
  8
0
  6
Continuous
 62
     7
370
    15
100
AcDbLine
 10
149.6675753656
 20
68.3015339258
 30
0.0
 11
147.6602411766
 21
68.3015339258
 31
0.0
  0
LINE
  5
1C5
330
1F
100
AcDbEntity
  8
0
  6
Continuous
 62
     7
370
    15
100
AcDbLine
 10
147.6602411766
 20
69.8018385123
 30
0.0
 11
147.6602411766
 21
68.3015339258
 31
0.0
  0
ELLIPSE
  5
1C6
330
1F
100
AcDbEntity
  8
0
  6
Continuous
 62
     7
370
    15
100
AcDbEllipse
 10
148.1605459488
 20
69.8012291537
 30
0.0
 11
-0.3539842722996127
 21
0.3539842722995984
 31
0.0
210
0.0
220
0.0
230
1.0
 40
0.998782766
 41
5.498396131367783
 42
7.06797448299142
  0
LINE
  5
1C7
330
1F
100
AcDbEntity
  8
0
  6
Continuous
 62
     7
370
    15
100
AcDbLine
 10
168.1843573055
 20
70.3015339258
 30
0.0
 11
148.1599365901
 21
70.3015339258
 31
0.0
  0
LINE
  5
1C8
330
1F
100
AcDbEntity
  8
0
  6
Continuous
 62
     7
370
    15
100
AcDbLine
 10
149.6675753656
 20
68.3015339258
 30
0.0
 11
149.712384987
 21
65.7343924327
 31
0.0
  0
LINE
  5
1C9
330
1F
100
AcDbEntity
  8
0
  6
Continuous
 62
     7
370
    15
100
AcDbLine
 10
166.6767185301
 20
68.3015339258
 30
0.0
 11
166.6319089086
 21
65.7343924327
 31
0.0
  0
ELLIPSE
  5
1CA
330
1F
100
AcDbEntity
  8
0
  6
Continuous
 62
     7
370
    15
100
AcDbEllipse
 10
149.8535244974
 20
68.1094696936
 30
0.0
 11
2.000000000000028
 21
0.0
 31
0.0
210
0.0
220
0.0
230
1.0
 40
0.0349207695
 41
3.176499238630116
 42
4.621572910003442
  0
LINE
  5
1CB
330
1F
100
AcDbEntity
  8
0
  6
Continuous
 62
     7
370
    15
100
AcDbLine
 10
147.6602411766
 20
68.3015339258
 30
0.0
 11
147.8547428434
 21
68.1070322591
 31
0.0
  0
LINE
  5
1CC
330
1F
100
AcDbEntity
  8
0
  6
Continuous
 62
     7
370
    15
100
AcDbLine
 10
168.684052719
 20
68.3015339258
 30
0.0
 11
168.4895510522
 21
68.1070322591
 31
0.0
  0
ELLIPSE
  5
1CD
330
1F
100
AcDbEntity
  8
0
  6
Continuous
 62
     7
370
    15
100
AcDbEllipse
 10
166.4907693982
 20
68.1094696936
 30
0.0
 11
2.0
 21
0.0
 31
0.0
210
0.0
220
0.0
230
1.0
 40
0.0349207695
 41
4.803205050765983
 42
6.248278722140073
  0
ARC
  5
1CE
330
1F
100
AcDbEntity
  8
0
  6
Continuous
 62
     7
370
    15
100
AcDbCircle
 10
150.0263033475
 20
64.9396281547
 30
0.0
 40
0.2999999999999983
100
AcDbArc
 50
181.0
 51
270.0
  0
ARC
  5
1CF
330
1F
100
AcDbEntity
  8
0
  6
Continuous
 62
     7
370
    15
100
AcDbCircle
 10
166.3179905481
 20
64.9396281547
 30
0.0
 40
0.2999999999999983
100
AcDbArc
 50
270.0
 51
359.0
  0
LINE
  5
1D0
330
1F
100
AcDbEntity
  8
0
  6
Continuous
 62
     7
370
    15
100
AcDbLine
 10
166.3179905481
 20
64.6396281547
 30
0.0
 11
150.0263033475
 21
64.6396281547
 31
0.0
  0
LINE
  5
1D1
330
1F
100
AcDbEntity
  8
0
  6
Continuous
 62
     7
370
    15
100
AcDbLine
 10
161.5221469478
 20
34.6286513901
 30
0.0
 11
161.0221469478
 21
34.6286513901
 31
0.0
  0
LINE
  5
1D2
330
1F
100
AcDbEntity
  8
0
  6
Continuous
 62
     7
370
    15
100
AcDbLine
 10
161.5221469478
 20
29.8258119598
 30
0.0
 11
161.5221469478
 21
34.6286513901
 31
0.0
  0
LINE
  5
1D3
330
1F
100
AcDbEntity
  8
0
  6
Continuous
 62
     7
370
    15
100
AcDbLine
 10
161.0221469478
 20
29.8258119598
 30
0.0
 11
161.5221469478
 21
29.8258119598
 31
0.0
  0
LINE
  5
1D4
330
1F
100
AcDbEntity
  8
0
  6
Continuous
 62
     7
370
    15
100
AcDbLine
 10
161.0221469478
 20
29.8258119598
 30
0.0
 11
161.0221469478
 21
34.6286513901
 31
0.0
  0
LINE
  5
1D5
330
1F
100
AcDbEntity
  8
0
  6
Continuous
 62
     7
370
    15
100
AcDbLine
 10
154.1452195508
 20
34.6286513901
 30
0.0
 11
154.8221469478
 21
34.6286513901
 31
0.0
  0
LINE
  5
1D6
330
1F
100
AcDbEntity
  8
0
  6
Continuous
 62
     7
370
    15
100
AcDbLine
 10
154.8221469478
 20
29.8258119598
 30
0.0
 11
154.8221469478
 21
34.6286513901
 31
0.0
  0
LINE
  5
1D7
330
1F
100
AcDbEntity
  8
0
  6
Continuous
 62
     7
370
    15
100
AcDbLine
 10
154.8221469478
 20
29.8258119598
 30
0.0
 11
154.1452195508
 21
29.8258119598
 31
0.0
  0
LINE
  5
1D8
330
1F
100
AcDbEntity
  8
0
  6
Continuous
 62
     7
370
    15
100
AcDbLine
 10
154.8221469478
 20
34.6286513901
 30
0.0
 11
155.3221469478
 21
34.6286513901
 31
0.0
  0
LINE
  5
1D9
330
1F
100
AcDbEntity
  8
0
  6
Continuous
 62
     7
370
    15
100
AcDbLine
 10
154.8221469478
 20
29.8258119598
 30
0.0
 11
155.3221469478
 21
29.8258119598
 31
0.0
  0
LINE
  5
1DA
330
1F
100
AcDbEntity
  8
0
  6
Continuous
 62
     7
370
    15
100
AcDbLine
 10
155.3221469478
 20
29.8258119598
 30
0.0
 11
155.3221469478
 21
34.6286513901
 31
0.0
  0
LINE
  5
1DB
330
1F
100
AcDbEntity
  8
0
  6
Continuous
 62
     7
370
    15
100
AcDbLine
 10
162.1990743449
 20
34.6286513901
 30
0.0
 11
161.5221469478
 21
34.6286513901
 31
0.0
  0
LINE
  5
1DC
330
1F
100
AcDbEntity
  8
0
  6
Continuous
 62
     7
370
    15
100
AcDbLine
 10
161.5221469478
 20
29.8258119598
 30
0.0
 11
162.1990743449
 21
29.8258119598
 31
0.0
  0
LINE
  5
1DD
330
1F
100
AcDbEntity
  8
0
  6
Continuous
 62
     7
370
    15
100
AcDbLine
 10
165.7721469478
 20
41.841583159
 30
0.0
 11
165.7721469478
 21
44.2396281547
 31
0.0
  0
LINE
  5
1DE
330
1F
100
AcDbEntity
  8
0
  6
Continuous
 62
     7
370
    15
100
AcDbLine
 10
150.5721469478
 20
41.841583159
 30
0.0
 11
150.5721469478
 21
44.2396281547
 31
0.0
  0
LINE
  5
1DF
330
1F
100
AcDbEntity
  8
0
  6
Continuous
 62
     7
370
    15
100
AcDbLine
 10
165.7721469478
 20
44.2396281547
 30
0.0
 11
165.7721469478
 21
64.6396281547
 31
0.0
  0
LINE
  5
1E0
330
1F
100
AcDbEntity
  8
0
  6
Continuous
 62
     7
370
    15
100
AcDbLine
 10
150.5721469478
 20
44.2396281547
 30
0.0
 11
150.5721469478
 21
64.6396281547
 31
0.0
  0
LINE
  5
1E1
330
1F
100
AcDbEntity
  8
0
  6
Continuous
 62
     7
370
    15
100
AcDbLine
 10
162.1990743449
 20
29.8258119598
 30
0.0
 11
162.2721469478
 21
29.8258119598
 31
0.0
  0
LINE
  5
1E2
330
1F
100
AcDbEntity
  8
0
  6
Continuous
 62
     7
370
    15
100
AcDbLine
 10
162.2721469478
 20
34.6286513901
 30
0.0
 11
162.1990743449
 21
34.6286513901
 31
0.0
  0
LINE
  5
1E3
330
1F
100
AcDbEntity
  8
0
  6
Continuous
 62
     7
370
    15
100
AcDbLine
 10
154.1452195508
 20
29.8258119598
 30
0.0
 11
154.0721469478
 21
29.8258119598
 31
0.0
  0
LINE
  5
1E4
330
1F
100
AcDbEntity
  8
0
  6
Continuous
 62
     7
370
    15
100
AcDbLine
 10
154.0721469478
 20
34.6286513901
 30
0.0
 11
154.1452195508
 21
34.6286513901
 31
0.0
  0
LINE
  5
1E5
330
1F
100
AcDbEntity
  8
0
  6
Continuous
 62
     7
370
    15
100
AcDbLine
 10
165.7721469478
 20
41.841583159
 30
0.0
 11
165.7721469478
 21
15.6192078345
 31
0.0
  0
ELLIPSE
  5
1E6
330
1F
100
AcDbEntity
  8
0
  6
Continuous
 62
     7
370
    15
100
AcDbEllipse
 10
162.7703183149
 20
15.6227223533
 30
0.0
 11
3.001499513957782
 21
-0.04624225423516926
 31
0.0
210
0.0
220
0.0
230
1.0
 40
0.9612436443
 41
5.302221036876601
 42
6.297993513438144
  0
LINE
  5
1E7
330
1F
100
AcDbEntity
  8
0
  6
Continuous
 62
     7
370
    15
100
AcDbLine
 10
164.4028772421
 20
13.5061888274
 30
0.0
 11
164.4028772421
 21
13.199324814
 31
0.0
  0
SPLINE
  5
1E8
330
1F
100
AcDbEntity
  8
0
  6
Continuous
 62
     7
370
    15
100
AcDbSpline
210
0.0
220
0.0
230
1.0
 70
     8
 71
     3
 72
     9
 73
     5
 74
     0
 42
0.000000001
 43
0.00000001
 40
0.0
 40
0.0
 40
0.0
 40
0.0
 40
0.5
 40
1.0
 40
1.0
 40
1.0
 40
1.0
 10
164.4028772420924
 20
13.50618882743405
 30
0.0
 10
162.3259671440006
 20
13.63646388742342
 30
0.0
 10
158.1721469478171
 20
13.76180606558839
 30
0.0
 10
154.0183267516336
 20
13.63646388742341
 30
0.0
 10
151.9414166535419
 20
13.50618882743405
 30
0.0
  0
LINE
  5
1E9
330
1F
100
AcDbEntity
  8
0
  6
Continuous
 62
     7
370
    15
100
AcDbLine
 10
151.9414166535
 20
13.5061888274
 30
0.0
 11
151.9414166535
 21
13.199324814
 31
0.0
  0
ELLIPSE
  5
1EA
330
1F
100
AcDbEntity
  8
0
  6
Continuous
 62
     7
370
    15
100
AcDbEllipse
 10
153.5739755807
 20
15.6227223533
 30
0.0
 11
3.00149951395781
 21
0.04624225423517991
 31
0.0
210
0.0
220
0.0
230
1.0
 40
0.9612436443
 41
3.126784447331231
 42
4.122556923892816
  0
LINE
  5
1EB
330
1F
100
AcDbEntity
  8
0
  6
Continuous
 62
     7
370
    15
100
AcDbLine
 10
150.5721469478
 20
41.841583159
 30
0.0
 11
150.5721469478
 21
15.6192078345
 31
0.0
  0
ARC
  5
1EC
330
1F
100
AcDbEntity
  8
0
  6
Continuous
 62
     7
370
    15
100
AcDbCircle
 10
158.1721469478
 20
38.6504551914
 30
0.0
 40
0.4000000000000057
100
AcDbArc
 50
0.0
 51
90.0
  0
ARC
  5
1ED
330
1F
100
AcDbEntity
  8
0
  6
Continuous
 62
     7
370
    15
100
AcDbCircle
 10
158.1721469478
 20
38.6504551914
 30
0.0
 40
0.4000000000000057
100
AcDbArc
 50
90.0
 51
180.0
  0
LINE
  5
1EE
330
1F
100
AcDbEntity
  8
0
  6
Continuous
 62
     7
370
    15
100
AcDbLine
 10
157.7721469478
 20
37.5279317995
 30
0.0
 11
157.7721469478
 21
38.3196903644
 31
0.0
  0
LINE
  5
1EF
330
1F
100
AcDbEntity
  8
0
  6
Continuous
 62
     7
370
    15
100
AcDbLine
 10
158.5721469478
 20
38.3196903644
 30
0.0
 11
158.5721469478
 21
37.5279317995
 31
0.0
  0
LINE
  5
1F0
330
1F
100
AcDbEntity
  8
0
  6
Continuous
 62
     7
370
    15
100
AcDbLine
 10
158.5721469478
 20
38.6504551914
 30
0.0
 11
158.5721469478
 21
38.3196903644
 31
0.0
  0
LINE
  5
1F1
330
1F
100
AcDbEntity
  8
0
  6
Continuous
 62
     7
370
    15
100
AcDbLine
 10
157.7721469478
 20
38.3196903644
 30
0.0
 11
157.7721469478
 21
38.6504551914
 31
0.0
  0
ARC
  5
1F2
330
1F
100
AcDbEntity
  8
0
  6
Continuous
 62
     7
370
    15
100
AcDbCircle
 10
158.1721469478
 20
37.5279317995
 30
0.0
 40
0.4000000000000057
100
AcDbArc
 50
180.0
 51
270.0
  0
ARC
  5
1F3
330
1F
100
AcDbEntity
  8
0
  6
Continuous
 62
     7
370
    15
100
AcDbCircle
 10
158.1721469478
 20
37.5279317995
 30
0.0
 40
0.4000000000000057
100
AcDbArc
 50
270.0
 51
0.0
  0
ELLIPSE
  5
1F4
330
1F
100
AcDbEntity
  8
0
  6
Continuous
 62
     7
370
    15
100
AcDbEllipse
 10
158.1721469478
 20
4.2711368803
 30
0.0
 11
28.07999999999998
 21
0.0
 31
0.0
210
0.0
220
0.0
230
1.0
 40
0.3092053539
 41
1.406577185616437
 42
1.735015467973356
  0
SPLINE
  5
1F5
330
1F
100
AcDbEntity
  8
0
  6
Continuous
 62
     7
370
    15
100
AcDbSpline
210
0.0
220
0.0
230
1.0
 70
     8
 71
     3
 72
    12
 73
     8
 74
     0
 42
0.000000001
 43
0.00000001
 40
0.0
 40
0.0
 40
0.0
 40
0.0
 40
0.5000000000000012
 40
0.5000000000000012
 40
0.7500000000000006
 40
0.7500000000000006
 40
1.0
 40
1.0
 40
1.0
 40
1.0
 10
164.4028772420924
 20
13.19932481396995
 30
0.0
 10
164.1578515288462
 20
13.0654190013525
 30
0.0
 10
163.8968687059521
 20
12.9686621942642
 30
0.0
 10
163.4818668450837
 20
12.87670414459392
 30
0.0
 10
163.3391223307981
 20
12.85515943409129
 30
0.0
 10
163.052834796152
 20
12.83160837796942
 30
0.0
 10
162.9084273566551
 20
12.8293459969428
 30
0.0
 10
162.7627222805396
 20
12.83681176038505
 30
0.0
  0
SPLINE
  5
1F6
330
1F
100
AcDbEntity
  8
0
  6
Continuous
 62
     7
370
    15
100
AcDbSpline
210
0.0
220
0.0
230
1.0
 70
     8
 71
     3
 72
    12
 73
     8
 74
     0
 42
0.000000001
 43
0.00000001
 40
0.0
 40
0.0
 40
0.0
 40
0.0
 40
0.4999999999999996
 40
0.4999999999999996
 40
0.7499999999999998
 40
0.7499999999999998
 40
1.0
 40
1.0
 40
1.0
 40
1.0
 10
153.5815716150946
 20
12.83681176038505
 30
0.0
 10
153.2901477369133
 20
12.82187953019837
 30
0.0
 10
153.0061854416405
 20
12.84536013236706
 30
0.0
 10
152.5909617257094
 20
12.93660861023927
 30
0.0
 10
152.454049873073
 20
12.97677508734022
 30
0.0
 10
152.1909828626144
 20
13.07459185979532
 30
0.0
 10
152.0639246960981
 20
13.13237453853422
 30
0.0
 10
151.9414166535418
 20
13.19932481396995
 30
0.0
  0
LINE
  5
1F7
330
1F
100
AcDbEntity
  8
0
  6
PHANTOM
 62
     8
370
     0
100
AcDbLine
 10
150.0214092134
 20
65.0700129124
 30
0.0
 11
150.0263033475
 21
64.7896281547
 31
0.0
  0
LWPOLYLINE
  5
1F8
330
1F
100
AcDbEntity
  8
0
  6
PHANTOM
 62
     8
370
     0
100
AcDbPolyline
 90
        9
 70
   128
 43
0.0
 10
149.726349039
 20
64.9343924327
 10
149.7325567813
 20
64.9053966247
 10
149.7499283622
 20
64.8777017861
 10
149.7778035749
 20
64.8523604592
 10
149.8151230217
 20
64.8303357411
 10
149.8604683772
 20
64.8124646814
 10
149.9121162909
 20
64.7994264697
 10
149.9681038839
 20
64.7917166232
 10
150.0263033475
 20
64.7896281547
  0
LWPOLYLINE
  5
1F9
330
1F
100
AcDbEntity
  8
0
  6
PHANTOM
 62
     8
370
     0
100
AcDbPolyline
 90
        9
 70
   128
 43
0.0
 10
166.3179905481
 20
64.7896281547
 10
166.3761900118
 20
64.7917166232
 10
166.4321776047
 20
64.7994264697
 10
166.4838255185
 20
64.8124646814
 10
166.5291708739
 20
64.8303357411
 10
166.5664903208
 20
64.8523604592
 10
166.5943655334
 20
64.8777017861
 10
166.6117371144
 20
64.9053966247
 10
166.6179448567
 20
64.9343924327
  0
LINE
  5
1FA
330
1F
100
AcDbEntity
  8
0
  6
PHANTOM
 62
     8
370
     0
100
AcDbLine
 10
166.3179905481
 20
64.7896281547
 30
0.0
 11
166.3228846823
 21
65.0700129124
 31
0.0
  0
LINE
  5
1FB
330
1F
100
AcDbEntity
  8
0
  6
PHANTOM
 62
     8
370
     0
100
AcDbLine
 10
149.8691245967
 20
65.2200129124
 30
0.0
 11
166.475169299
 21
65.2200129124
 31
0.0
  0
LINE
  5
1FC
330
1F
100
AcDbEntity
  8
0
  6
PHANTOM
 62
     8
370
     0
100
AcDbLine
 10
166.3228846823
 20
65.0700129124
 30
0.0
 11
150.0214092134
 21
65.0700129124
 31
0.0
  0
LINE
  5
1FD
330
1F
100
AcDbEntity
  8
0
  6
PHANTOM
 62
     8
370
     0
100
AcDbLine
 10
150.0263033475
 20
64.7896281547
 30
0.0
 11
166.3179905481
 21
64.7896281547
 31
0.0
  0
LINE
  5
1FE
330
1F
100
AcDbEntity
  8
0
  6
PHANTOM
 62
     8
370
     0
100
AcDbLine
 10
150.0263033475
 20
64.6396281547
 30
0.0
 11
150.0263033475
 21
64.7896281547
 31
0.0
  0
LINE
  5
1FF
330
1F
100
AcDbEntity
  8
0
  6
PHANTOM
 62
     8
370
     0
100
AcDbLine
 10
166.3179905481
 20
64.7896281547
 30
0.0
 11
166.3179905481
 21
64.6396281547
 31
0.0
  0
LINE
  5
200
330
1F
100
AcDbEntity
  8
0
  6
PHANTOM
 62
     8
370
     0
100
AcDbLine
 10
154.1452195508
 20
29.8258119598
 30
0.0
 11
154.1452195508
 21
34.6286513901
 31
0.0
  0
LINE
  5
201
330
1F
100
AcDbEntity
  8
0
  6
PHANTOM
 62
     8
370
     0
100
AcDbLine
 10
162.1990743449
 20
29.8258119598
 30
0.0
 11
162.1990743449
 21
34.6286513901
 31
0.0
  0
LINE
  5
202
330
1F
100
AcDbEntity
  8
0
  6
PHANTOM
 62
     8
370
     0
100
AcDbLine
 10
150.5721469478
 20
44.2396281547
 30
0.0
 11
165.7721469478
 21
44.2396281547
 31
0.0
  0
LINE
  5
203
330
1F
100
AcDbEntity
  8
0
  6
PHANTOM
 62
     8
370
     0
100
AcDbLine
 10
165.7721469478
 20
41.841583159
 30
0.0
 11
150.5721469478
 21
41.841583159
 31
0.0
  0
LINE
  5
204
330
1F
100
AcDbEntity
  8
0
  6
PHANTOM
 62
     8
370
     0
100
AcDbLine
 10
158.1721469478
 20
38.2094354221
 30
0.0
 11
158.1721469478
 21
38.6589096029
 31
0.0
  0
LWPOLYLINE
  5
205
330
1F
100
AcDbEntity
  8
0
  6
PHANTOM
 62
     8
370
     0
100
AcDbPolyline
 90
        9
 70
   128
 43
0.0
 10
157.7721469478
 20
38.3196903644
 10
157.7798328357
 20
38.2981806922
 10
157.8025951348
 20
38.2774976247
 10
157.8395591029
 20
38.2584360004
 10
157.8893042353
 20
38.241728347
 10
157.9499188546
 20
38.2280167303
 10
158.0190735749
 20
38.2178280798
 10
158.094110819
 20
38.2115539399
 10
158.1721469478
 20
38.2094354221
  0
ARC
  5
206
330
1F
100
AcDbEntity
  8
0
  6
PHANTOM
 62
     8
370
     0
100
AcDbCircle
 10
158.1440655052
 20
38.2865773337
 30
0.0
 40
0.3733897241448712
100
AcDbArc
 50
85.6868959304
 51
174.9121991272
  0
ARC
  5
207
330
1F
100
AcDbEntity
  8
0
  6
PHANTOM
 62
     8
370
     0
100
AcDbCircle
 10
158.2002283905
 20
38.2865773337
 30
0.0
 40
0.3733897241449263
100
AcDbArc
 50
5.0878008728
 51
94.3131040696
  0
LWPOLYLINE
  5
208
330
1F
100
AcDbEntity
  8
0
  6
PHANTOM
 62
     8
370
     0
100
AcDbPolyline
 90
        9
 70
   128
 43
0.0
 10
158.1721469478
 20
38.2094354221
 10
158.2501830766
 20
38.2115539399
 10
158.3252203208
 20
38.2178280798
 10
158.394375041
 20
38.2280167303
 10
158.4549896603
 20
38.241728347
 10
158.5047347927
 20
38.2584360004
 10
158.5416987608
 20
38.2774976247
 10
158.56446106
 20
38.2981806922
 10
158.5721469478
 20
38.3196903644
  0
LINE
  5
209
330
1F
100
AcDbEntity
  8
0
  6
PHANTOM
 62
     8
370
     0
100
AcDbLine
 10
158.1721469478
 20
37.4176768572
 30
0.0
 11
158.1721469478
 21
38.2094354221
 31
0.0
  0
LWPOLYLINE
  5
20A
330
1F
100
AcDbEntity
  8
0
  6
PHANTOM
 62
     8
370
     0
100
AcDbPolyline
 90
        9
 70
   128
 43
0.0
 10
157.7721469478
 20
37.5279317995
 10
157.7798328357
 20
37.5064221273
 10
157.8025951348
 20
37.4857390598
 10
157.8395591029
 20
37.4666774355
 10
157.8893042353
 20
37.4499697821
 10
157.9499188546
 20
37.4362581654
 10
158.0190735749
 20
37.426069515
 10
158.094110819
 20
37.419795375
 10
158.1721469478
 20
37.4176768572
  0
LWPOLYLINE
  5
20B
330
1F
100
AcDbEntity
  8
0
  6
PHANTOM
 62
     8
370
     0
100
AcDbPolyline
 90
        9
 70
   128
 43
0.0
 10
158.1721469478
 20
37.4176768572
 10
158.2501830766
 20
37.419795375
 10
158.3252203208
 20
37.426069515
 10
158.394375041
 20
37.4362581654
 10
158.4549896603
 20
37.4499697821
 10
158.5047347927
 20
37.4666774355
 10
158.5416987608
 20
37.4857390598
 10
158.56446106
 20
37.5064221273
 10
158.5721469478
 20
37.5279317995
  0
LINE
  5
20C
330
1F
100
AcDbEntity
  8
0
  6
PHANTOM
 62
     8
370
     0
100
AcDbLine
 10
158.1721469478
 20
38.6589096029
 30
0.0
 11
158.1721469478
 21
39.0504551914
 31
0.0
  0
LINE
  5
20D
330
1F
100
AcDbEntity
  8
0
  6
PHANTOM
 62
     8
370
     0
100
AcDbLine
 10
158.1721469478
 20
37.4176768572
 30
0.0
 11
158.1721469478
 21
37.1279317995
 31
0.0
  0
ELLIPSE
  5
20E
330
1F
100
AcDbEntity
  8
0
  6
Continuous
 62
     7
370
    15
100
AcDbEllipse
 10
158.1721469478
 20
217.0824766217
 30
0.0
 11
28.07999999999998
 21
0.0
 31
0.0
210
0.0
220
0.0
230
1.0
 40
0.3092053539
 41
4.548169839206236
 42
4.876608121563154
  0
ELLIPSE
  5
20F
330
1F
100
AcDbEntity
  8
0
  6
Continuous
 62
     7
370
    15
100
AcDbEllipse
 10
153.5739755807
 20
205.7308911487
 30
0.0
 11
3.00149951395781
 21
-0.04624225423515327
 31
0.0
210
0.0
220
0.0
230
1.0
 40
0.9612436443
 41
2.160628383286769
 42
3.156400859848353
  0
SPLINE
  5
210
330
1F
100
AcDbEntity
  8
0
  6
Continuous
 62
     7
370
    15
100
AcDbSpline
210
0.0
220
0.0
230
1.0
 70
     8
 71
     3
 72
    12
 73
     8
 74
     0
 42
0.000000001
 43
0.00000001
 40
0.0
 40
0.0
 40
0.0
 40
0.0
 40
0.4999999999999996
 40
0.4999999999999996
 40
0.7499999999999998
 40
0.7499999999999998
 40
1.0
 40
1.0
 40
1.0
 40
1.0
 10
153.5815716150946
 20
208.5168017415631
 30
0.0
 10
153.2901477369133
 20
208.5317339717498
 30
0.0
 10
153.0061854416405
 20
208.5082533695811
 30
0.0
 10
152.5909617257094
 20
208.4170048917089
 30
0.0
 10
152.454049873073
 20
208.3768384146079
 30
0.0
 10
152.1909828626144
 20
208.2790216421528
 30
0.0
 10
152.0639246960981
 20
208.2212389634139
 30
0.0
 10
151.9414166535418
 20
208.1542886879782
 30
0.0
  0
SPLINE
  5
211
330
1F
100
AcDbEntity
  8
0
  6
Continuous
 62
     7
370
    15
100
AcDbSpline
210
0.0
220
0.0
230
1.0
 70
     8
 71
     3
 72
    12
 73
     8
 74
     0
 42
0.000000001
 43
0.00000001
 40
0.0
 40
0.0
 40
0.0
 40
0.0
 40
0.5000000000000012
 40
0.5000000000000012
 40
0.7500000000000006
 40
0.7500000000000006
 40
1.0
 40
1.0
 40
1.0
 40
1.0
 10
164.4028772420924
 20
208.1542886879782
 30
0.0
 10
164.1578515288462
 20
208.2881945005956
 30
0.0
 10
163.8968687059521
 20
208.3849513076839
 30
0.0
 10
163.4818668450837
 20
208.4769093573542
 30
0.0
 10
163.3391223307981
 20
208.4984540678568
 30
0.0
 10
163.052834796152
 20
208.5220051239787
 30
0.0
 10
162.9084273566551
 20
208.5242675050053
 30
0.0
 10
162.7627222805396
 20
208.5168017415631
 30
0.0
  0
ELLIPSE
  5
212
330
1F
100
AcDbEntity
  8
0
  6
Continuous
 62
     7
370
    15
100
AcDbEllipse
 10
162.7703183149
 20
205.7308911487
 30
0.0
 11
3.001499513957782
 21
0.04624225423521012
 31
0.0
210
0.0
220
0.0
230
1.0
 40
0.9612436443
 41
6.268377100921035
 42
7.264149577482579
  0
LINE
  5
213
330
1F
100
AcDbEntity
  8
0
  6
Continuous
 62
     7
370
    15
100
AcDbLine
 10
165.7721469478
 20
179.5120303429
 30
0.0
 11
165.7721469478
 21
205.7344056674
 31
0.0
  0
LINE
  5
214
330
1F
100
AcDbEntity
  8
0
  6
Continuous
 62
     7
370
    15
100
AcDbLine
 10
150.5721469478
 20
179.5120303429
 30
0.0
 11
150.5721469478
 21
205.7344056674
 31
0.0
  0
LINE
  5
215
330
1F
100
AcDbEntity
  8
0
  6
Continuous
 62
     7
370
    15
100
AcDbLine
 10
168.1843573055
 20
151.0520795761
 30
0.0
 11
148.1599365901
 21
151.0520795761
 31
0.0
  0
LINE
  5
216
330
1F
100
AcDbEntity
  8
0
  6
Continuous
 62
     7
370
    15
100
AcDbLine
 10
150.5721469478
 20
179.5120303429
 30
0.0
 11
150.5721469478
 21
177.1139853473
 31
0.0
  0
LINE
  5
217
330
1F
100
AcDbEntity
  8
0
  6
Continuous
 62
     7
370
    15
100
AcDbLine
 10
165.7721469478
 20
179.5120303429
 30
0.0
 11
165.7721469478
 21
177.1139853473
 31
0.0
  0
ELLIPSE
  5
218
330
1F
100
AcDbEntity
  8
0
  6
Continuous
 62
     7
370
    15
100
AcDbEllipse
 10
165.2893025604
 20
151.7968297347
 30
0.0
 11
0.1926726661638156
 21
0.4651529637513647
 31
0.0
210
0.0
220
0.0
230
1.0
 40
0.9518332917
 41
3.55204952160125
 42
5.087939263356176
  0
ELLIPSE
  5
219
330
1F
100
AcDbEntity
  8
0
  6
Continuous
 62
     7
370
    15
100
AcDbEllipse
 10
165.2718421757
 20
151.8142901194
 30
0.0
 11
-0.3539842722996127
 21
0.3539842722995559
 31
0.0
210
0.0
220
0.0
230
1.0
 40
0.998782766
 41
3.892693219532824
 42
3.926381829401514
  0
ELLIPSE
  5
21A
330
1F
100
AcDbEntity
  8
0
  6
Continuous
 62
     7
370
    15
100
AcDbEllipse
 10
151.07245172
 20
151.8142901194
 30
0.0
 11
-0.3539842722995843
 21
-0.3539842722996128
 31
0.0
210
0.0
220
0.0
230
1.0
 40
0.998782766
 41
5.498396131367713
 42
5.532084741236402
  0
ELLIPSE
  5
21B
330
1F
100
AcDbEntity
  8
0
  6
Continuous
 62
     7
370
    15
100
AcDbEllipse
 10
151.0549913352
 20
151.7968297347
 30
0.0
 11
-0.192672666163844
 21
0.4651529637513363
 31
0.0
210
0.0
220
0.0
230
1.0
 40
0.9518332917
 41
1.195246043823323
 42
2.731135785578306
  0
LINE
  5
21C
330
1F
100
AcDbEntity
  8
0
  6
Continuous
 62
     7
370
    15
100
AcDbLine
 10
165.7721469478
 20
177.1139853473
 30
0.0
 11
165.7721469478
 21
153.3139853473
 31
0.0
  0
LINE
  5
21D
330
1F
100
AcDbEntity
  8
0
  6
Continuous
 62
     7
370
    15
100
AcDbLine
 10
165.7721469478
 20
151.8136807608
 30
0.0
 11
165.7721469478
 21
153.3139853473
 31
0.0
  0
LINE
  5
21E
330
1F
100
AcDbEntity
  8
0
  6
Continuous
 62
     7
370
    15
100
AcDbLine
 10
150.5721469478
 20
153.3139853473
 30
0.0
 11
150.5721469478
 21
151.8136807608
 31
0.0
  0
LINE
  5
21F
330
1F
100
AcDbEntity
  8
0
  6
Continuous
 62
     7
370
    15
100
AcDbLine
 10
150.5721469478
 20
177.1139853473
 30
0.0
 11
150.5721469478
 21
153.3139853473
 31
0.0
  0
ELLIPSE
  5
220
330
1F
100
AcDbEntity
  8
0
  6
Continuous
 62
     7
370
    15
100
AcDbEllipse
 10
149.8535244974
 20
153.2441438083
 30
0.0
 11
2.000000000000028
 21
0.0
 31
0.0
210
0.0
220
0.0
230
1.0
 40
0.0349207695
 41
1.570796326794897
 42
3.106686068549876
  0
ELLIPSE
  5
221
330
1F
100
AcDbEntity
  8
0
  6
Continuous
 62
     7
370
    15
100
AcDbEllipse
 10
166.4907693982
 20
153.2441438083
 30
0.0
 11
2.0
 21
0.0
 31
0.0
210
0.0
220
0.0
230
1.0
 40
0.0349207695
 41
0.0349065850399102
 42
1.570796326794897
  0
LINE
  5
222
330
1F
100
AcDbEntity
  8
0
  6
Continuous
 62
     7
370
    15
100
AcDbLine
 10
166.4907693982
 20
153.3139853473
 30
0.0
 11
165.7721469478
 21
153.3139853473
 31
0.0
  0
LINE
  5
223
330
1F
100
AcDbEntity
  8
0
  6
Continuous
 62
     7
370
    15
100
AcDbLine
 10
150.5721469478
 20
153.3139853473
 30
0.0
 11
149.8535244974
 21
153.3139853473
 31
0.0
  0
LINE
  5
224
330
1F
100
AcDbEntity
  8
0
  6
Continuous
 62
     7
370
    15
100
AcDbLine
 10
166.630302829
 20
155.7112333114
 30
0.0
 11
166.6721519716
 21
153.3136975341
 31
0.0
  0
LINE
  5
225
330
1F
100
AcDbEntity
  8
0
  6
Continuous
 62
     7
370
    15
100
AcDbLine
 10
149.672141924
 20
153.3136975341
 30
0.0
 11
149.7139910667
 21
155.7112333114
 31
0.0
  0
LINE
  5
226
330
1F
100
AcDbEntity
  8
0
  6
Continuous
 62
     7
370
    15
100
AcDbLine
 10
149.7139910667
 20
155.7112333114
 30
0.0
 11
149.726349039
 21
156.4192210692
 31
0.0
  0
LINE
  5
227
330
1F
100
AcDbEntity
  8
0
  6
Continuous
 62
     7
370
    15
100
AcDbLine
 10
166.6179448567
 20
156.4192210692
 30
0.0
 11
166.630302829
 21
155.7112333114
 31
0.0
  0
ELLIPSE
  5
228
330
1F
100
AcDbEntity
  8
0
  6
Continuous
 62
     7
370
    15
100
AcDbEllipse
 10
168.1837479469
 20
151.5523843483
 30
0.0
 11
0.3539842722995843
 21
-0.3539842722995843
 31
0.0
210
0.0
220
0.0
230
1.0
 40
0.998782766
 41
5.498396131367756
 42
7.067974482991429
  0
ELLIPSE
  5
229
330
1F
100
AcDbEntity
  8
0
  6
Continuous
 62
     7
370
    15
100
AcDbEllipse
 10
148.1605459488
 20
151.5523843483
 30
0.0
 11
-0.3539842722996127
 21
-0.3539842722996127
 31
0.0
210
0.0
220
0.0
230
1.0
 40
0.998782766
 41
5.498396131367716
 42
7.067974482991414
  0
LINE
  5
22A
330
1F
100
AcDbEntity
  8
0
  6
Continuous
 62
     7
370
    15
100
AcDbLine
 10
147.6602411766
 20
151.5517749896
 30
0.0
 11
147.6602411766
 21
153.0520795761
 31
0.0
  0
LINE
  5
22B
330
1F
100
AcDbEntity
  8
0
  6
Continuous
 62
     7
370
    15
100
AcDbLine
 10
147.6602411766
 20
153.0520795761
 30
0.0
 11
147.8547428434
 21
153.2465812429
 31
0.0
  0
LINE
  5
22C
330
1F
100
AcDbEntity
  8
0
  6
Continuous
 62
     7
370
    15
100
AcDbLine
 10
168.684052719
 20
151.5517749896
 30
0.0
 11
168.684052719
 21
153.0520795761
 31
0.0
  0
LINE
  5
22D
330
1F
100
AcDbEntity
  8
0
  6
Continuous
 62
     7
370
    15
100
AcDbLine
 10
168.684052719
 20
153.0520795761
 30
0.0
 11
168.4895510522
 21
153.2465812429
 31
0.0
  0
LINE
  5
22E
330
1F
100
AcDbEntity
  8
0
  6
Continuous
 62
     7
370
    15
100
AcDbLine
 10
150.0263033475
 20
156.7139853473
 30
0.0
 11
150.5721469478
 21
156.7139853473
 31
0.0
  0
LINE
  5
22F
330
1F
100
AcDbEntity
  8
0
  6
Continuous
 62
     7
370
    15
100
AcDbLine
 10
165.7721469478
 20
156.7139853473
 30
0.0
 11
166.3179905481
 21
156.7139853473
 31
0.0
  0
ARC
  5
230
330
1F
100
AcDbEntity
  8
0
  6
Continuous
 62
     7
370
    15
100
AcDbCircle
 10
166.3179905481
 20
156.4139853473
 30
0.0
 40
0.299999999999998
100
AcDbArc
 50
1.0
 51
90.0
  0
ARC
  5
231
330
1F
100
AcDbEntity
  8
0
  6
Continuous
 62
     7
370
    15
100
AcDbCircle
 10
150.0263033475
 20
156.4139853473
 30
0.0
 40
0.299999999999998
100
AcDbArc
 50
90.0
 51
179.0
  0
ELLIPSE
  5
232
330
1F
100
AcDbEntity
  8
0
  6
PHANTOM
 62
     8
370
     0
100
AcDbEllipse
 10
158.1721469478
 20
217.077081066
 30
0.0
 11
28.88000000000002
 21
0.0
 31
0.0
210
0.0
220
0.0
230
1.0
 40
0.3092053539
 41
4.553778234433795
 42
4.870999726335595
  0
ARC
  5
233
330
1F
100
AcDbEntity
  8
0
  6
PHANTOM
 62
     8
370
     0
100
AcDbCircle
 10
160.9261048694
 20
207.7150206954
 30
0.0
 40
1.887712191891859
100
AcDbArc
 50
357.9563707123
 51
16.7585147509
  0
ELLIPSE
  5
234
330
1F
100
AcDbEntity
  8
0
  6
PHANTOM
 62
     8
370
     0
100
AcDbEllipse
 10
158.1721469478
 20
216.6015528079
 30
0.0
 11
29.37999999999999
 21
0.0
 31
0.0
210
0.0
220
0.0
230
1.0
 40
0.308634081
 41
4.553778234433796
 42
4.870999726335594
  0
ARC
  5
235
330
1F
100
AcDbEntity
  8
0
  6
PHANTOM
 62
     8
370
     0
100
AcDbCircle
 10
155.4181890262
 20
207.7150206954
 30
0.0
 40
1.887712191892605
100
AcDbArc
 50
163.2414852491
 51
182.0436292877
  0
LINE
  5
236
330
1F
100
AcDbEntity
  8
0
  6
PHANTOM
 62
     8
370
     0
100
AcDbLine
 10
150.9715319166
 20
205.4087440393
 30
0.0
 11
150.9715319166
 21
179.207739828
 31
0.0
  0
SPLINE
  5
237
330
1F
100
AcDbEntity
  8
0
  6
PHANTOM
 62
     8
370
     0
100
AcDbSpline
210
0.0
220
0.0
230
1.0
 70
     8
 71
     3
 72
    20
 73
    16
 74
     0
 42
0.000000001
 43
0.00000001
 40
0.0
 40
0.0
 40
0.0
 40
0.0
 40
0.125
 40
0.125
 40
0.25
 40
0.25
 40
0.375
 40
0.375
 40
0.5
 40
0.5
 40
0.625
 40
0.625
 40
0.75
 40
0.75
 40
1.0
 40
1.0
 40
1.0
 40
1.0
 10
153.5316774906667
 20
207.6477039397598
 30
0.0
 10
153.3655376304851
 20
207.6559058263975
 30
0.0
 10
153.2021345461671
 20
207.6493674006106
 30
0.0
 10
152.8805496214287
 20
207.6080150224202
 30
0.0
 10
152.7209437203915
 20
207.5727048700436
 30
0.0
 10
152.414346231092
 20
207.474072793321
 30
0.0
 10
152.2685417508897
 20
207.4114659174422
 30
0.0
 10
151.9917838959264
 20
207.2594936978167
 30
0.0
 10
151.8597135172725
 20
207.1689403566285
 30
0.0
 10
151.6212810050557
 20
206.9664043239197
 30
0.0
 10
151.5138596498405
 20
206.8542079201318
 30
0.0
 10
151.3233386388884
 20
206.6068597676576
 30
0.0
 10
151.2407536518236
 20
206.4715145906636
 30
0.0
 10
151.0426568020349
 20
206.048458327163
 30
0.0
 10
150.9715319165959
 20
205.7326306053435
 30
0.0
 10
150.9715319165959
 20
205.4087440392852
 30
0.0
  0
SPLINE
  5
238
330
1F
100
AcDbEntity
  8
0
  6
PHANTOM
 62
     8
370
     0
100
AcDbSpline
210
0.0
220
0.0
230
1.0
 70
     8
 71
     3
 72
    20
 73
    16
 74
     0
 42
0.000000001
 43
0.00000001
 40
0.0
 40
0.0
 40
0.0
 40
0.0
 40
0.1250000000000009
 40
0.1250000000000009
 40
0.2500000000000018
 40
0.2500000000000018
 40
0.3750000000000028
 40
0.3750000000000028
 40
0.5000000000000037
 40
0.5000000000000037
 40
0.7500000000000018
 40
0.7500000000000018
 40
0.875000000000001
 40
0.875000000000001
 40
1.0
 40
1.0
 40
1.0
 40
1.0
 10
165.3727619790383
 20
205.4087440392852
 30
0.0
 10
165.3727619790383
 20
205.5706024973681
 30
0.0
 10
165.3554902456733
 20
205.728265346877
 30
0.0
 10
165.2878937832816
 20
206.035622141064
 30
0.0
 10
165.2366170409407
 20
206.1869704653885
 30
0.0
 10
165.1042085910194
 20
206.4704278139983
 30
0.0
 10
165.0234300187371
 20
206.6031329736838
 30
0.0
 10
164.8332067338232
 20
206.8511083908361
 30
0.0
 10
164.7238709957287
 20
206.9655327837822
 30
0.0
 10
164.3672527546755
 20
207.2688871756481
 30
0.0
 10
164.082998483629
 20
207.4245636212596
 30
0.0
 10
163.626452760171
 20
207.571841886673
 30
0.0
 10
163.4666453733485
 20
207.6075368325143
 30
0.0
 10
163.1426836547682
 20
207.6494040144088
 30
0.0
 10
162.9786844197039
 20
207.6559022795774
 30
0.0
 10
162.8126164049675
 20
207.6477039397598
 30
0.0
  0
LINE
  5
239
330
1F
100
AcDbEntity
  8
0
  6
PHANTOM
 62
     8
370
     0
100
AcDbLine
 10
165.372761979
 20
179.207739828
 30
0.0
 11
165.372761979
 21
205.4087440393
 31
0.0
  0
ARC
  5
23A
330
1F
100
AcDbEntity
  8
0
  6
PHANTOM
 62
     8
370
     0
100
AcDbCircle
 10
158.1721469478
 20
283.6865216832
 30
0.0
 40
104.7266189408128
100
AcDbArc
 50
266.0574435547
 51
273.9425564453
  0
SPLINE
  5
23B
330
1F
100
AcDbEntity
  8
0
  6
PHANTOM
 62
     8
370
     0
100
AcDbSpline
210
0.0
220
0.0
230
1.0
 70
     8
 71
     3
 72
    20
 73
    16
 74
     0
 42
0.000000001
 43
0.00000001
 40
0.0
 40
0.0
 40
0.0
 40
0.0
 40
0.2500000000000027
 40
0.2500000000000027
 40
0.3750000000000022
 40
0.3750000000000022
 40
0.5000000000000018
 40
0.5000000000000018
 40
0.6250000000000013
 40
0.6250000000000013
 40
0.7500000000000009
 40
0.7500000000000009
 40
0.8750000000000006
 40
0.8750000000000006
 40
1.0
 40
1.0
 40
1.0
 40
1.0
 10
150.5943793048431
 20
205.5375496438215
 30
0.0
 10
150.5944602638826
 20
205.9206713035543
 30
0.0
 10
150.6760430240537
 20
206.2959052857331
 30
0.0
 10
150.9051395675873
 20
206.8031411039989
 30
0.0
 10
151.0007392066911
 20
206.9660737616308
 30
0.0
 10
151.2226007335135
 20
207.2659922921657
 30
0.0
 10
151.348060399468
 20
207.4028414242519
 30
0.0
 10
151.6274608327344
 20
207.6512117557439
 30
0.0
 10
151.7828657470533
 20
207.7631823812351
 30
0.0
 10
152.1095927245517
 20
207.9523188808622
 30
0.0
 10
152.2821058634256
 20
208.0308945745688
 30
0.0
 10
152.6457076669225
 20
208.1559636355488
 30
0.0
 10
152.835626414366
 20
208.2016007605055
 30
0.0
 10
153.218227777277
 20
208.2568382250348
 30
0.0
 10
153.4127493979537
 20
208.2671331088228
 30
0.0
 10
153.6106507625719
 20
208.2593209294748
 30
0.0
  0
ARC
  5
23C
330
1F
100
AcDbEntity
  8
0
  6
PHANTOM
 62
     8
370
     0
100
AcDbCircle
 10
150.9136867294
 20
205.8559375054
 30
0.0
 40
0.4509191299729581
100
AcDbArc
 50
224.9173789631
 51
277.3703755303
  0
SPLINE
  5
23D
330
1F
100
AcDbEntity
  8
0
  6
PHANTOM
 62
     8
370
     0
100
AcDbSpline
210
0.0
220
0.0
230
1.0
 70
     8
 71
     3
 72
    20
 73
    16
 74
     0
 42
0.000000001
 43
0.00000001
 40
0.0
 40
0.0
 40
0.0
 40
0.0
 40
0.1249999999999998
 40
0.1249999999999998
 40
0.2499999999999997
 40
0.2499999999999997
 40
0.4999999999999998
 40
0.4999999999999998
 40
0.6249999999999998
 40
0.6249999999999998
 40
0.7499999999999999
 40
0.7499999999999999
 40
0.8749999999999999
 40
0.8749999999999999
 40
1.0
 40
1.0
 40
1.0
 40
1.0
 10
162.7336431330623
 20
208.2593209294748
 30
0.0
 10
162.9314411274474
 20
208.2671290282709
 30
0.0
 10
163.1267015032784
 20
208.2568793959651
 30
0.0
 10
163.5122666495676
 20
208.200946765078
 30
0.0
 10
163.7022113434166
 20
208.1548785102895
 30
0.0
 10
164.2436439029133
 20
207.968151980598
 30
0.0
 10
164.5791547304247
 20
207.7739286173178
 30
0.0
 10
164.9972525137005
 20
207.4017698625647
 30
0.0
 10
165.1249983286072
 20
207.2621121756559
 30
0.0
 10
165.3462392803988
 20
206.9618406449237
 30
0.0
 10
165.4398987196792
 20
206.801894773327
 30
0.0
 10
165.5930666920151
 20
206.461961450118
 30
0.0
 10
165.6521039804907
 20
206.2815368008187
 30
0.0
 10
165.7299928471076
 20
205.9160108458707
 30
0.0
 10
165.7498741338575
 20
205.7290035897651
 30
0.0
 10
165.7499145907912
 20
205.5375496438216
 30
0.0
  0
ARC
  5
23E
330
1F
100
AcDbEntity
  8
0
  6
PHANTOM
 62
     8
370
     0
100
AcDbCircle
 10
165.4306071662
 20
205.8559375054
 30
0.0
 40
0.4509191299732451
100
AcDbArc
 50
262.6296244697
 51
315.0826210369
  0
LINE
  5
23F
330
1F
100
AcDbEntity
  8
0
  6
PHANTOM
 62
     8
370
     0
100
AcDbLine
 10
153.5815716151
 20
208.5168017416
 30
0.0
 11
153.6106507626
 21
208.2593209295
 31
0.0
  0
LINE
  5
240
330
1F
100
AcDbEntity
  8
0
  6
PHANTOM
 62
     8
370
     0
100
AcDbLine
 10
162.7336431331
 20
208.2593209295
 30
0.0
 11
162.7627222805
 21
208.5168017416
 31
0.0
  0
LINE
  5
241
330
1F
100
AcDbEntity
  8
0
  6
PHANTOM
 62
     8
370
     0
100
AcDbLine
 10
150.5943793048
 20
205.5375496438
 30
0.0
 11
150.5721469478
 21
205.7344056674
 31
0.0
  0
LINE
  5
242
330
1F
100
AcDbEntity
  8
0
  6
PHANTOM
 62
     8
370
     0
100
AcDbLine
 10
165.7721469478
 20
205.7344056674
 30
0.0
 11
165.7499145908
 21
205.5375496438
 31
0.0
  0
LINE
  5
243
330
1F
100
AcDbEntity
  8
0
  6
PHANTOM
 62
     8
370
     0
100
AcDbLine
 10
165.7499145908
 20
205.5375496438
 30
0.0
 11
165.7499145908
 21
179.3365454325
 31
0.0
  0
ARC
  5
244
330
1F
100
AcDbEntity
  8
0
  6
PHANTOM
 62
     8
370
     0
100
AcDbCircle
 10
165.4306071662
 20
179.6549332941
 30
0.0
 40
0.4509191299727573
100
AcDbArc
 50
262.6296244697
 51
315.0826210369
  0
LINE
  5
245
330
1F
100
AcDbEntity
  8
0
  6
PHANTOM
 62
     8
370
     0
100
AcDbLine
 10
150.5943793048
 20
179.3365454325
 30
0.0
 11
150.5943793048
 21
205.5375496438
 31
0.0
  0
ARC
  5
246
330
1F
100
AcDbEntity
  8
0
  6
PHANTOM
 62
     8
370
     0
100
AcDbCircle
 10
150.9136867294
 20
179.6549332941
 30
0.0
 40
0.4509191299730133
100
AcDbArc
 50
224.9173789631
 51
277.3703755303
  0
LINE
  5
247
330
1F
100
AcDbEntity
  8
0
  6
PHANTOM
 62
     8
370
     0
100
AcDbLine
 10
165.7499145908
 20
179.3365454325
 30
0.0
 11
165.7721469478
 21
179.5120303429
 31
0.0
  0
LINE
  5
248
330
1F
100
AcDbEntity
  8
0
  6
PHANTOM
 62
     8
370
     0
100
AcDbLine
 10
150.5721469478
 20
179.5120303429
 30
0.0
 11
150.5943793048
 21
179.3365454325
 31
0.0
  0
LINE
  5
249
330
1F
100
AcDbEntity
  8
0
  6
PHANTOM
 62
     8
370
     0
100
AcDbLine
 10
150.9715319166
 20
179.207739828
 30
0.0
 11
150.9715319166
 21
177.1139853473
 31
0.0
  0
LINE
  5
24A
330
1F
100
AcDbEntity
  8
0
  6
PHANTOM
 62
     8
370
     0
100
AcDbLine
 10
165.372761979
 20
177.1139853473
 30
0.0
 11
165.372761979
 21
179.207739828
 31
0.0
  0
LINE
  5
24B
330
1F
100
AcDbEntity
  8
0
  6
PHANTOM
 62
     8
370
     0
100
AcDbLine
 10
165.372761979
 20
177.1139853473
 30
0.0
 11
150.9715319166
 21
177.1139853473
 31
0.0
  0
LINE
  5
24C
330
1F
100
AcDbEntity
  8
0
  6
PHANTOM
 62
     8
370
     0
100
AcDbLine
 10
150.9715319166
 20
177.1139853473
 30
0.0
 11
150.9715319166
 21
151.8359131178
 31
0.0
  0
LINE
  5
24D
330
1F
100
AcDbEntity
  8
0
  6
PHANTOM
 62
     8
370
     0
100
AcDbLine
 10
165.372761979
 20
151.8359131178
 30
0.0
 11
165.372761979
 21
177.1139853473
 31
0.0
  0
ELLIPSE
  5
24E
330
1F
100
AcDbEntity
  8
0
  6
PHANTOM
 62
     8
370
     0
100
AcDbEllipse
 10
158.1721469478
 20
150.8581594508
 30
0.0
 11
29.38000000000002
 21
0.0
 31
0.0
210
0.0
220
0.0
230
1.0
 40
0.0343264746
 41
1.323188338819398
 42
1.818404314770395
  0
ARC
  5
24F
330
1F
100
AcDbEntity
  8
0
  6
PHANTOM
 62
     8
370
     0
100
AcDbCircle
 10
164.7275120423
 20
151.7292773838
 30
0.0
 40
0.6540020341379595
100
AcDbArc
 50
323.0579604609
 51
9.3840360587
  0
ELLIPSE
  5
250
330
1F
100
AcDbEntity
  8
0
  6
PHANTOM
 62
     8
370
     0
100
AcDbEllipse
 10
158.1721469478
 20
150.3584640373
 30
0.0
 11
28.87999999999999
 21
0.0
 31
0.0
210
0.0
220
0.0
230
1.0
 40
0.0349207695
 41
1.323188338819405
 42
1.818404314770387
  0
ARC
  5
251
330
1F
100
AcDbEntity
  8
0
  6
PHANTOM
 62
     8
370
     0
100
AcDbCircle
 10
151.6167818534
 20
151.7292773838
 30
0.0
 40
0.6540020341378747
100
AcDbArc
 50
170.6159639413
 51
216.9420395391
  0
LINE
  5
252
330
1F
100
AcDbEntity
  8
0
  6
PHANTOM
 62
     8
370
     0
100
AcDbLine
 10
151.0549913352
 20
151.2971343212
 30
0.0
 11
149.8535244974
 21
151.2971343212
 31
0.0
  0
LINE
  5
253
330
1F
100
AcDbEntity
  8
0
  6
PHANTOM
 62
     8
370
     0
100
AcDbLine
 10
151.0940747184
 20
151.3362177043
 30
0.0
 11
151.0549913352
 21
151.2971343212
 31
0.0
  0
LINE
  5
254
330
1F
100
AcDbEntity
  8
0
  6
PHANTOM
 62
     8
370
     0
100
AcDbLine
 10
165.2893025604
 20
151.2971343212
 30
0.0
 11
165.2502191773
 21
151.3362177043
 31
0.0
  0
LINE
  5
255
330
1F
100
AcDbEntity
  8
0
  6
PHANTOM
 62
     8
370
     0
100
AcDbLine
 10
166.4907693982
 20
151.2971343212
 30
0.0
 11
165.2893025604
 21
151.2971343212
 31
0.0
  0
ELLIPSE
  5
256
330
1F
100
AcDbEntity
  8
0
  6
PHANTOM
 62
     8
370
     0
100
AcDbEllipse
 10
166.4907693982
 20
151.244753167
 30
0.0
 11
1.5
 21
0.0
 31
0.0
210
0.0
220
0.0
230
1.0
 40
0.0349207695
 41
0.0349065850396575
 42
1.570796326794897
  0
LINE
  5
257
330
1F
100
AcDbEntity
  8
0
  6
PHANTOM
 62
     8
370
     0
100
AcDbLine
 10
168.1843573055
 20
151.0520795761
 30
0.0
 11
167.9898556387
 21
151.2465812429
 31
0.0
  0
LINE
  5
258
330
1F
100
AcDbEntity
  8
0
  6
PHANTOM
 62
     8
370
     0
100
AcDbLine
 10
148.3544382569
 20
151.2465812429
 30
0.0
 11
148.1599365901
 21
151.0520795761
 31
0.0
  0
ELLIPSE
  5
259
330
1F
100
AcDbEntity
  8
0
  6
PHANTOM
 62
     8
370
     0
100
AcDbEllipse
 10
149.8535244974
 20
151.244753167
 30
0.0
 11
1.5
 21
0.0
 31
0.0
210
0.0
220
0.0
230
1.0
 40
0.0349207695
 41
1.570796326794897
 42
3.106686068550137
  0
LINE
  5
25A
330
1F
100
AcDbEntity
  8
0
  6
PHANTOM
 62
     8
370
     0
100
AcDbLine
 10
165.7499145908
 20
179.3365454325
 30
0.0
 11
165.7499145908
 21
177.1139853473
 31
0.0
  0
LINE
  5
25B
330
1F
100
AcDbEntity
  8
0
  6
PHANTOM
 62
     8
370
     0
100
AcDbLine
 10
165.7499145908
 20
177.1139853473
 30
0.0
 11
165.372761979
 21
177.1139853473
 31
0.0
  0
LINE
  5
25C
330
1F
100
AcDbEntity
  8
0
  6
PHANTOM
 62
     8
370
     0
100
AcDbLine
 10
150.9715319166
 20
177.1139853473
 30
0.0
 11
150.5943793048
 21
177.1139853473
 31
0.0
  0
LINE
  5
25D
330
1F
100
AcDbEntity
  8
0
  6
PHANTOM
 62
     8
370
     0
100
AcDbLine
 10
150.5943793048
 20
177.1139853473
 30
0.0
 11
150.5943793048
 21
179.3365454325
 31
0.0
  0
LINE
  5
25E
330
1F
100
AcDbEntity
  8
0
  6
PHANTOM
 62
     8
370
     0
100
AcDbLine
 10
165.372761979
 20
151.8359131178
 30
0.0
 11
165.7499145908
 21
151.8359131178
 31
0.0
  0
ARC
  5
25F
330
1F
100
AcDbEntity
  8
0
  6
PHANTOM
 62
     8
370
     0
100
AcDbCircle
 10
165.2495056977
 20
151.8366265974
 30
0.0
 40
0.500409401733753
100
AcDbArc
 50
270.0816918764
 51
359.9183081237
  0
ARC
  5
260
330
1F
100
AcDbEntity
  8
0
  6
PHANTOM
 62
     8
370
     0
100
AcDbCircle
 10
151.0947881979
 20
151.8366265974
 30
0.0
 40
0.5004094017336961
100
AcDbArc
 50
180.0816918763
 51
269.9183081237
  0
LINE
  5
261
330
1F
100
AcDbEntity
  8
0
  6
PHANTOM
 62
     8
370
     0
100
AcDbLine
 10
150.9715319166
 20
151.8359131178
 30
0.0
 11
150.5943793048
 21
151.8359131178
 31
0.0
  0
LINE
  5
262
330
1F
100
AcDbEntity
  8
0
  6
PHANTOM
 62
     8
370
     0
100
AcDbLine
 10
165.7499145908
 20
177.1139853473
 30
0.0
 11
165.7499145908
 21
151.8359131178
 31
0.0
  0
LINE
  5
263
330
1F
100
AcDbEntity
  8
0
  6
PHANTOM
 62
     8
370
     0
100
AcDbLine
 10
150.5943793048
 20
151.8359131178
 30
0.0
 11
150.5943793048
 21
177.1139853473
 31
0.0
  0
LINE
  5
264
330
1F
100
AcDbEntity
  8
0
  6
PHANTOM
 62
     8
370
     0
100
AcDbLine
 10
150.5943793048
 20
177.1139853473
 30
0.0
 11
150.5721469478
 21
177.1139853473
 31
0.0
  0
LINE
  5
265
330
1F
100
AcDbEntity
  8
0
  6
PHANTOM
 62
     8
370
     0
100
AcDbLine
 10
165.7721469478
 20
177.1139853473
 30
0.0
 11
165.7499145908
 21
177.1139853473
 31
0.0
  0
LINE
  5
266
330
1F
100
AcDbEntity
  8
0
  6
PHANTOM
 62
     8
370
     0
100
AcDbLine
 10
165.7499145908
 20
151.8359131178
 30
0.0
 11
165.7721469478
 21
151.8136807608
 31
0.0
  0
LINE
  5
267
330
1F
100
AcDbEntity
  8
0
  6
PHANTOM
 62
     8
370
     0
100
AcDbLine
 10
150.5721469478
 20
151.8136807608
 30
0.0
 11
150.5943793048
 21
151.8359131178
 31
0.0
  0
LINE
  5
268
330
1F
100
AcDbEntity
  8
0
  6
PHANTOM
 62
     8
370
     0
100
AcDbLine
 10
149.8535244974
 20
153.3139853473
 30
0.0
 11
149.8535244974
 21
151.7968297347
 31
0.0
  0
ELLIPSE
  5
269
330
1F
100
AcDbEntity
  8
0
  6
PHANTOM
 62
     8
370
     0
100
AcDbEllipse
 10
149.8535244974
 20
151.7444485805
 30
0.0
 11
2.000000000000028
 21
0.0
 31
0.0
210
0.0
220
0.0
230
1.0
 40
0.0261905771
 41
1.570796326794897
 42
3.106686068550159
  0
LINE
  5
26A
330
1F
100
AcDbEntity
  8
0
  6
PHANTOM
 62
     8
370
     0
100
AcDbLine
 10
147.8547428434
 20
151.7462766564
 30
0.0
 11
147.8547428434
 21
153.2465812429
 31
0.0
  0
LINE
  5
26B
330
1F
100
AcDbEntity
  8
0
  6
PHANTOM
 62
     8
370
     0
100
AcDbLine
 10
168.4895510522
 20
153.2465812429
 30
0.0
 11
168.4895510522
 21
151.7462766564
 31
0.0
  0
ELLIPSE
  5
26C
330
1F
100
AcDbEntity
  8
0
  6
PHANTOM
 62
     8
370
     0
100
AcDbEllipse
 10
166.4907693982
 20
151.7444485805
 30
0.0
 11
2.0
 21
0.0
 31
0.0
210
0.0
220
0.0
230
1.0
 40
0.0261905771
 41
0.034906585039639
 42
1.570796326794897
  0
LINE
  5
26D
330
1F
100
AcDbEntity
  8
0
  6
PHANTOM
 62
     8
370
     0
100
AcDbLine
 10
166.4907693982
 20
151.7968297347
 30
0.0
 11
166.4907693982
 21
153.3139853473
 31
0.0
  0
LINE
  5
26E
330
1F
100
AcDbEntity
  8
0
  6
PHANTOM
 62
     8
370
     0
100
AcDbLine
 10
165.7718630711
 20
151.7968297347
 30
0.0
 11
166.4907693982
 21
151.7968297347
 31
0.0
  0
LINE
  5
26F
330
1F
100
AcDbEntity
  8
0
  6
PHANTOM
 62
     8
370
     0
100
AcDbLine
 10
149.8535244974
 20
151.7968297347
 30
0.0
 11
150.5724308245
 21
151.7968297347
 31
0.0
  0
LINE
  5
270
330
1F
100
AcDbEntity
  8
0
  6
PHANTOM
 62
     8
370
     0
100
AcDbLine
 10
149.8535244974
 20
151.7968297347
 30
0.0
 11
149.8535244974
 21
151.2971343212
 31
0.0
  0
LINE
  5
271
330
1F
100
AcDbEntity
  8
0
  6
PHANTOM
 62
     8
370
     0
100
AcDbLine
 10
166.4907693982
 20
151.2971343212
 30
0.0
 11
166.4907693982
 21
151.7968297347
 31
0.0
  0
ARC
  5
272
330
1F
100
AcDbEntity
  8
0
  6
PHANTOM
 62
     8
370
     0
100
AcDbCircle
 10
167.9891421591
 20
151.746990136
 30
0.0
 40
0.5004094017337245
100
AcDbArc
 50
270.0816918763
 51
359.9183081237
  0
ARC
  5
273
330
1F
100
AcDbEntity
  8
0
  6
PHANTOM
 62
     8
370
     0
100
AcDbCircle
 10
148.3551517365
 20
151.746990136
 30
0.0
 40
0.5004094017337245
100
AcDbArc
 50
180.0816918763
 51
269.9183081237
  0
LINE
  5
274
330
1F
100
AcDbEntity
  8
0
  6
PHANTOM
 62
     8
370
     0
100
AcDbLine
 10
166.3721926393
 20
153.3139853473
 30
0.0
 11
166.3303485204
 21
155.7112333114
 31
0.0
  0
ARC
  5
275
330
1F
100
AcDbEntity
  8
0
  6
PHANTOM
 62
     8
370
     0
100
AcDbCircle
 10
166.4803256747
 20
151.4129707507
 30
0.0
 40
4.300878304278358
100
AcDbArc
 50
88.0016173803
 51
91.9983826197
  0
ARC
  5
276
330
1F
100
AcDbEntity
  8
0
  6
PHANTOM
 62
     8
370
     0
100
AcDbCircle
 10
149.863968221
 20
151.4129707507
 30
0.0
 40
4.300878304279553
100
AcDbArc
 50
88.0016173803
 51
91.9983826197
  0
LINE
  5
277
330
1F
100
AcDbEntity
  8
0
  6
PHANTOM
 62
     8
370
     0
100
AcDbLine
 10
150.0139453752
 20
155.7112333114
 30
0.0
 11
149.9721012564
 21
153.3139853473
 31
0.0
  0
LINE
  5
278
330
1F
100
AcDbEntity
  8
0
  6
PHANTOM
 62
     8
370
     0
100
AcDbLine
 10
166.3303485204
 20
155.7112333114
 30
0.0
 11
165.7721469478
 21
155.7112333114
 31
0.0
  0
LINE
  5
279
330
1F
100
AcDbEntity
  8
0
  6
PHANTOM
 62
     8
370
     0
100
AcDbLine
 10
150.5721469478
 20
155.7112333114
 30
0.0
 11
150.0139453752
 21
155.7112333114
 31
0.0
  0
LINE
  5
27A
330
1F
100
AcDbEntity
  8
0
  6
PHANTOM
 62
     8
370
     0
100
AcDbLine
 10
150.0139453752
 20
155.8559975895
 30
0.0
 11
150.5721469478
 21
155.8559975895
 31
0.0
  0
LINE
  5
27B
330
1F
100
AcDbEntity
  8
0
  6
PHANTOM
 62
     8
370
     0
100
AcDbLine
 10
165.7721469478
 20
155.8559975895
 30
0.0
 11
166.3303485204
 21
155.8559975895
 31
0.0
  0
LINE
  5
27C
330
1F
100
AcDbEntity
  8
0
  6
PHANTOM
 62
     8
370
     0
100
AcDbLine
 10
166.3303485204
 20
155.8559975895
 30
0.0
 11
166.3303485204
 21
155.7112333114
 31
0.0
  0
LINE
  5
27D
330
1F
100
AcDbEntity
  8
0
  6
PHANTOM
 62
     8
370
     0
100
AcDbLine
 10
150.0139453752
 20
155.7112333114
 30
0.0
 11
150.0139453752
 21
155.8559975895
 31
0.0
  0
LWPOLYLINE
  5
27E
330
1F
100
AcDbEntity
  8
0
  6
PHANTOM
 62
     8
370
     0
100
AcDbPolyline
 90
        9
 70
   128
 43
0.0
 10
149.7139910667
 20
155.7112333114
 10
149.720198809
 20
155.7402291194
 10
149.7375703899
 20
155.7679239581
 10
149.7654456026
 20
155.793265285
 10
149.8027650495
 20
155.815290003
 10
149.8481104049
 20
155.8331610627
 10
149.8997583186
 20
155.8461992745
 10
149.9557459116
 20
155.853909121
 10
150.0139453752
 20
155.8559975895
  0
LWPOLYLINE
  5
27F
330
1F
100
AcDbEntity
  8
0
  6
PHANTOM
 62
     8
370
     0
100
AcDbPolyline
 90
        9
 70
   128
 43
0.0
 10
166.3303485204
 20
155.8559975895
 10
166.3885479841
 20
155.853909121
 10
166.444535577
 20
155.8461992745
 10
166.4961834907
 20
155.8331610627
 10
166.5415288462
 20
155.815290003
 10
166.578848293
 20
155.793265285
 10
166.6067235057
 20
155.7679239581
 10
166.6240950867
 20
155.7402291194
 10
166.630302829
 20
155.7112333114
  0
LWPOLYLINE
  5
280
330
1F
100
AcDbEntity
  8
0
  6
PHANTOM
 62
     8
370
     0
100
AcDbPolyline
 90
        9
 70
   128
 43
0.0
 10
149.726349039
 20
156.4192210692
 10
149.7325567813
 20
156.4482168772
 10
149.7499283622
 20
156.4759117159
 10
149.7778035749
 20
156.5012530428
 10
149.8151230217
 20
156.5232777608
 10
149.8604683772
 20
156.5411488205
 10
149.9121162909
 20
156.5541870323
 10
149.9681038839
 20
156.5618968788
 10
150.0263033475
 20
156.5639853473
  0
LINE
  5
281
330
1F
100
AcDbEntity
  8
0
  6
PHANTOM
 62
     8
370
     0
100
AcDbLine
 10
150.0263033475
 20
156.5639853473
 30
0.0
 11
150.0139453752
 21
155.8559975895
 31
0.0
  0
LINE
  5
282
330
1F
100
AcDbEntity
  8
0
  6
PHANTOM
 62
     8
370
     0
100
AcDbLine
 10
166.3303485204
 20
155.8559975895
 30
0.0
 11
166.3179905481
 21
156.5639853473
 31
0.0
  0
LWPOLYLINE
  5
283
330
1F
100
AcDbEntity
  8
0
  6
PHANTOM
 62
     8
370
     0
100
AcDbPolyline
 90
        9
 70
   128
 43
0.0
 10
166.3179905481
 20
156.5639853473
 10
166.3761900118
 20
156.5618968788
 10
166.4321776047
 20
156.5541870323
 10
166.4838255185
 20
156.5411488205
 10
166.5291708739
 20
156.5232777608
 10
166.5664903208
 20
156.5012530428
 10
166.5943655334
 20
156.4759117159
 10
166.6117371144
 20
156.4482168772
 10
166.6179448567
 20
156.4192210692
  0
LINE
  5
284
330
1F
100
AcDbEntity
  8
0
  6
PHANTOM
 62
     8
370
     0
100
AcDbLine
 10
166.3179905481
 20
156.5639853473
 30
0.0
 11
165.7721469478
 21
156.5639853473
 31
0.0
  0
LINE
  5
285
330
1F
100
AcDbEntity
  8
0
  6
PHANTOM
 62
     8
370
     0
100
AcDbLine
 10
150.5721469478
 20
156.5639853473
 30
0.0
 11
150.0263033475
 21
156.5639853473
 31
0.0
  0
LINE
  5
286
330
1F
100
AcDbEntity
  8
0
  6
PHANTOM
 62
     8
370
     0
100
AcDbLine
 10
168.4895510522
 20
151.7462766564
 30
0.0
 11
168.684052719
 21
151.5517749896
 31
0.0
  0
LINE
  5
287
330
1F
100
AcDbEntity
  8
0
  6
PHANTOM
 62
     8
370
     0
100
AcDbLine
 10
147.6602411766
 20
151.5517749896
 30
0.0
 11
147.8547428434
 21
151.7462766564
 31
0.0
  0
LINE
  5
288
330
1F
100
AcDbEntity
  8
0
  6
PHANTOM
 62
     8
370
     0
100
AcDbLine
 10
166.3179905481
 20
156.7139853473
 30
0.0
 11
166.3179905481
 21
156.5639853473
 31
0.0
  0
LINE
  5
289
330
1F
100
AcDbEntity
  8
0
  6
PHANTOM
 62
     8
370
     0
100
AcDbLine
 10
150.0263033475
 20
156.5639853473
 30
0.0
 11
150.0263033475
 21
156.7139853473
 31
0.0
  0
LINE
  5
28A
330
1F
100
AcDbEntity
  8
0
  6
Continuous
 62
     7
370
    15
100
AcDbLine
 10
86.3561096217
 20
115.6189266758
 30
0.0
 11
57.7829817442
 21
123.8121392513
 31
0.0
  0
ARC
  5
28B
330
1F
100
AcDbEntity
  8
0
  6
Continuous
 62
     7
370
    15
100
AcDbCircle
 10
88.2028799056
 20
122.0593800386
 30
0.0
 40
6.700000000000007
100
AcDbArc
 50
254.0
 51
270.0
  0
LINE
  5
28C
330
1F
100
AcDbEntity
  8
0
  6
Continuous
 62
     7
370
    15
100
AcDbLine
 10
113.4501939792
 20
115.3593800386
 30
0.0
 11
88.2028799056
 21
115.3593800386
 31
0.0
  0
ARC
  5
28D
330
1F
100
AcDbEntity
  8
0
  6
Continuous
 62
     7
370
    15
100
AcDbCircle
 10
113.4501939792
 20
114.8593800386
 30
0.0
 40
0.5000000000000087
100
AcDbArc
 50
2.0
 51
89.2366342158
  0
ARC
  5
28E
330
1F
100
AcDbEntity
  8
0
  6
Continuous
 62
     7
370
    15
100
AcDbCircle
 10
57.6451630663
 20
123.3315084034
 30
0.0
 40
0.5000000000000185
100
AcDbArc
 50
74.4885352697
 51
162.0
  0
LINE
  5
28F
330
1F
100
AcDbEntity
  8
0
  6
Continuous
 62
     7
370
    15
100
AcDbLine
 10
114.07028401
 20
111.429179032
 30
0.0
 11
114.2647856768
 21
105.8593800386
 31
0.0
  0
LINE
  5
290
330
1F
100
AcDbEntity
  8
0
  6
Continuous
 62
     7
370
    15
100
AcDbLine
 10
114.2647856768
 20
105.8593800386
 30
0.0
 11
113.7650902633
 21
105.8593800386
 31
0.0
  0
LINE
  5
291
330
1F
100
AcDbEntity
  8
0
  6
Continuous
 62
     7
370
    15
100
AcDbLine
 10
112.2647856768
 20
105.8593800386
 30
0.0
 11
112.07028401
 21
111.429179032
 31
0.0
  0
LINE
  5
292
330
1F
100
AcDbEntity
  8
0
  6
Continuous
 62
     7
370
    15
100
AcDbLine
 10
113.7650902633
 20
105.8593800386
 30
0.0
 11
112.2647856768
 21
105.8593800386
 31
0.0
  0
LINE
  5
293
330
1F
100
AcDbEntity
  8
0
  6
Continuous
 62
     7
370
    15
100
AcDbLine
 10
112.0028799056
 20
113.3593800386
 30
0.0
 11
113.5200355182
 21
113.3593800386
 31
0.0
  0
LINE
  5
294
330
1F
100
AcDbEntity
  8
0
  6
Continuous
 62
     7
370
    15
100
AcDbLine
 10
112.07028401
 20
111.429179032
 30
0.0
 11
112.0028799056
 21
113.3593800386
 31
0.0
  0
ARC
  5
295
330
1F
100
AcDbEntity
  8
0
  6
Continuous
 62
     7
370
    15
100
AcDbCircle
 10
113.5200355182
 20
112.8593800386
 30
0.0
 40
0.5000000000000087
100
AcDbArc
 50
2.0
 51
90.0
  0
LINE
  5
296
330
1F
100
AcDbEntity
  8
0
  6
Continuous
 62
     7
370
    15
100
AcDbLine
 10
114.0197309317
 20
112.8768297869
 30
0.0
 11
114.07028401
 21
111.429179032
 31
0.0
  0
LINE
  5
297
330
1F
100
AcDbEntity
  8
0
  6
Continuous
 62
     7
370
    15
100
AcDbLine
 10
112.2647856768
 20
105.8593800386
 30
0.0
 11
109.6976441837
 21
105.8593800386
 31
0.0
  0
LINE
  5
298
330
1F
100
AcDbEntity
  8
0
  6
Continuous
 62
     7
370
    15
100
AcDbLine
 10
109.6056319415
 20
111.6175359197
 30
0.0
 11
112.06220905
 21
111.6604156326
 31
0.0
  0
ARC
  5
299
330
1F
100
AcDbEntity
  8
0
  6
Continuous
 62
     7
370
    15
100
AcDbCircle
 10
109.1832646634
 20
106.1593800386
 30
0.0
 40
0.2999999999999972
100
AcDbArc
 50
240.0
 51
270.0
  0
LINE
  5
29A
330
1F
100
AcDbEntity
  8
0
  6
Continuous
 62
     7
370
    15
100
AcDbLine
 10
109.0332646634
 20
105.8995724174
 30
0.0
 11
108.7528799056
 21
106.0614526328
 31
0.0
  0
LINE
  5
29B
330
1F
100
AcDbEntity
  8
0
  6
Continuous
 62
     7
370
    15
100
AcDbLine
 10
109.6976441837
 20
105.8593800386
 30
0.0
 11
109.1832646634
 21
105.8593800386
 31
0.0
  0
LINE
  5
29C
330
1F
100
AcDbEntity
  8
0
  6
Continuous
 62
     7
370
    15
100
AcDbLine
 10
108.7528799056
 20
111.1686323098
 30
0.0
 11
109.4608676634
 21
111.5773892323
 31
0.0
  0
ARC
  5
29D
330
1F
100
AcDbEntity
  8
0
  6
Continuous
 62
     7
370
    15
100
AcDbCircle
 10
109.6108676634
 20
111.3175816112
 30
0.0
 40
0.3000000000000201
100
AcDbArc
 50
91.0
 51
120.0
  0
LINE
  5
29E
330
1F
100
AcDbEntity
  8
0
  6
Continuous
 62
     7
370
    15
100
AcDbLine
 10
108.6028799056
 20
106.3212602539
 30
0.0
 11
108.6028799056
 21
110.9088246886
 31
0.0
  0
ARC
  5
29F
330
1F
100
AcDbEntity
  8
0
  6
Continuous
 62
     7
370
    15
100
AcDbCircle
 10
108.9028799056
 20
110.9088246886
 30
0.0
 40
0.2999999999999972
100
AcDbArc
 50
120.0
 51
180.0
  0
ARC
  5
2A0
330
1F
100
AcDbEntity
  8
0
  6
Continuous
 62
     7
370
    15
100
AcDbCircle
 10
108.9028799056
 20
106.3212602539
 30
0.0
 40
0.2999999999999972
100
AcDbArc
 50
180.0
 51
240.0
  0
LINE
  5
2A1
330
1F
100
AcDbEntity
  8
0
  6
Continuous
 62
     7
370
    15
100
AcDbLine
 10
59.5824595855
 20
121.2155484118
 30
0.0
 11
57.1625765649
 21
121.9094387021
 31
0.0
  0
SPLINE
  5
2A2
330
1F
100
AcDbEntity
  8
0
  6
Continuous
 62
     7
370
    15
100
AcDbSpline
210
0.0
220
0.0
230
1.0
 70
     8
 71
     3
 72
    12
 73
     8
 74
     0
 42
0.000000001
 43
0.00000001
 40
0.0
 40
0.0
 40
0.0
 40
0.0
 40
0.4999999999999996
 40
0.4999999999999996
 40
0.7499999999999998
 40
0.7499999999999998
 40
1.0
 40
1.0
 40
1.0
 40
1.0
 10
56.8000635113594
 20
122.3485934045924
 30
0.0
 10
56.78513128117271
 20
122.3026367255735
 30
0.0
 10
56.80861188334141
 20
122.2420422659821
 30
0.0
 10
56.89986036121361
 20
122.1305319050708
 30
0.0
 10
56.94002683831457
 20
122.0897254909272
 30
0.0
 10
57.03784361076968
 20
122.0033874885474
 30
0.0
 10
57.09562628950857
 20
121.9576384196391
 30
0.0
 10
57.16257656494431
 20
121.9094387020685
 30
0.0
  0
LINE
  5
2A3
330
1F
100
AcDbEntity
  8
0
  6
Continuous
 62
     7
370
    15
100
AcDbLine
 10
56.8000635114
 20
122.3485934046
 30
0.0
 11
57.0575443234
 21
123.1410378611
 31
0.0
  0
LINE
  5
2A4
330
1F
100
AcDbEntity
  8
0
  6
Continuous
 62
     7
370
    15
100
AcDbLine
 10
85.80483491
 20
113.6964032839
 30
0.0
 11
59.5824595855
 21
121.2155484118
 31
0.0
  0
ARC
  5
2A5
330
1F
100
AcDbEntity
  8
0
  6
Continuous
 62
     7
370
    15
100
AcDbCircle
 10
88.2028799056
 20
122.0593800386
 30
0.0
 40
8.700000000000006
100
AcDbArc
 50
254.0
 51
270.0
  0
LINE
  5
2A6
330
1F
100
AcDbEntity
  8
0
  6
Continuous
 62
     7
370
    15
100
AcDbLine
 10
88.2028799056
 20
113.3593800386
 30
0.0
 11
112.0028799056
 21
113.3593800386
 31
0.0
  0
LINE
  5
2A7
330
1F
100
AcDbEntity
  8
0
  6
Continuous
 62
     7
370
    15
100
AcDbLine
 10
113.9806475486
 20
113.9960314454
 30
0.0
 11
114.0197309317
 21
112.8768297869
 31
0.0
  0
LINE
  5
2A8
330
1F
100
AcDbEntity
  8
0
  6
Continuous
 62
     7
370
    15
100
AcDbLine
 10
113.9498893928
 20
114.8768297867
 30
0.0
 11
113.9806475486
 21
113.9960314454
 31
0.0
  0
LINE
  5
2A9
330
1F
100
AcDbEntity
  8
0
  6
Continuous
 62
     7
370
    15
100
AcDbLine
 10
57.0575443234
 20
123.1410378611
 30
0.0
 11
57.1696348082
 21
123.4860169006
 31
0.0
  0
LINE
  5
2AA
330
1F
100
AcDbEntity
  8
0
  6
Continuous
 62
     7
370
    15
100
AcDbLine
 10
73.7890637108
 20
116.1015707958
 30
0.0
 11
78.5919031411
 21
114.7243787506
 31
0.0
  0
LINE
  5
2AB
330
1F
100
AcDbEntity
  8
0
  6
Continuous
 62
     7
370
    15
100
AcDbLine
 10
78.5919031411
 20
114.7243787506
 30
0.0
 11
78.5919031411
 21
113.6561461314
 31
0.0
  0
LINE
  5
2AC
330
1F
100
AcDbEntity
  8
0
  6
Continuous
 62
     7
370
    15
100
AcDbLine
 10
73.7890637108
 20
115.0333381766
 30
0.0
 11
73.7890637108
 21
116.1015707958
 31
0.0
  0
LINE
  5
2AD
330
1F
100
AcDbEntity
  8
0
  6
Continuous
 62
     7
370
    15
100
AcDbLine
 10
73.7890637108
 20
113.5008222061
 30
0.0
 11
78.5919031411
 21
112.1236301609
 31
0.0
  0
LINE
  5
2AE
330
1F
100
AcDbEntity
  8
0
  6
Continuous
 62
     7
370
    15
100
AcDbLine
 10
78.5919031411
 20
113.6561461314
 30
0.0
 11
78.5919031411
 21
112.1236301609
 31
0.0
  0
LINE
  5
2AF
330
1F
100
AcDbEntity
  8
0
  6
Continuous
 62
     7
370
    15
100
AcDbLine
 10
73.7890637108
 20
113.5008222061
 30
0.0
 11
73.7890637108
 21
115.0333381766
 31
0.0
  0
LINE
  5
2B0
330
1F
100
AcDbEntity
  8
0
  6
Continuous
 62
     7
370
    15
100
AcDbLine
 10
78.5919031411
 20
115.7646781864
 30
0.0
 11
78.5919031411
 21
115.4525883557
 31
0.0
  0
LINE
  5
2B1
330
1F
100
AcDbEntity
  8
0
  6
Continuous
 62
     7
370
    15
100
AcDbLine
 10
73.7890637108
 20
116.8297804009
 30
0.0
 11
73.7890637108
 21
117.1418702316
 31
0.0
  0
LINE
  5
2B2
330
1F
100
AcDbEntity
  8
0
  6
Continuous
 62
     7
370
    15
100
AcDbLine
 10
78.5919031411
 20
115.4525883557
 30
0.0
 11
78.5919031411
 21
114.7243787506
 31
0.0
  0
LINE
  5
2B3
330
1F
100
AcDbEntity
  8
0
  6
Continuous
 62
     7
370
    15
100
AcDbLine
 10
73.7890637108
 20
116.1015707958
 30
0.0
 11
73.7890637108
 21
116.8297804009
 31
0.0
  0
LINE
  5
2B4
330
1F
100
AcDbEntity
  8
0
  6
Continuous
 62
     7
370
    15
100
AcDbLine
 10
81.0911835505
 20
115.0480210613
 30
0.0
 11
81.0911835505
 21
114.3091432455
 31
0.0
  0
ARC
  5
2B5
330
1F
100
AcDbEntity
  8
0
  6
Continuous
 62
     7
370
    15
100
AcDbCircle
 10
81.4911835505
 20
114.3091432455
 30
0.0
 40
0.4000000000000057
100
AcDbArc
 50
180.0
 51
254.0
  0
LINE
  5
2B6
330
1F
100
AcDbEntity
  8
0
  6
Continuous
 62
     7
370
    15
100
AcDbLine
 10
81.3809286082
 20
113.9246385671
 30
0.0
 11
82.1726871731
 21
113.697605452
 31
0.0
  0
ARC
  5
2B7
330
1F
100
AcDbEntity
  8
0
  6
Continuous
 62
     7
370
    15
100
AcDbCircle
 10
82.2829421154
 20
114.0821101304
 30
0.0
 40
0.4000000000000172
100
AcDbArc
 50
254.0
 51
328.0
  0
LINE
  5
2B8
330
1F
100
AcDbEntity
  8
0
  6
Continuous
 62
     7
370
    15
100
AcDbLine
 10
82.6221613539
 20
113.8701424247
 30
0.0
 11
83.0137069424
 21
114.4967463497
 31
0.0
  0
LINE
  5
2B9
330
1F
100
AcDbEntity
  8
0
  6
Continuous
 62
     7
370
    15
100
AcDbLine
 10
112.0273244443
 20
112.6593800386
 30
0.0
 11
110.0028799056
 21
113.3593800386
 31
0.0
  0
LINE
  5
2BA
330
1F
100
AcDbEntity
  8
0
  6
PHANTOM
 62
     8
370
     0
100
AcDbLine
 10
113.7650902633
 20
105.8593800386
 30
0.0
 11
113.5705885965
 21
111.429179032
 31
0.0
  0
ARC
  5
2BB
330
1F
100
AcDbEntity
  8
0
  6
PHANTOM
 62
     8
370
     0
100
AcDbCircle
 10
113.8204363033
 20
107.8445938683
 30
0.0
 40
3.593281880414619
100
AcDbArc
 50
86.0128986004
 51
93.9871013996
  0
LINE
  5
2BC
330
1F
100
AcDbEntity
  8
0
  6
PHANTOM
 62
     8
370
     0
100
AcDbLine
 10
113.5705885965
 20
111.429179032
 30
0.0
 11
112.07028401
 21
111.429179032
 31
0.0
  0
LINE
  5
2BD
330
1F
100
AcDbEntity
  8
0
  6
PHANTOM
 62
     8
370
     0
100
AcDbLine
 10
113.5705885965
 20
111.429179032
 30
0.0
 11
113.5200355182
 21
113.3593800386
 31
0.0
  0
LINE
  5
2BE
330
1F
100
AcDbEntity
  8
0
  6
PHANTOM
 62
     8
370
     0
100
AcDbLine
 10
109.6056319415
 20
111.3175816112
 30
0.0
 11
108.8976441837
 21
110.9088246886
 31
0.0
  0
LINE
  5
2BF
330
1F
100
AcDbEntity
  8
0
  6
PHANTOM
 62
     8
370
     0
100
AcDbLine
 10
112.0726773044
 20
111.3606440482
 30
0.0
 11
109.6056319415
 21
111.3175816112
 31
0.0
  0
LINE
  5
2C0
330
1F
100
AcDbEntity
  8
0
  6
PHANTOM
 62
     8
370
     0
100
AcDbLine
 10
108.8976441837
 20
106.3212602539
 30
0.0
 11
109.6976441837
 21
105.8593800386
 31
0.0
  0
LINE
  5
2C1
330
1F
100
AcDbEntity
  8
0
  6
PHANTOM
 62
     8
370
     0
100
AcDbLine
 10
108.8976441837
 20
110.9088246886
 30
0.0
 11
108.8976441837
 21
106.3212602539
 31
0.0
  0
ARC
  5
2C2
330
1F
100
AcDbEntity
  8
0
  6
PHANTOM
 62
     8
370
     0
100
AcDbCircle
 10
113.9038945023
 20
111.4675587654
 30
0.0
 40
4.300878304279751
100
AcDbArc
 50
178.0016173803
 51
181.9983826197
  0
ARC
  5
2C3
330
1F
100
AcDbEntity
  8
0
  6
PHANTOM
 62
     8
370
     0
100
AcDbCircle
 10
113.1105750999
 20
103.8035887249
 30
0.0
 40
4.90789739427375
100
AcDbArc
 50
149.1372200911
 51
152.6098539086
  0
ARC
  5
2C4
330
1F
100
AcDbEntity
  8
0
  6
PHANTOM
 62
     8
370
     0
100
AcDbCircle
 10
113.1105750999
 20
113.4264962176
 30
0.0
 40
4.90789739425519
100
AcDbArc
 50
207.3901460914
 51
210.8627799089
  0
ARC
  5
2C5
330
1F
100
AcDbEntity
  8
0
  6
PHANTOM
 62
     8
370
     0
100
AcDbCircle
 10
113.8185628577
 20
113.8352531401
 30
0.0
 40
4.907897394285617
100
AcDbArc
 50
207.3901460915
 51
210.8627799089
  0
LINE
  5
2C6
330
1F
100
AcDbEntity
  8
0
  6
PHANTOM
 62
     8
370
     0
100
AcDbLine
 10
108.8976441837
 20
106.3212602539
 30
0.0
 11
108.6028799056
 21
106.3212602539
 31
0.0
  0
LINE
  5
2C7
330
1F
100
AcDbEntity
  8
0
  6
PHANTOM
 62
     8
370
     0
100
AcDbLine
 10
108.8976441837
 20
110.9088246886
 30
0.0
 11
108.6028799056
 21
110.9088246886
 31
0.0
  0
SPLINE
  5
2C8
330
1F
100
AcDbEntity
  8
0
  6
PHANTOM
 62
     8
370
     0
100
AcDbSpline
210
0.0
220
0.0
230
1.0
 70
     8
 71
     3
 72
    20
 73
    16
 74
     0
 42
0.000000001
 43
0.00000001
 40
0.0
 40
0.0
 40
0.0
 40
0.0
 40
0.2500000000000027
 40
0.2500000000000027
 40
0.3750000000000022
 40
0.3750000000000022
 40
0.5000000000000018
 40
0.5000000000000018
 40
0.6250000000000013
 40
0.6250000000000013
 40
0.7500000000000009
 40
0.7500000000000009
 40
0.8750000000000006
 40
0.8750000000000006
 40
1.0
 40
1.0
 40
1.0
 40
1.0
 10
59.77931560910099
 20
121.8214089548306
 30
0.0
 10
59.3961939493682
 20
121.9336791152497
 30
0.0
 10
59.02095996718943
 20
122.0613020322931
 30
0.0
 10
58.51372414892353
 20
122.2574499035146
 30
0.0
 10
58.35079149129167
 20
122.3247846828618
 30
0.0
 10
58.05087296075676
 20
122.4569692688891
 30
0.0
 10
57.91402382867053
 20
122.521624916371
 30
0.0
 10
57.66565349717857
 20
122.6473390250377
 30
0.0
 10
57.55368287168737
 20
122.7087741521556
 30
0.0
 10
57.36454637206023
 20
122.8220596927007
 30
0.0
 10
57.28597067835367
 20
122.8745656420728
 30
0.0
 10
57.1609016173737
 20
122.9705796095793
 30
0.0
 10
57.11526449241701
 20
123.0136097913828
 30
0.0
 10
57.06002702788765
 20
123.0865619174014
 30
0.0
 10
57.04973214409966
 20
123.1169944453261
 30
0.0
 10
57.0575443234477
 20
123.1410378610952
 30
0.0
  0
LINE
  5
2C9
330
1F
100
AcDbEntity
  8
0
  6
PHANTOM
 62
     8
370
     0
100
AcDbLine
 10
59.7793156091
 20
121.8214089548
 30
0.0
 11
59.5824595855
 21
121.2155484118
 31
0.0
  0
ARC
  5
2CA
330
1F
100
AcDbEntity
  8
0
  6
PHANTOM
 62
     8
370
     0
100
AcDbCircle
 10
57.5289289689
 20
122.9847046078
 30
0.0
 40
0.4966322281510861
100
AcDbArc
 50
73.5984994356
 51
161.652058432
  0
SPLINE
  5
2CB
330
1F
100
AcDbEntity
  8
0
  6
PHANTOM
 62
     8
370
     0
100
AcDbSpline
210
0.0
220
0.0
230
1.0
 70
     8
 71
     3
 72
    20
 73
    16
 74
     0
 42
0.000000001
 43
0.00000001
 40
0.0
 40
0.0
 40
0.0
 40
0.0
 40
0.125
 40
0.125
 40
0.25
 40
0.25
 40
0.375
 40
0.375
 40
0.5
 40
0.5
 40
0.625
 40
0.625
 40
0.75
 40
0.75
 40
1.0
 40
1.0
 40
1.0
 40
1.0
 10
57.6691613131627
 20
123.46112717202
 30
0.0
 10
57.66095942652497
 20
123.4358332835986
 30
0.0
 10
57.66749785231186
 20
123.4052464958325
 30
0.0
 10
57.70885023050224
 20
123.3340535660003
 30
0.0
 10
57.74416038287887
 20
123.2930115438416
 30
0.0
 10
57.84279245960148
 20
123.2027478591667
 30
0.0
 10
57.90539933548025
 20
123.1540034589227
 30
0.0
 10
58.05737155510577
 20
123.0499241596257
 30
0.0
 10
58.14792489629397
 20
122.9939727192126
 30
0.0
 10
58.35046092900283
 20
122.8802473239463
 30
0.0
 10
58.46265733279071
 20
122.8221973503669
 30
0.0
 10
58.71000548526482
 20
122.7044580628431
 30
0.0
 10
58.84535066225885
 20
122.644832156119
 30
0.0
 10
59.26840692575945
 20
122.4729864503076
 30
0.0
 10
59.58423464757895
 20
122.3634804588648
 30
0.0
 10
59.90812121363729
 20
122.2706074805383
 30
0.0
  0
LINE
  5
2CC
330
1F
100
AcDbEntity
  8
0
  6
PHANTOM
 62
     8
370
     0
100
AcDbLine
 10
59.7793156091
 20
121.8214089548
 30
0.0
 11
59.9081212136
 21
122.2706074805
 31
0.0
  0
LINE
  5
2CD
330
1F
100
AcDbEntity
  8
0
  6
PHANTOM
 62
     8
370
     0
100
AcDbLine
 10
85.9803198204
 20
114.308391895
 30
0.0
 11
59.7793156091
 21
121.8214089548
 31
0.0
  0
LINE
  5
2CE
330
1F
100
AcDbEntity
  8
0
  6
PHANTOM
 62
     8
370
     0
100
AcDbLine
 10
85.80483491
 20
113.6964032839
 30
0.0
 11
85.9803198204
 21
114.308391895
 31
0.0
  0
ARC
  5
2CF
330
1F
100
AcDbEntity
  8
0
  6
PHANTOM
 62
     8
370
     0
100
AcDbCircle
 10
88.2028799056
 20
122.0593800386
 30
0.0
 40
8.063348593128495
100
AcDbArc
 50
254.0
 51
270.0
  0
LINE
  5
2D0
330
1F
100
AcDbEntity
  8
0
  6
PHANTOM
 62
     8
370
     0
100
AcDbLine
 10
88.2028799056
 20
113.9960314454
 30
0.0
 11
88.2028799056
 21
113.3593800386
 31
0.0
  0
LINE
  5
2D1
330
1F
100
AcDbEntity
  8
0
  6
PHANTOM
 62
     8
370
     0
100
AcDbLine
 10
113.4809521351
 20
113.9960314454
 30
0.0
 11
88.2028799056
 21
113.9960314454
 31
0.0
  0
LINE
  5
2D2
330
1F
100
AcDbEntity
  8
0
  6
PHANTOM
 62
     8
370
     0
100
AcDbLine
 10
113.5031844921
 20
113.3593800386
 30
0.0
 11
113.4809521351
 21
113.9960314454
 31
0.0
  0
ARC
  5
2D3
330
1F
100
AcDbEntity
  8
0
  6
PHANTOM
 62
     8
370
     0
100
AcDbCircle
 10
113.7307998418
 20
110.4114462818
 30
0.0
 40
3.593281880405505
100
AcDbArc
 50
86.0128986004
 51
93.9871013996
  0
LINE
  5
2D4
330
1F
100
AcDbEntity
  8
0
  6
PHANTOM
 62
     8
370
     0
100
AcDbLine
 10
59.9081212136
 20
122.2706074805
 30
0.0
 11
86.1091254249
 21
114.7575904207
 31
0.0
  0
LINE
  5
2D5
330
1F
100
AcDbEntity
  8
0
  6
PHANTOM
 62
     8
370
     0
100
AcDbLine
 10
86.1091254249
 20
114.7575904207
 30
0.0
 11
85.9803198204
 21
114.308391895
 31
0.0
  0
ARC
  5
2D6
330
1F
100
AcDbEntity
  8
0
  6
PHANTOM
 62
     8
370
     0
100
AcDbCircle
 10
88.2028799056
 20
122.0593800386
 30
0.0
 40
7.596047620244978
100
AcDbArc
 50
254.0
 51
270.0
  0
LINE
  5
2D7
330
1F
100
AcDbEntity
  8
0
  6
PHANTOM
 62
     8
370
     0
100
AcDbLine
 10
88.2028799056
 20
114.4633324183
 30
0.0
 11
88.2028799056
 21
113.9960314454
 31
0.0
  0
LINE
  5
2D8
330
1F
100
AcDbEntity
  8
0
  6
PHANTOM
 62
     8
370
     0
100
AcDbLine
 10
88.2028799056
 20
114.4633324183
 30
0.0
 11
113.4809521351
 21
114.4633324183
 31
0.0
  0
LINE
  5
2D9
330
1F
100
AcDbEntity
  8
0
  6
PHANTOM
 62
     8
370
     0
100
AcDbLine
 10
113.4809521351
 20
114.4633324183
 30
0.0
 11
113.4809521351
 21
113.9960314454
 31
0.0
  0
ARC
  5
2DA
330
1F
100
AcDbEntity
  8
0
  6
PHANTOM
 62
     8
370
     0
100
AcDbCircle
 10
113.4893247832
 20
113.9714672346
 30
0.0
 40
0.4919364392037904
100
AcDbArc
 50
2.8621810213
 51
90.975208436
  0
LINE
  5
2DB
330
1F
100
AcDbEntity
  8
0
  6
PHANTOM
 62
     8
370
     0
100
AcDbLine
 10
57.7829817442
 20
123.8121392513
 30
0.0
 11
57.6691613132
 21
123.461127172
 31
0.0
  0
LINE
  5
2DC
330
1F
100
AcDbEntity
  8
0
  6
PHANTOM
 62
     8
370
     0
100
AcDbLine
 10
86.1091254249
 20
114.7575904207
 30
0.0
 11
86.3561096217
 21
115.6189266758
 31
0.0
  0
LINE
  5
2DD
330
1F
100
AcDbEntity
  8
0
  6
PHANTOM
 62
     8
370
     0
100
AcDbLine
 10
88.2028799056
 20
115.3593800386
 30
0.0
 11
88.2028799056
 21
114.4633324183
 31
0.0
  0
LINE
  5
2DE
330
1F
100
AcDbEntity
  8
0
  6
PHANTOM
 62
     8
370
     0
100
AcDbLine
 10
113.4809521351
 20
114.4633324183
 30
0.0
 11
113.4501939792
 21
115.3593800386
 31
0.0
  0
LINE
  5
2DF
330
1F
100
AcDbEntity
  8
0
  6
PHANTOM
 62
     8
370
     0
100
AcDbLine
 10
73.7890637108
 20
115.0333381766
 30
0.0
 11
78.5919031411
 21
113.6561461314
 31
0.0
  0
LINE
  5
2E0
330
1F
100
AcDbEntity
  8
0
  6
PHANTOM
 62
     8
370
     0
100
AcDbLine
 10
73.7890637108
 20
116.8297804009
 30
0.0
 11
78.5919031411
 21
115.4525883557
 31
0.0
  0
LINE
  5
2E1
330
1F
100
AcDbEntity
  8
0
  6
PHANTOM
 62
     8
370
     0
100
AcDbLine
 10
81.4911835505
 20
114.933322907
 30
0.0
 11
81.4911835505
 21
114.3091432455
 31
0.0
  0
LINE
  5
2E2
330
1F
100
AcDbEntity
  8
0
  6
PHANTOM
 62
     8
370
     0
100
AcDbLine
 10
81.4911835505
 20
114.3091432455
 30
0.0
 11
81.0911835505
 21
114.3091432455
 31
0.0
  0
LINE
  5
2E3
330
1F
100
AcDbEntity
  8
0
  6
PHANTOM
 62
     8
370
     0
100
AcDbLine
 10
81.4911835505
 20
114.3091432455
 30
0.0
 11
81.3809286082
 21
113.9246385671
 31
0.0
  0
LINE
  5
2E4
330
1F
100
AcDbEntity
  8
0
  6
PHANTOM
 62
     8
370
     0
100
AcDbLine
 10
81.4911835505
 20
114.3091432455
 30
0.0
 11
82.2829421154
 21
114.0821101304
 31
0.0
  0
LINE
  5
2E5
330
1F
100
AcDbEntity
  8
0
  6
PHANTOM
 62
     8
370
     0
100
AcDbLine
 10
82.2829421154
 20
114.0821101304
 30
0.0
 11
82.1726871731
 21
113.697605452
 31
0.0
  0
LINE
  5
2E6
330
1F
100
AcDbEntity
  8
0
  6
PHANTOM
 62
     8
370
     0
100
AcDbLine
 10
82.2829421154
 20
114.0821101304
 30
0.0
 11
82.6137069424
 21
114.611444504
 31
0.0
  0
LINE
  5
2E7
330
1F
100
AcDbEntity
  8
0
  6
PHANTOM
 62
     8
370
     0
100
AcDbLine
 10
82.6221613539
 20
113.8701424247
 30
0.0
 11
82.2829421154
 21
114.0821101304
 31
0.0
  0
LINE
  5
2E8
330
1F
100
AcDbEntity
  8
0
  6
Continuous
 62
     7
370
    15
100
AcDbLine
 10
260.2529698693
 20
123.8121392513
 30
0.0
 11
231.6798419918
 21
115.6189266758
 31
0.0
  0
ARC
  5
2E9
330
1F
100
AcDbEntity
  8
0
  6
Continuous
 62
     7
370
    15
100
AcDbCircle
 10
229.8330717078
 20
122.0593800386
 30
0.0
 40
6.700000000000007
100
AcDbArc
 50
270.0
 51
286.0
  0
LINE
  5
2EA
330
1F
100
AcDbEntity
  8
0
  6
Continuous
 62
     7
370
    15
100
AcDbLine
 10
229.8330717078
 20
115.3593800386
 30
0.0
 11
204.5857576342
 21
115.3593800386
 31
0.0
  0
ARC
  5
2EB
330
1F
100
AcDbEntity
  8
0
  6
Continuous
 62
     7
370
    15
100
AcDbCircle
 10
204.5857576342
 20
114.8593800386
 30
0.0
 40
0.5000000000000087
100
AcDbArc
 50
90.5287004809
 51
178.0
  0
ARC
  5
2EC
330
1F
100
AcDbEntity
  8
0
  6
Continuous
 62
     7
370
    15
100
AcDbCircle
 10
260.3907885472
 20
123.3315084034
 30
0.0
 40
0.5000000000000421
100
AcDbArc
 50
18.0
 51
105.2918388592
  0
LINE
  5
2ED
330
1F
100
AcDbEntity
  8
0
  6
Continuous
 62
     7
370
    15
100
AcDbLine
 10
203.7711659367
 20
105.8593800386
 30
0.0
 11
203.9656676034
 21
111.429179032
 31
0.0
  0
LINE
  5
2EE
330
1F
100
AcDbEntity
  8
0
  6
Continuous
 62
     7
370
    15
100
AcDbLine
 10
204.2708613502
 20
105.8593800386
 30
0.0
 11
203.7711659367
 21
105.8593800386
 31
0.0
  0
LINE
  5
2EF
330
1F
100
AcDbEntity
  8
0
  6
Continuous
 62
     7
370
    15
100
AcDbLine
 10
205.7711659367
 20
105.8593800386
 30
0.0
 11
205.9656676034
 21
111.429179032
 31
0.0
  0
LINE
  5
2F0
330
1F
100
AcDbEntity
  8
0
  6
Continuous
 62
     7
370
    15
100
AcDbLine
 10
204.2708613502
 20
105.8593800386
 30
0.0
 11
205.7711659367
 21
105.8593800386
 31
0.0
  0
LINE
  5
2F1
330
1F
100
AcDbEntity
  8
0
  6
Continuous
 62
     7
370
    15
100
AcDbLine
 10
204.5159160952
 20
113.3593800386
 30
0.0
 11
206.0330717078
 21
113.3593800386
 31
0.0
  0
LINE
  5
2F2
330
1F
100
AcDbEntity
  8
0
  6
Continuous
 62
     7
370
    15
100
AcDbLine
 10
206.0330717078
 20
113.3593800386
 30
0.0
 11
205.9656676034
 21
111.429179032
 31
0.0
  0
LINE
  5
2F3
330
1F
100
AcDbEntity
  8
0
  6
Continuous
 62
     7
370
    15
100
AcDbLine
 10
203.9656676034
 20
111.429179032
 30
0.0
 11
204.0162206817
 21
112.8768297869
 31
0.0
  0
ARC
  5
2F4
330
1F
100
AcDbEntity
  8
0
  6
Continuous
 62
     7
370
    15
100
AcDbCircle
 10
204.5159160952
 20
112.8593800386
 30
0.0
 40
0.5
100
AcDbArc
 50
90.0
 51
178.0
  0
LINE
  5
2F5
330
1F
100
AcDbEntity
  8
0
  6
Continuous
 62
     7
370
    15
100
AcDbLine
 10
205.7711659367
 20
105.8593800386
 30
0.0
 11
208.3383074298
 21
105.8593800386
 31
0.0
  0
LINE
  5
2F6
330
1F
100
AcDbEntity
  8
0
  6
Continuous
 62
     7
370
    15
100
AcDbLine
 10
205.9737425634
 20
111.6604156326
 30
0.0
 11
208.430319672
 21
111.6175359197
 31
0.0
  0
LINE
  5
2F7
330
1F
100
AcDbEntity
  8
0
  6
Continuous
 62
     7
370
    15
100
AcDbLine
 10
209.2830717078
 20
106.0614526328
 30
0.0
 11
209.0026869501
 21
105.8995724174
 31
0.0
  0
ARC
  5
2F8
330
1F
100
AcDbEntity
  8
0
  6
Continuous
 62
     7
370
    15
100
AcDbCircle
 10
208.8526869501
 20
106.1593800386
 30
0.0
 40
0.2999999999999972
100
AcDbArc
 50
270.0
 51
300.0
  0
LINE
  5
2F9
330
1F
100
AcDbEntity
  8
0
  6
Continuous
 62
     7
370
    15
100
AcDbLine
 10
208.8526869501
 20
105.8593800386
 30
0.0
 11
208.3383074298
 21
105.8593800386
 31
0.0
  0
LINE
  5
2FA
330
1F
100
AcDbEntity
  8
0
  6
Continuous
 62
     7
370
    15
100
AcDbLine
 10
208.5750839501
 20
111.5773892323
 30
0.0
 11
209.2830717078
 21
111.1686323098
 31
0.0
  0
ARC
  5
2FB
330
1F
100
AcDbEntity
  8
0
  6
Continuous
 62
     7
370
    15
100
AcDbCircle
 10
208.4250839501
 20
111.3175816112
 30
0.0
 40
0.3000000000000201
100
AcDbArc
 50
60.0
 51
89.0
  0
LINE
  5
2FC
330
1F
100
AcDbEntity
  8
0
  6
Continuous
 62
     7
370
    15
100
AcDbLine
 10
209.4330717078
 20
110.9088246886
 30
0.0
 11
209.4330717078
 21
106.3212602539
 31
0.0
  0
ARC
  5
2FD
330
1F
100
AcDbEntity
  8
0
  6
Continuous
 62
     7
370
    15
100
AcDbCircle
 10
209.1330717078
 20
106.3212602539
 30
0.0
 40
0.3000000000000114
100
AcDbArc
 50
300.0
 51
0.0
  0
ARC
  5
2FE
330
1F
100
AcDbEntity
  8
0
  6
Continuous
 62
     7
370
    15
100
AcDbCircle
 10
209.1330717078
 20
110.9088246886
 30
0.0
 40
0.3000000000000114
100
AcDbArc
 50
0.0
 51
60.0
  0
LINE
  5
2FF
330
1F
100
AcDbEntity
  8
0
  6
Continuous
 62
     7
370
    15
100
AcDbLine
 10
260.97840729
 20
123.1410378611
 30
0.0
 11
261.2358881021
 21
122.3485934046
 31
0.0
  0
SPLINE
  5
300
330
1F
100
AcDbEntity
  8
0
  6
Continuous
 62
     7
370
    15
100
AcDbSpline
210
0.0
220
0.0
230
1.0
 70
     8
 71
     3
 72
    12
 73
     8
 74
     0
 42
0.000000001
 43
0.00000001
 40
0.0
 40
0.0
 40
0.0
 40
0.0
 40
0.5000000000000012
 40
0.5000000000000012
 40
0.7500000000000006
 40
0.7500000000000006
 40
1.0
 40
1.0
 40
1.0
 40
1.0
 10
260.8733750485213
 20
121.9094387020685
 30
0.0
 10
261.0072808611387
 20
122.0058419253146
 30
0.0
 10
261.104037668227
 20
122.0917802884346
 30
0.0
 10
261.1959957178972
 20
122.2035344429204
 30
0.0
 10
261.2175404283999
 20
122.2379334364343
 30
0.0
 10
261.2410914845218
 20
122.298844662771
 30
0.0
 10
261.2433538655484
 20
122.3256161473538
 30
0.0
 10
261.2358881021061
 20
122.3485934045924
 30
0.0
  0
LINE
  5
301
330
1F
100
AcDbEntity
  8
0
  6
Continuous
 62
     7
370
    15
100
AcDbLine
 10
260.8733750485
 20
121.9094387021
 30
0.0
 11
258.453492028
 21
121.2155484118
 31
0.0
  0
LINE
  5
302
330
1F
100
AcDbEntity
  8
0
  6
Continuous
 62
     7
370
    15
100
AcDbLine
 10
232.2311167034
 20
113.6964032839
 30
0.0
 11
258.453492028
 21
121.2155484118
 31
0.0
  0
ARC
  5
303
330
1F
100
AcDbEntity
  8
0
  6
Continuous
 62
     7
370
    15
100
AcDbCircle
 10
229.8330717078
 20
122.0593800386
 30
0.0
 40
8.700000000000006
100
AcDbArc
 50
270.0
 51
286.0
  0
LINE
  5
304
330
1F
100
AcDbEntity
  8
0
  6
Continuous
 62
     7
370
    15
100
AcDbLine
 10
229.8330717078
 20
113.3593800386
 30
0.0
 11
206.0330717078
 21
113.3593800386
 31
0.0
  0
LINE
  5
305
330
1F
100
AcDbEntity
  8
0
  6
Continuous
 62
     7
370
    15
100
AcDbLine
 10
204.0162206817
 20
112.8768297869
 30
0.0
 11
204.0553040649
 21
113.9960314454
 31
0.0
  0
LINE
  5
306
330
1F
100
AcDbEntity
  8
0
  6
Continuous
 62
     7
370
    15
100
AcDbLine
 10
204.0553040649
 20
113.9960314454
 30
0.0
 11
204.0860622207
 21
114.8768297869
 31
0.0
  0
LINE
  5
307
330
1F
100
AcDbEntity
  8
0
  6
Continuous
 62
     7
370
    15
100
AcDbLine
 10
260.8663168054
 20
123.4860169001
 30
0.0
 11
260.97840729
 21
123.1410378611
 31
0.0
  0
LINE
  5
308
330
1F
100
AcDbEntity
  8
0
  6
Continuous
 62
     7
370
    15
100
AcDbLine
 10
239.4440484724
 20
114.7243787506
 30
0.0
 11
239.4440484724
 21
113.6561461314
 31
0.0
  0
LINE
  5
309
330
1F
100
AcDbEntity
  8
0
  6
Continuous
 62
     7
370
    15
100
AcDbLine
 10
244.2468879027
 20
116.1015707958
 30
0.0
 11
239.4440484724
 21
114.7243787506
 31
0.0
  0
LINE
  5
30A
330
1F
100
AcDbEntity
  8
0
  6
Continuous
 62
     7
370
    15
100
AcDbLine
 10
244.2468879027
 20
115.0333381766
 30
0.0
 11
244.2468879027
 21
116.1015707958
 31
0.0
  0
LINE
  5
30B
330
1F
100
AcDbEntity
  8
0
  6
Continuous
 62
     7
370
    15
100
AcDbLine
 10
244.2468879027
 20
113.5008222061
 30
0.0
 11
239.4440484724
 21
112.1236301609
 31
0.0
  0
LINE
  5
30C
330
1F
100
AcDbEntity
  8
0
  6
Continuous
 62
     7
370
    15
100
AcDbLine
 10
239.4440484724
 20
113.6561461314
 30
0.0
 11
239.4440484724
 21
112.1236301609
 31
0.0
  0
LINE
  5
30D
330
1F
100
AcDbEntity
  8
0
  6
Continuous
 62
     7
370
    15
100
AcDbLine
 10
244.2468879027
 20
113.5008222061
 30
0.0
 11
244.2468879027
 21
115.0333381766
 31
0.0
  0
LINE
  5
30E
330
1F
100
AcDbEntity
  8
0
  6
Continuous
 62
     7
370
    15
100
AcDbLine
 10
239.4440484724
 20
115.7646781864
 30
0.0
 11
239.4440484724
 21
115.4525883557
 31
0.0
  0
LINE
  5
30F
330
1F
100
AcDbEntity
  8
0
  6
Continuous
 62
     7
370
    15
100
AcDbLine
 10
244.2468879027
 20
116.8297804009
 30
0.0
 11
244.2468879027
 21
117.1418702316
 31
0.0
  0
LINE
  5
310
330
1F
100
AcDbEntity
  8
0
  6
Continuous
 62
     7
370
    15
100
AcDbLine
 10
239.4440484724
 20
115.4525883557
 30
0.0
 11
239.4440484724
 21
114.7243787506
 31
0.0
  0
LINE
  5
311
330
1F
100
AcDbEntity
  8
0
  6
Continuous
 62
     7
370
    15
100
AcDbLine
 10
244.2468879027
 20
116.1015707958
 30
0.0
 11
244.2468879027
 21
116.8297804009
 31
0.0
  0
LINE
  5
312
330
1F
100
AcDbEntity
  8
0
  6
Continuous
 62
     7
370
    15
100
AcDbLine
 10
236.944768063
 20
115.0480210613
 30
0.0
 11
236.944768063
 21
114.3091432455
 31
0.0
  0
ARC
  5
313
330
1F
100
AcDbEntity
  8
0
  6
Continuous
 62
     7
370
    15
100
AcDbCircle
 10
236.544768063
 20
114.3091432455
 30
0.0
 40
0.3999999999999959
100
AcDbArc
 50
286.0
 51
0.0
  0
LINE
  5
314
330
1F
100
AcDbEntity
  8
0
  6
Continuous
 62
     7
370
    15
100
AcDbLine
 10
236.6550230053
 20
113.9246385671
 30
0.0
 11
235.8632644404
 21
113.697605452
 31
0.0
  0
ARC
  5
315
330
1F
100
AcDbEntity
  8
0
  6
Continuous
 62
     7
370
    15
100
AcDbCircle
 10
235.7530094981
 20
114.0821101304
 30
0.0
 40
0.4000000000000096
100
AcDbArc
 50
212.0
 51
286.0
  0
LINE
  5
316
330
1F
100
AcDbEntity
  8
0
  6
Continuous
 62
     7
370
    15
100
AcDbLine
 10
235.4137902596
 20
113.8701424247
 30
0.0
 11
235.0222446711
 21
114.4967463497
 31
0.0
  0
LINE
  5
317
330
1F
100
AcDbEntity
  8
0
  6
Continuous
 62
     7
370
    15
100
AcDbLine
 10
206.0086271692
 20
112.6593800386
 30
0.0
 11
208.0330717078
 21
113.3593800386
 31
0.0
  0
ARC
  5
318
330
1F
100
AcDbEntity
  8
0
  6
PHANTOM
 62
     8
370
     0
100
AcDbCircle
 10
204.2155153102
 20
107.8445938683
 30
0.0
 40
3.593281880413655
100
AcDbArc
 50
86.0128986004
 51
93.9871013996
  0
LINE
  5
319
330
1F
100
AcDbEntity
  8
0
  6
PHANTOM
 62
     8
370
     0
100
AcDbLine
 10
204.4653630169
 20
111.429179032
 30
0.0
 11
204.2708613502
 21
105.8593800386
 31
0.0
  0
LINE
  5
31A
330
1F
100
AcDbEntity
  8
0
  6
PHANTOM
 62
     8
370
     0
100
AcDbLine
 10
205.9656676034
 20
111.429179032
 30
0.0
 11
204.4653630169
 21
111.429179032
 31
0.0
  0
LINE
  5
31B
330
1F
100
AcDbEntity
  8
0
  6
PHANTOM
 62
     8
370
     0
100
AcDbLine
 10
204.5159160952
 20
113.3593800386
 30
0.0
 11
204.4653630169
 21
111.429179032
 31
0.0
  0
LINE
  5
31C
330
1F
100
AcDbEntity
  8
0
  6
PHANTOM
 62
     8
370
     0
100
AcDbLine
 10
208.430319672
 20
111.3175816112
 30
0.0
 11
205.963274309
 21
111.3606440482
 31
0.0
  0
LINE
  5
31D
330
1F
100
AcDbEntity
  8
0
  6
PHANTOM
 62
     8
370
     0
100
AcDbLine
 10
209.1383074298
 20
110.9088246886
 30
0.0
 11
208.430319672
 21
111.3175816112
 31
0.0
  0
LINE
  5
31E
330
1F
100
AcDbEntity
  8
0
  6
PHANTOM
 62
     8
370
     0
100
AcDbLine
 10
209.1383074298
 20
106.3212602539
 30
0.0
 11
209.1383074298
 21
110.9088246886
 31
0.0
  0
LINE
  5
31F
330
1F
100
AcDbEntity
  8
0
  6
PHANTOM
 62
     8
370
     0
100
AcDbLine
 10
208.3383074298
 20
105.8593800386
 30
0.0
 11
209.1383074298
 21
106.3212602539
 31
0.0
  0
ARC
  5
320
330
1F
100
AcDbEntity
  8
0
  6
PHANTOM
 62
     8
370
     0
100
AcDbCircle
 10
204.1320571112
 20
111.4675587654
 30
0.0
 40
4.300878304279437
100
AcDbArc
 50
358.0016173803
 51
1.9983826197
  0
ARC
  5
321
330
1F
100
AcDbEntity
  8
0
  6
PHANTOM
 62
     8
370
     0
100
AcDbCircle
 10
204.9253765136
 20
103.803588725
 30
0.0
 40
4.907897394258101
100
AcDbArc
 50
27.3901460914
 51
30.8627799089
  0
ARC
  5
322
330
1F
100
AcDbEntity
  8
0
  6
PHANTOM
 62
     8
370
     0
100
AcDbCircle
 10
204.9253765136
 20
113.4264962176
 30
0.0
 40
4.90789739423952
100
AcDbArc
 50
329.1372200911
 51
332.6098539086
  0
ARC
  5
323
330
1F
100
AcDbEntity
  8
0
  6
PHANTOM
 62
     8
370
     0
100
AcDbCircle
 10
204.2173887558
 20
113.8352531401
 30
0.0
 40
4.907897394279851
100
AcDbArc
 50
329.1372200911
 51
332.6098539086
  0
LINE
  5
324
330
1F
100
AcDbEntity
  8
0
  6
PHANTOM
 62
     8
370
     0
100
AcDbLine
 10
209.4330717078
 20
106.3212602539
 30
0.0
 11
209.1383074298
 21
106.3212602539
 31
0.0
  0
LINE
  5
325
330
1F
100
AcDbEntity
  8
0
  6
PHANTOM
 62
     8
370
     0
100
AcDbLine
 10
209.4330717078
 20
110.9088246886
 30
0.0
 11
209.1383074298
 21
110.9088246886
 31
0.0
  0
LINE
  5
326
330
1F
100
AcDbEntity
  8
0
  6
PHANTOM
 62
     8
370
     0
100
AcDbLine
 10
258.453492028
 20
121.2155484118
 30
0.0
 11
258.2566360044
 21
121.8214089548
 31
0.0
  0
SPLINE
  5
327
330
1F
100
AcDbEntity
  8
0
  6
PHANTOM
 62
     8
370
     0
100
AcDbSpline
210
0.0
220
0.0
230
1.0
 70
     8
 71
     3
 72
    20
 73
    16
 74
     0
 42
0.000000001
 43
0.00000001
 40
0.0
 40
0.0
 40
0.0
 40
0.0
 40
0.1249999999999998
 40
0.1249999999999998
 40
0.2499999999999997
 40
0.2499999999999997
 40
0.4999999999999998
 40
0.4999999999999998
 40
0.6249999999999998
 40
0.6249999999999998
 40
0.7499999999999999
 40
0.7499999999999999
 40
0.8749999999999999
 40
0.8749999999999999
 40
1.0
 40
1.0
 40
1.0
 40
1.0
 10
260.9784072900179
 20
123.1410378610952
 30
0.0
 10
260.9862153888139
 20
123.1170070039737
 30
0.0
 10
260.9759657565082
 20
123.086490404966
 30
0.0
 10
260.9200331256211
 20
123.0128733365376
 30
0.0
 10
260.8739648708327
 20
122.969680742037
 30
0.0
 10
260.687238341141
 20
122.8265318584175
 30
0.0
 10
260.4930149778609
 20
122.7093929500457
 30
0.0
 10
260.1208562231078
 20
122.5211127270652
 30
0.0
 10
259.9811985361989
 20
122.4551812357262
 30
0.0
 10
259.6809270054667
 20
122.3229990659848
 30
0.0
 10
259.52098113387
 20
122.2569323103803
 30
0.0
 10
259.181047810661
 20
122.1255519671588
 30
0.0
 10
259.0006231613618
 20
122.0602064901655
 30
0.0
 10
258.6350972064138
 20
121.9365734122289
 30
0.0
 10
258.4480899503082
 20
121.8775127137226
 30
0.0
 10
258.2566360043647
 20
121.8214089548306
 30
0.0
  0
LINE
  5
328
330
1F
100
AcDbEntity
  8
0
  6
PHANTOM
 62
     8
370
     0
100
AcDbLine
 10
258.2566360044
 20
121.8214089548
 30
0.0
 11
258.1278303998
 21
122.2706074805
 31
0.0
  0
SPLINE
  5
329
330
1F
100
AcDbEntity
  8
0
  6
PHANTOM
 62
     8
370
     0
100
AcDbSpline
210
0.0
220
0.0
230
1.0
 70
     8
 71
     3
 72
    20
 73
    16
 74
     0
 42
0.000000001
 43
0.00000001
 40
0.0
 40
0.0
 40
0.0
 40
0.0
 40
0.1250000000000009
 40
0.1250000000000009
 40
0.2500000000000018
 40
0.2500000000000018
 40
0.3750000000000028
 40
0.3750000000000028
 40
0.5000000000000037
 40
0.5000000000000037
 40
0.7500000000000018
 40
0.7500000000000018
 40
0.875000000000001
 40
0.875000000000001
 40
1.0
 40
1.0
 40
1.0
 40
1.0
 10
258.1278303998282
 20
122.2706074805383
 30
0.0
 10
258.2896888579111
 20
122.3170196465396
 30
0.0
 10
258.4473517074201
 20
122.3667872886591
 30
0.0
 10
258.754708501607
 20
122.4725631060988
 30
0.0
 10
258.9060568259316
 20
122.5292891987419
 30
0.0
 10
259.1895141745414
 20
122.6443521630883
 30
0.0
 10
259.3222193342268
 20
122.7027716246898
 30
0.0
 10
259.5701947513792
 20
122.8206367938022
 30
0.0
 10
259.6846191443252
 20
122.879791663845
 30
0.0
 10
259.9879735361911
 20
123.0500266322511
 30
0.0
 10
260.1436499818026
 20
123.1575880586263
 30
0.0
 10
260.290928247216
 20
123.2921481108511
 30
0.0
 10
260.3266231930574
 20
123.3333708233443
 30
0.0
 10
260.3684903749519
 20
123.405170491681
 30
0.0
 10
260.3749886401204
 20
123.4358442216761
 30
0.0
 10
260.3667903003029
 20
123.46112717202
 30
0.0
  0
ARC
  5
32A
330
1F
100
AcDbEntity
  8
0
  6
PHANTOM
 62
     8
370
     0
100
AcDbCircle
 10
260.5070226446
 20
122.9847046078
 30
0.0
 40
0.4966322281511376
100
AcDbArc
 50
18.347941568
 51
106.4015005644
  0
LINE
  5
32B
330
1F
100
AcDbEntity
  8
0
  6
PHANTOM
 62
     8
370
     0
100
AcDbLine
 10
232.0556317931
 20
114.308391895
 30
0.0
 11
232.2311167034
 21
113.6964032839
 31
0.0
  0
LINE
  5
32C
330
1F
100
AcDbEntity
  8
0
  6
PHANTOM
 62
     8
370
     0
100
AcDbLine
 10
258.2566360044
 20
121.8214089548
 30
0.0
 11
232.0556317931
 21
114.308391895
 31
0.0
  0
LINE
  5
32D
330
1F
100
AcDbEntity
  8
0
  6
PHANTOM
 62
     8
370
     0
100
AcDbLine
 10
229.8330717078
 20
113.3593800386
 30
0.0
 11
229.8330717078
 21
113.9960314454
 31
0.0
  0
ARC
  5
32E
330
1F
100
AcDbEntity
  8
0
  6
PHANTOM
 62
     8
370
     0
100
AcDbCircle
 10
229.8330717078
 20
122.0593800386
 30
0.0
 40
8.063348593128499
100
AcDbArc
 50
270.0
 51
286.0
  0
LINE
  5
32F
330
1F
100
AcDbEntity
  8
0
  6
PHANTOM
 62
     8
370
     0
100
AcDbLine
 10
204.5549994784
 20
113.9960314454
 30
0.0
 11
204.5327671213
 21
113.3593800386
 31
0.0
  0
LINE
  5
330
330
1F
100
AcDbEntity
  8
0
  6
PHANTOM
 62
     8
370
     0
100
AcDbLine
 10
229.8330717078
 20
113.9960314454
 30
0.0
 11
204.5549994784
 21
113.9960314454
 31
0.0
  0
ARC
  5
331
330
1F
100
AcDbEntity
  8
0
  6
PHANTOM
 62
     8
370
     0
100
AcDbCircle
 10
204.3051517716
 20
110.4114462818
 30
0.0
 40
3.593281880409212
100
AcDbArc
 50
86.0128986004
 51
93.9871013996
  0
LINE
  5
332
330
1F
100
AcDbEntity
  8
0
  6
PHANTOM
 62
     8
370
     0
100
AcDbLine
 10
232.0556317931
 20
114.308391895
 30
0.0
 11
231.9268261885
 21
114.7575904207
 31
0.0
  0
LINE
  5
333
330
1F
100
AcDbEntity
  8
0
  6
PHANTOM
 62
     8
370
     0
100
AcDbLine
 10
231.9268261885
 20
114.7575904207
 30
0.0
 11
258.1278303998
 21
122.2706074805
 31
0.0
  0
LINE
  5
334
330
1F
100
AcDbEntity
  8
0
  6
PHANTOM
 62
     8
370
     0
100
AcDbLine
 10
229.8330717078
 20
113.9960314454
 30
0.0
 11
229.8330717078
 21
114.4633324183
 31
0.0
  0
ARC
  5
335
330
1F
100
AcDbEntity
  8
0
  6
PHANTOM
 62
     8
370
     0
100
AcDbCircle
 10
229.8330717078
 20
122.0593800386
 30
0.0
 40
7.596047620244974
100
AcDbArc
 50
270.0
 51
286.0
  0
LINE
  5
336
330
1F
100
AcDbEntity
  8
0
  6
PHANTOM
 62
     8
370
     0
100
AcDbLine
 10
204.5549994784
 20
114.4633324183
 30
0.0
 11
204.5549994784
 21
113.9960314454
 31
0.0
  0
LINE
  5
337
330
1F
100
AcDbEntity
  8
0
  6
PHANTOM
 62
     8
370
     0
100
AcDbLine
 10
204.5549994784
 20
114.4633324183
 30
0.0
 11
229.8330717078
 21
114.4633324183
 31
0.0
  0
ARC
  5
338
330
1F
100
AcDbEntity
  8
0
  6
PHANTOM
 62
     8
370
     0
100
AcDbCircle
 10
204.5466268302
 20
113.9714672346
 30
0.0
 40
0.4919364392037902
100
AcDbArc
 50
89.024791564
 51
177.1378189787
  0
LINE
  5
339
330
1F
100
AcDbEntity
  8
0
  6
PHANTOM
 62
     8
370
     0
100
AcDbLine
 10
260.3667903003
 20
123.461127172
 30
0.0
 11
260.2529698693
 21
123.8121392513
 31
0.0
  0
LINE
  5
33A
330
1F
100
AcDbEntity
  8
0
  6
PHANTOM
 62
     8
370
     0
100
AcDbLine
 10
231.6798419918
 20
115.6189266758
 30
0.0
 11
231.9268261885
 21
114.7575904207
 31
0.0
  0
LINE
  5
33B
330
1F
100
AcDbEntity
  8
0
  6
PHANTOM
 62
     8
370
     0
100
AcDbLine
 10
229.8330717078
 20
114.4633324183
 30
0.0
 11
229.8330717078
 21
115.3593800386
 31
0.0
  0
LINE
  5
33C
330
1F
100
AcDbEntity
  8
0
  6
PHANTOM
 62
     8
370
     0
100
AcDbLine
 10
204.5857576342
 20
115.3593800386
 30
0.0
 11
204.5549994784
 21
114.4633324183
 31
0.0
  0
LINE
  5
33D
330
1F
100
AcDbEntity
  8
0
  6
PHANTOM
 62
     8
370
     0
100
AcDbLine
 10
244.2468879027
 20
115.0333381766
 30
0.0
 11
239.4440484724
 21
113.6561461314
 31
0.0
  0
LINE
  5
33E
330
1F
100
AcDbEntity
  8
0
  6
PHANTOM
 62
     8
370
     0
100
AcDbLine
 10
244.2468879027
 20
116.8297804009
 30
0.0
 11
239.4440484724
 21
115.4525883557
 31
0.0
  0
LINE
  5
33F
330
1F
100
AcDbEntity
  8
0
  6
PHANTOM
 62
     8
370
     0
100
AcDbLine
 10
236.544768063
 20
114.3091432455
 30
0.0
 11
236.544768063
 21
114.933322907
 31
0.0
  0
LINE
  5
340
330
1F
100
AcDbEntity
  8
0
  6
PHANTOM
 62
     8
370
     0
100
AcDbLine
 10
236.944768063
 20
114.3091432455
 30
0.0
 11
236.544768063
 21
114.3091432455
 31
0.0
  0
LINE
  5
341
330
1F
100
AcDbEntity
  8
0
  6
PHANTOM
 62
     8
370
     0
100
AcDbLine
 10
236.6550230053
 20
113.9246385671
 30
0.0
 11
236.544768063
 21
114.3091432455
 31
0.0
  0
LINE
  5
342
330
1F
100
AcDbEntity
  8
0
  6
PHANTOM
 62
     8
370
     0
100
AcDbLine
 10
235.8632644404
 20
113.697605452
 30
0.0
 11
235.7530094981
 21
114.0821101304
 31
0.0
  0
LINE
  5
343
330
1F
100
AcDbEntity
  8
0
  6
PHANTOM
 62
     8
370
     0
100
AcDbLine
 10
235.7530094981
 20
114.0821101304
 30
0.0
 11
236.544768063
 21
114.3091432455
 31
0.0
  0
LINE
  5
344
330
1F
100
AcDbEntity
  8
0
  6
PHANTOM
 62
     8
370
     0
100
AcDbLine
 10
235.4222446711
 20
114.611444504
 30
0.0
 11
235.7530094981
 21
114.0821101304
 31
0.0
  0
LINE
  5
345
330
1F
100
AcDbEntity
  8
0
  6
PHANTOM
 62
     8
370
     0
100
AcDbLine
 10
235.7530094981
 20
114.0821101304
 30
0.0
 11
235.4137902596
 21
113.8701424247
 31
0.0
  0
SPLINE
  5
346
330
1F
100
AcDbEntity
  8
0
  6
Continuous
 62
     7
370
    15
100
AcDbSpline
210
0.0
220
0.0
230
1.0
 70
     8
 71
     3
 72
    20
 73
    16
 74
     0
 42
0.000000001
 43
0.00000001
 40
0.0
 40
0.0
 40
0.0
 40
0.0
 40
0.0375788951187096
 40
0.0961449410009033
 40
0.1602635892748876
 40
0.2349378551752618
 40
0.3259147485640414
 40
0.426737790784008
 40
0.5261764354278958
 40
0.6219969950189261
 40
0.716526832538176
 40
0.8112039532515348
 40
0.9049641886636416
 40
0.9993343435001484
 40
1.0
 40
1.0
 40
1.0
 40
1.0
 10
315.8001614706794
 20
121.8322921450414
 30
0.0
 10
315.7988087773142
 20
121.8720958062032
 30
0.0
 10
315.7953479351744
 20
121.9739327719235
 30
0.0
 10
315.7379764074922
 20
122.1231950151789
 30
0.0
 10
315.6436651520249
 20
122.2835655425206
 30
0.0
 10
315.5042734619981
 20
122.4413568981899
 30
0.0
 10
315.3115638454483
 20
122.6049584845534
 30
0.0
 10
315.0560305168858
 20
122.7715990744366
 30
0.0
 10
314.7533549381017
 20
122.9303667022847
 30
0.0
 10
314.4177056893286
 20
123.0752419614889
 30
0.0
 10
314.0568887896336
 20
123.2041145077582
 30
0.0
 10
313.6744645082859
 20
123.3173051871248
 30
0.0
 10
313.2756937825391
 20
123.4088576344743
 30
0.0
 10
313.0030665074987
 20
123.4635449580238
 30
0.0
 10
312.8661572407108
 20
123.4806492594243
 30
0.0
 10
312.8651982912154
 20
123.4807690625727
 30
0.0
  0
SPLINE
  5
347
330
1F
100
AcDbEntity
  8
0
  6
Continuous
 62
     7
370
    15
100
AcDbSpline
210
0.0
220
0.0
230
1.0
 70
     8
 71
     3
 72
    20
 73
    16
 74
     0
 42
0.000000001
 43
0.00000001
 40
0.0
 40
0.0
 40
0.0
 40
0.0
 40
0.0253481788879292
 40
0.118343357700621
 40
0.2113609847840431
 40
0.3044010085976673
 40
0.3982261250209654
 40
0.4921238456804829
 40
0.5871488133726566
 40
0.6853353962508727
 40
0.786862681199314
 40
0.8634862910988474
 40
0.9276289096992633
 40
0.9863157788731124
 40
1.0
 40
1.0
 40
1.0
 40
1.0
 10
303.5918955684556
 20
123.4786154246364
 30
0.0
 10
303.5549944963041
 20
123.4736577793424
 30
0.0
 10
303.3827140022907
 20
123.4505119591645
 30
0.0
 10
303.0764010239664
 20
123.3870855643249
 30
0.0
 10
302.6829229813011
 20
123.2898830860683
 30
0.0
 10
302.3069061962423
 20
123.1730913183015
 30
0.0
 10
301.9550219258829
 20
123.041295676681
 30
0.0
 10
301.6339647907533
 20
122.896154859417
 30
0.0
 10
301.3454622009443
 20
122.7383913984815
 30
0.0
 10
301.0946539360937
 20
122.5668649276234
 30
0.0
 10
300.9010621863997
 20
122.3914096139708
 30
0.0
 10
300.7639509258427
 20
122.2123549352682
 30
0.0
 10
300.6850898044461
 20
122.0374177699363
 30
0.0
 10
300.646400619756
 20
121.8984459539393
 30
0.0
 10
300.6537234902773
 20
121.8203524629599
 30
0.0
 10
300.6551081285228
 20
121.8055862269575
 30
0.0
  0
SPLINE
  5
348
330
1F
100
AcDbEntity
  8
0
  6
Continuous
 62
     7
370
    15
100
AcDbSpline
210
0.0
220
0.0
230
1.0
 70
     8
 71
     3
 72
    15
 73
    11
 74
     0
 42
0.000000001
 43
0.00000001
 40
0.0
 40
0.0
 40
0.0
 40
0.0
 40
0.0741232847401884
 40
0.2139460201959476
 40
0.3537770134466465
 40
0.4936086812633756
 40
0.6334410644781163
 40
0.7732741977708608
 40
0.9131081095027315
 40
1.0
 40
1.0
 40
1.0
 40
1.0
 10
312.8652776399163
 20
123.4808355152718
 30
0.0
 10
312.637828495688
 20
123.5138847841371
 30
0.0
 10
311.9813298073856
 20
123.6092766649596
 30
0.0
 10
310.8895257947451
 20
123.725232320386
 30
0.0
 10
309.5902152805736
 20
123.8107452692769
 30
0.0
 10
308.2880757134406
 20
123.8405447903085
 30
0.0
 10
306.9858098660364
 20
123.8157815070555
 30
0.0
 10
305.6861135616771
 20
123.7352224901135
 30
0.0
 10
304.554327124497
 20
123.6196310982002
 30
0.0
 10
303.8584809935895
 20
123.5192906498928
 30
0.0
 10
303.5918003369756
 20
123.4808355152718
 30
0.0
  0
LINE
  5
349
330
1F
100
AcDbEntity
  8
0
  6
Continuous
 62
     7
370
    15
100
AcDbLine
 10
312.3285389884
 20
114.0036381594
 30
0.0
 11
312.3285389884
 21
115.3808302046
 31
0.0
  0
LINE
  5
34A
330
1F
100
AcDbEntity
  8
0
  6
Continuous
 62
     7
370
    15
100
AcDbLine
 10
304.1285389884
 20
115.3808302046
 30
0.0
 11
304.1285389884
 21
114.0036381594
 31
0.0
  0
ARC
  5
34B
330
1F
100
AcDbEntity
  8
0
  6
Continuous
 62
     7
370
    15
100
AcDbCircle
 10
308.2285389884
 20
114.0821101304
 30
0.0
 40
0.4000000000000341
100
AcDbArc
 50
270.0
 51
0.0
  0
ARC
  5
34C
330
1F
100
AcDbEntity
  8
0
  6
Continuous
 62
     7
370
    15
100
AcDbCircle
 10
308.2285389884
 20
114.0821101304
 30
0.0
 40
0.3999999999999915
100
AcDbArc
 50
180.0
 51
270.0
  0
LINE
  5
34D
330
1F
100
AcDbEntity
  8
0
  6
Continuous
 62
     7
370
    15
100
AcDbLine
 10
315.8063066314
 20
121.8214089548
 30
0.0
 11
315.8285389884
 21
121.2155484118
 31
0.0
  0
ELLIPSE
  5
34E
330
1F
100
AcDbEntity
  8
0
  6
Continuous
 62
     7
370
    15
100
AcDbEllipse
 10
312.8267103555
 20
121.2145406398
 30
0.0
 11
3.001828617843614
 21
0.001090633830827414
 31
0.0
210
0.0
220
0.0
230
1.0
 40
0.2756371177
 41
6.283085161833949
 42
7.278857638395468
  0
SPLINE
  5
34F
330
1F
100
AcDbEntity
  8
0
  6
Continuous
 62
     7
370
    15
100
AcDbSpline
210
0.0
220
0.0
230
1.0
 70
     8
 71
     3
 72
    12
 73
     8
 74
     0
 42
0.000000001
 43
0.00000001
 40
0.0
 40
0.0
 40
0.0
 40
0.0
 40
0.4999999999999996
 40
0.4999999999999996
 40
0.7499999999999998
 40
0.7499999999999998
 40
1.0
 40
1.0
 40
1.0
 40
1.0
 10
312.8191143211685
 20
122.3485934045924
 30
0.0
 10
313.1105381993498
 20
122.3026367255735
 30
0.0
 10
313.3945004946226
 20
122.2420422659821
 30
0.0
 10
313.8097242105537
 20
122.1305319050708
 30
0.0
 10
313.94663606319
 20
122.0897254909272
 30
0.0
 10
314.2097030736486
 20
122.0033874885474
 30
0.0
 10
314.3367612401649
 20
121.9576384196391
 30
0.0
 10
314.4592692827212
 20
121.9094387020685
 30
0.0
  0
SPLINE
  5
350
330
1F
100
AcDbEntity
  8
0
  6
Continuous
 62
     7
370
    15
100
AcDbSpline
210
0.0
220
0.0
230
1.0
 70
     8
 71
     3
 72
    12
 73
     8
 74
     0
 42
0.000000001
 43
0.00000001
 40
0.0
 40
0.0
 40
0.0
 40
0.0
 40
0.5000000000000012
 40
0.5000000000000012
 40
0.7500000000000006
 40
0.7500000000000006
 40
1.0
 40
1.0
 40
1.0
 40
1.0
 10
301.9978086941707
 20
121.9094387020685
 30
0.0
 10
302.2428344074169
 20
122.0058419253146
 30
0.0
 10
302.503817230311
 20
122.0917802884346
 30
0.0
 10
302.9188190911793
 20
122.2035344429204
 30
0.0
 10
303.061563605465
 20
122.2379334364343
 30
0.0
 10
303.3478511401111
 20
122.298844662771
 30
0.0
 10
303.4922585796081
 20
122.3256161473538
 30
0.0
 10
303.6379636557234
 20
122.3485934045924
 30
0.0
  0
ELLIPSE
  5
351
330
1F
100
AcDbEntity
  8
0
  6
Continuous
 62
     7
370
    15
100
AcDbEllipse
 10
308.2285389884
 20
95.9861568413
 30
0.0
 11
28.08000000000004
 21
0.0
 31
0.0
210
0.0
220
0.0
230
1.0
 40
0.9516362274
 41
1.406577185616434
 42
1.735015467973355
  0
LINE
  5
352
330
1F
100
AcDbEntity
  8
0
  6
Continuous
 62
     7
370
    15
100
AcDbLine
 10
314.4592692827
 20
121.8214468622
 30
0.0
 11
314.4592692827
 21
121.9094387021
 31
0.0
  0
ARC
  5
353
330
1F
100
AcDbEntity
  8
0
  6
Continuous
 62
     7
370
    15
100
AcDbCircle
 10
308.2285389884
 20
93.3162078794
 30
0.0
 40
29.17825645007188
100
AcDbArc
 50
77.6701027193
 51
102.3298972807
  0
LINE
  5
354
330
1F
100
AcDbEntity
  8
0
  6
Continuous
 62
     7
370
    15
100
AcDbLine
 10
301.9978086942
 20
121.8214468622
 30
0.0
 11
301.9978086942
 21
121.9094387021
 31
0.0
  0
LINE
  5
355
330
1F
100
AcDbEntity
  8
0
  6
Continuous
 62
     7
370
    15
100
AcDbLine
 10
300.6285389884
 20
121.2155484118
 30
0.0
 11
300.6507713455
 21
121.8214089548
 31
0.0
  0
ELLIPSE
  5
356
330
1F
100
AcDbEntity
  8
0
  6
Continuous
 62
     7
370
    15
100
AcDbEllipse
 10
303.6303676213
 20
121.2145406398
 30
0.0
 11
3.001828617843671
 21
-0.001090633830827414
 31
0.0
210
0.0
220
0.0
230
1.0
 40
0.2756371177
 41
2.145920322373903
 42
3.141692798935534
  0
LINE
  5
357
330
1F
100
AcDbEntity
  8
0
  6
Continuous
 62
     7
370
    15
100
AcDbLine
 10
300.6285389884
 20
113.6964032839
 30
0.0
 11
300.6285389884
 21
121.2155484118
 31
0.0
  0
SPLINE
  5
358
330
1F
100
AcDbEntity
  8
0
  6
Continuous
 62
     7
370
    15
100
AcDbSpline
210
0.0
220
0.0
230
1.0
 70
     8
 71
     3
 72
     9
 73
     5
 74
     0
 42
0.000000001
 43
0.00000001
 40
0.0
 40
0.0
 40
0.0
 40
0.0
 40
0.5
 40
1.0
 40
1.0
 40
1.0
 40
1.0
 10
301.9978086941707
 20
121.8214468621523
 30
0.0
 10
304.0747187922624
 20
121.7840910898209
 30
0.0
 10
308.2285389884459
 20
121.7481497985911
 30
0.0
 10
312.3823591846295
 20
121.7840910898209
 30
0.0
 10
314.4592692827212
 20
121.8214468621523
 30
0.0
  0
LINE
  5
359
330
1F
100
AcDbEntity
  8
0
  6
Continuous
 62
     7
370
    15
100
AcDbLine
 10
315.8285389884
 20
113.6964032839
 30
0.0
 11
315.8285389884
 21
121.2155484118
 31
0.0
  0
LINE
  5
35A
330
1F
100
AcDbEntity
  8
0
  6
Continuous
 62
     7
370
    15
100
AcDbLine
 10
305.3785389884
 20
117.1418702316
 30
0.0
 11
304.2285389884
 21
117.1418702316
 31
0.0
  0
LINE
  5
35B
330
1F
100
AcDbEntity
  8
0
  6
Continuous
 62
     7
370
    15
100
AcDbLine
 10
311.0785389884
 20
117.1418702316
 30
0.0
 11
312.2285389884
 21
117.1418702316
 31
0.0
  0
ELLIPSE
  5
35C
330
1F
100
AcDbEntity
  8
0
  6
Continuous
 62
     7
370
    15
100
AcDbEllipse
 10
308.2285389884
 20
114.933322907
 30
0.0
 11
0.4000000000000341
 21
0.0
 31
0.0
210
0.0
220
0.0
230
1.0
 40
0.2867453858
 41
0.0
 42
1.570796326794897
  0
ELLIPSE
  5
35D
330
1F
100
AcDbEntity
  8
0
  6
Continuous
 62
     7
370
    15
100
AcDbEllipse
 10
308.2285389884
 20
114.933322907
 30
0.0
 11
0.4000000000000341
 21
0.0
 31
0.0
210
0.0
220
0.0
230
1.0
 40
0.2867453858
 41
1.570796326794897
 42
3.141592653589793
  0
ELLIPSE
  5
35E
330
1F
100
AcDbEntity
  8
0
  6
Continuous
 62
     7
370
    15
100
AcDbEllipse
 10
312.2285389884
 20
116.8297804009
 30
0.0
 11
0.0
 21
-0.312089830758481
 31
0.0
210
0.0
220
0.0
230
1.0
 40
0.9612616959
 41
3.141592653589793
 42
4.712388980384703
  0
ELLIPSE
  5
35F
330
1F
100
AcDbEntity
  8
0
  6
Continuous
 62
     7
370
    15
100
AcDbEllipse
 10
311.5285389884
 20
114.0036381594
 30
0.0
 11
0.0
 21
-0.8322395486892731
 31
0.0
210
0.0
220
0.0
230
1.0
 40
0.9612616959
 41
1.140061667298236
 42
1.570796326794931
  0
ELLIPSE
  5
360
330
1F
100
AcDbEntity
  8
0
  6
Continuous
 62
     7
370
    15
100
AcDbEllipse
 10
311.5285389884
 20
115.3808302046
 30
0.0
 11
0.0
 21
-0.8322395486892731
 31
0.0
210
0.0
220
0.0
230
1.0
 40
0.9612616959
 41
1.140061667298294
 42
2.617993877991501
  0
LINE
  5
361
330
1F
100
AcDbEntity
  8
0
  6
Continuous
 62
     7
370
    15
100
AcDbLine
 10
312.2554663855
 20
113.6561461314
 30
0.0
 11
311.5785389884
 21
112.1236301609
 31
0.0
  0
LINE
  5
362
330
1F
100
AcDbEntity
  8
0
  6
Continuous
 62
     7
370
    15
100
AcDbLine
 10
311.5785389884
 20
113.5008222061
 30
0.0
 11
311.5785389884
 21
112.1236301609
 31
0.0
  0
LINE
  5
363
330
1F
100
AcDbEntity
  8
0
  6
Continuous
 62
     7
370
    15
100
AcDbLine
 10
311.5785389884
 20
113.5008222061
 30
0.0
 11
312.2554663855
 21
115.0333381766
 31
0.0
  0
LINE
  5
364
330
1F
100
AcDbEntity
  8
0
  6
Continuous
 62
     7
370
    15
100
AcDbLine
 10
311.5785389884
 20
113.5008222061
 30
0.0
 11
311.0785389884
 21
113.5008222061
 31
0.0
  0
LINE
  5
365
330
1F
100
AcDbEntity
  8
0
  6
Continuous
 62
     7
370
    15
100
AcDbLine
 10
311.0785389884
 20
117.1418702316
 30
0.0
 11
311.0785389884
 21
113.5008222061
 31
0.0
  0
LINE
  5
366
330
1F
100
AcDbEntity
  8
0
  6
Continuous
 62
     7
370
    15
100
AcDbLine
 10
311.9285389884
 20
116.1015707958
 30
0.0
 11
311.9285389884
 21
116.8297804009
 31
0.0
  0
LINE
  5
367
330
1F
100
AcDbEntity
  8
0
  6
Continuous
 62
     7
370
    15
100
AcDbLine
 10
311.5785389884
 20
112.1236301609
 30
0.0
 11
311.0785389884
 21
112.1236301609
 31
0.0
  0
LINE
  5
368
330
1F
100
AcDbEntity
  8
0
  6
Continuous
 62
     7
370
    15
100
AcDbLine
 10
311.0785389884
 20
113.5008222061
 30
0.0
 11
311.0785389884
 21
112.1236301609
 31
0.0
  0
LINE
  5
369
330
1F
100
AcDbEntity
  8
0
  6
Continuous
 62
     7
370
    15
100
AcDbLine
 10
304.2016115914
 20
113.6561461314
 30
0.0
 11
304.8785389884
 21
112.1236301609
 31
0.0
  0
LINE
  5
36A
330
1F
100
AcDbEntity
  8
0
  6
Continuous
 62
     7
370
    15
100
AcDbLine
 10
304.8785389884
 20
113.5008222061
 30
0.0
 11
304.2016115914
 21
115.0333381766
 31
0.0
  0
LINE
  5
36B
330
1F
100
AcDbEntity
  8
0
  6
Continuous
 62
     7
370
    15
100
AcDbLine
 10
304.8785389884
 20
113.5008222061
 30
0.0
 11
304.8785389884
 21
112.1236301609
 31
0.0
  0
ELLIPSE
  5
36C
330
1F
100
AcDbEntity
  8
0
  6
Continuous
 62
     7
370
    15
100
AcDbEllipse
 10
304.2285389884
 20
116.8297804009
 30
0.0
 11
0.0
 21
-0.312089830758481
 31
0.0
210
0.0
220
0.0
230
1.0
 40
0.9612616959
 41
1.570796326794897
 42
3.141592653589793
  0
LINE
  5
36D
330
1F
100
AcDbEntity
  8
0
  6
Continuous
 62
     7
370
    15
100
AcDbLine
 10
305.3785389884
 20
117.1418702316
 30
0.0
 11
305.3785389884
 21
113.5008222061
 31
0.0
  0
LINE
  5
36E
330
1F
100
AcDbEntity
  8
0
  6
Continuous
 62
     7
370
    15
100
AcDbLine
 10
305.3785389884
 20
113.5008222061
 30
0.0
 11
304.8785389884
 21
113.5008222061
 31
0.0
  0
ELLIPSE
  5
36F
330
1F
100
AcDbEntity
  8
0
  6
Continuous
 62
     7
370
    15
100
AcDbEllipse
 10
304.9285389884
 20
115.3808302046
 30
0.0
 11
0.0
 21
-0.8322395486892731
 31
0.0
210
0.0
220
0.0
230
1.0
 40
0.9612616959
 41
3.665191429188069
 42
5.143123639881333
  0
LINE
  5
370
330
1F
100
AcDbEntity
  8
0
  6
Continuous
 62
     7
370
    15
100
AcDbLine
 10
304.5285389884
 20
116.1015707958
 30
0.0
 11
304.5285389884
 21
116.8297804009
 31
0.0
  0
LINE
  5
371
330
1F
100
AcDbEntity
  8
0
  6
Continuous
 62
     7
370
    15
100
AcDbLine
 10
304.8785389884
 20
112.1236301609
 30
0.0
 11
305.3785389884
 21
112.1236301609
 31
0.0
  0
LINE
  5
372
330
1F
100
AcDbEntity
  8
0
  6
Continuous
 62
     7
370
    15
100
AcDbLine
 10
305.3785389884
 20
113.5008222061
 30
0.0
 11
305.3785389884
 21
112.1236301609
 31
0.0
  0
ELLIPSE
  5
373
330
1F
100
AcDbEntity
  8
0
  6
Continuous
 62
     7
370
    15
100
AcDbEllipse
 10
304.9285389884
 20
114.0036381594
 30
0.0
 11
0.0
 21
-0.8322395486892731
 31
0.0
210
0.0
220
0.0
230
1.0
 40
0.9612616959
 41
4.71238898038472
 42
5.143123639881337
  0
LINE
  5
374
330
1F
100
AcDbEntity
  8
0
  6
Continuous
 62
     7
370
    15
100
AcDbLine
 10
308.6285389884
 20
114.933322907
 30
0.0
 11
308.6285389884
 21
114.3091432455
 31
0.0
  0
LINE
  5
375
330
1F
100
AcDbEntity
  8
0
  6
Continuous
 62
     7
370
    15
100
AcDbLine
 10
307.8285389884
 20
114.3091432455
 30
0.0
 11
307.8285389884
 21
114.933322907
 31
0.0
  0
LINE
  5
376
330
1F
100
AcDbEntity
  8
0
  6
Continuous
 62
     7
370
    15
100
AcDbLine
 10
308.6285389884
 20
114.3091432455
 30
0.0
 11
308.6285389884
 21
114.0821101304
 31
0.0
  0
LINE
  5
377
330
1F
100
AcDbEntity
  8
0
  6
Continuous
 62
     7
370
    15
100
AcDbLine
 10
307.8285389884
 20
114.0821101304
 30
0.0
 11
307.8285389884
 21
114.3091432455
 31
0.0
  0
LINE
  5
378
330
1F
100
AcDbEntity
  8
0
  6
Continuous
 62
     7
370
    15
100
AcDbLine
 10
315.8285389884
 20
113.6964032839
 30
0.0
 11
315.8285389884
 21
113.3593800386
 31
0.0
  0
LINE
  5
379
330
1F
100
AcDbEntity
  8
0
  6
Continuous
 62
     7
370
    15
100
AcDbLine
 10
315.8285389884
 20
113.3593800386
 30
0.0
 11
312.1243818796
 21
113.3593800386
 31
0.0
  0
LINE
  5
37A
330
1F
100
AcDbEntity
  8
0
  6
Continuous
 62
     7
370
    15
100
AcDbLine
 10
311.0785389884
 20
113.3593800386
 30
0.0
 11
305.3785389884
 21
113.3593800386
 31
0.0
  0
LINE
  5
37B
330
1F
100
AcDbEntity
  8
0
  6
Continuous
 62
     7
370
    15
100
AcDbLine
 10
304.3326960973
 20
113.3593800386
 30
0.0
 11
300.6285389884
 21
113.3593800386
 31
0.0
  0
LINE
  5
37C
330
1F
100
AcDbEntity
  8
0
  6
Continuous
 62
     7
370
    15
100
AcDbLine
 10
300.6285389884
 20
113.6964032839
 30
0.0
 11
300.6285389884
 21
113.3593800386
 31
0.0
  0
ELLIPSE
  5
37D
330
1F
100
AcDbEntity
  8
0
  6
Continuous
 62
     7
370
    15
100
AcDbEllipse
 10
301.4569641484
 20
107.4444686006
 30
0.0
 11
0.09504772810851136
 21
0.2850273833098669
 31
0.0
210
0.0
220
0.0
230
1.0
 40
0.998477485
 41
1.892516374285564
 42
3.463008114585197
  0
LINE
  5
37E
330
1F
100
AcDbEntity
  8
0
  6
Continuous
 62
     7
370
    15
100
AcDbLine
 10
307.250388221
 20
107.1440568968
 30
0.0
 11
301.4566897559
 21
107.1440568968
 31
0.0
  0
ELLIPSE
  5
37F
330
1F
100
AcDbEntity
  8
0
  6
Continuous
 62
     7
370
    15
100
AcDbEllipse
 10
307.2501138285
 20
107.4444686006
 30
0.0
 11
-0.09504772810851136
 21
0.2850273833098669
 31
0.0
210
0.0
220
0.0
230
1.0
 40
0.998477485
 41
2.820177192594219
 42
4.390668932894032
  0
LINE
  5
380
330
1F
100
AcDbEntity
  8
0
  6
Continuous
 62
     7
370
    15
100
AcDbLine
 10
307.548731048
 20
109.7894163945
 30
0.0
 11
307.5501595826
 21
107.4443770992
 31
0.0
  0
ELLIPSE
  5
381
330
1F
100
AcDbEntity
  8
0
  6
Continuous
 62
     7
370
    15
100
AcDbEllipse
 10
307.2486854053
 20
109.7893250046
 30
0.0
 11
-0.212196656750848
 21
0.2121966567508764
 31
0.0
210
0.0
220
0.0
230
1.0
 40
0.9996954599
 41
3.927447696730083
 42
5.497939437029836
  0
LINE
  5
382
330
1F
100
AcDbEntity
  8
0
  6
Continuous
 62
     7
370
    15
100
AcDbLine
 10
301.4584839615
 20
110.089370703
 30
0.0
 11
307.2485940154
 21
110.089370703
 31
0.0
  0
ELLIPSE
  5
383
330
1F
100
AcDbEntity
  8
0
  6
Continuous
 62
     7
370
    15
100
AcDbEllipse
 10
301.4583925716
 20
109.7893250046
 30
0.0
 11
0.2121966567509048
 21
0.2121966567508764
 31
0.0
210
0.0
220
0.0
230
1.0
 40
0.9996954599
 41
0.7852458701496916
 42
2.355737610449668
  0
LINE
  5
384
330
1F
100
AcDbEntity
  8
0
  6
Continuous
 62
     7
370
    15
100
AcDbLine
 10
301.1569183943
 20
107.4443770992
 30
0.0
 11
301.1583469289
 21
109.7894163945
 31
0.0
  0
ELLIPSE
  5
385
330
1F
100
AcDbEntity
  8
0
  6
Continuous
 62
     7
370
    15
100
AcDbEllipse
 10
309.2069641484
 20
107.4444686006
 30
0.0
 11
0.09504772810851136
 21
0.2850273833098669
 31
0.0
210
0.0
220
0.0
230
1.0
 40
0.998477485
 41
1.89251637428551
 42
3.46300811458544
  0
LINE
  5
386
330
1F
100
AcDbEntity
  8
0
  6
Continuous
 62
     7
370
    15
100
AcDbLine
 10
315.000388221
 20
107.1440568968
 30
0.0
 11
309.2066897559
 21
107.1440568968
 31
0.0
  0
ELLIPSE
  5
387
330
1F
100
AcDbEntity
  8
0
  6
Continuous
 62
     7
370
    15
100
AcDbEllipse
 10
315.0001138285
 20
107.4444686006
 30
0.0
 11
-0.09504772810856821
 21
0.2850273833098669
 31
0.0
210
0.0
220
0.0
230
1.0
 40
0.998477485
 41
2.820177192594021
 42
4.390668932893871
  0
LINE
  5
388
330
1F
100
AcDbEntity
  8
0
  6
Continuous
 62
     7
370
    15
100
AcDbLine
 10
315.298731048
 20
109.7894163945
 30
0.0
 11
315.3001595826
 21
107.4443770992
 31
0.0
  0
ELLIPSE
  5
389
330
1F
100
AcDbEntity
  8
0
  6
Continuous
 62
     7
370
    15
100
AcDbEllipse
 10
314.9986854053
 20
109.7893250046
 30
0.0
 11
-0.2121966567509048
 21
0.2121966567508764
 31
0.0
210
0.0
220
0.0
230
1.0
 40
0.9996954599
 41
3.927447696729949
 42
5.497939437029703
  0
LINE
  5
38A
330
1F
100
AcDbEntity
  8
0
  6
Continuous
 62
     7
370
    15
100
AcDbLine
 10
309.2084839615
 20
110.089370703
 30
0.0
 11
314.9985940154
 21
110.089370703
 31
0.0
  0
ELLIPSE
  5
38B
330
1F
100
AcDbEntity
  8
0
  6
Continuous
 62
     7
370
    15
100
AcDbEllipse
 10
309.2083925716
 20
109.7893250046
 30
0.0
 11
0.212196656750848
 21
0.2121966567508764
 31
0.0
210
0.0
220
0.0
230
1.0
 40
0.9996954599
 41
0.7852458701499366
 42
2.355737610449534
  0
LINE
  5
38C
330
1F
100
AcDbEntity
  8
0
  6
Continuous
 62
     7
370
    15
100
AcDbLine
 10
308.9069183943
 20
107.4443770992
 30
0.0
 11
308.9083469289
 21
109.7894163945
 31
0.0
  0
LINE
  5
38D
330
1F
100
AcDbEntity
  8
0
  6
Continuous
 62
     7
370
    15
100
AcDbLine
 10
316.6743368973
 20
106.3212602539
 30
0.0
 11
316.6883009492
 21
105.8593800386
 31
0.0
  0
LINE
  5
38E
330
1F
100
AcDbEntity
  8
0
  6
Continuous
 62
     7
370
    15
100
AcDbLine
 10
316.6883009492
 20
105.8593800386
 30
0.0
 11
316.5315613396
 21
105.8593800386
 31
0.0
  0
ELLIPSE
  5
38F
330
1F
100
AcDbEntity
  8
0
  6
Continuous
 62
     7
370
    15
100
AcDbEllipse
 10
316.3792767229
 20
106.1593800386
 30
0.0
 11
0.2657349703957266
 21
-0.2578224074512293
 31
0.0
210
0.0
220
0.0
230
1.0
 40
0.5772183919
 41
5.222900942004782
 42
5.746499717654749
  0
LINE
  5
390
330
1F
100
AcDbEntity
  8
0
  6
Continuous
 62
     7
370
    15
100
AcDbLine
 10
299.7827410796
 20
110.9088246886
 30
0.0
 11
299.7703831073
 21
111.3175816112
 31
0.0
  0
ELLIPSE
  5
391
330
1F
100
AcDbEntity
  8
0
  6
Continuous
 62
     7
370
    15
100
AcDbEllipse
 10
300.077801254
 20
106.1593800386
 30
0.0
 11
0.2657349703957266
 21
0.2578224074512293
 31
0.0
210
0.0
220
0.0
230
1.0
 40
0.5772183919
 41
3.678278243114804
 42
4.201877018764542
  0
LINE
  5
392
330
1F
100
AcDbEntity
  8
0
  6
Continuous
 62
     7
370
    15
100
AcDbLine
 10
299.9255166373
 20
105.8593800386
 30
0.0
 11
299.7687770276
 21
105.8593800386
 31
0.0
  0
LINE
  5
393
330
1F
100
AcDbEntity
  8
0
  6
Continuous
 62
     7
370
    15
100
AcDbLine
 10
299.7687770276
 20
105.8593800386
 30
0.0
 11
299.7827410796
 21
106.3212602539
 31
0.0
  0
LINE
  5
394
330
1F
100
AcDbEntity
  8
0
  6
Continuous
 62
     7
370
    15
100
AcDbLine
 10
316.7331105707
 20
105.8593800386
 30
0.0
 11
316.7297573066
 21
111.3606440482
 31
0.0
  0
LINE
  5
395
330
1F
100
AcDbEntity
  8
0
  6
Continuous
 62
     7
370
    15
100
AcDbLine
 10
316.7331105707
 20
105.8593800386
 30
0.0
 11
316.6883009492
 21
105.8593800386
 31
0.0
  0
LINE
  5
396
330
1F
100
AcDbEntity
  8
0
  6
Continuous
 62
     7
370
    15
100
AcDbLine
 10
299.7239674062
 20
105.8593800386
 30
0.0
 11
299.7273206703
 21
111.3606440482
 31
0.0
  0
LINE
  5
397
330
1F
100
AcDbEntity
  8
0
  6
Continuous
 62
     7
370
    15
100
AcDbLine
 10
299.7239674062
 20
105.8593800386
 30
0.0
 11
299.7687770276
 21
105.8593800386
 31
0.0
  0
LINE
  5
398
330
1F
100
AcDbEntity
  8
0
  6
Continuous
 62
     7
370
    15
100
AcDbLine
 10
316.5315613396
 20
105.8593800386
 30
0.0
 11
299.9255166373
 21
105.8593800386
 31
0.0
  0
ELLIPSE
  5
399
330
1F
100
AcDbEntity
  8
0
  6
Continuous
 62
     7
370
    15
100
AcDbEllipse
 10
316.4297116638
 20
111.360552714
 30
0.0
 11
0.2920338624377337
 21
-0.06892105535844451
 31
0.0
210
0.0
220
0.0
230
1.0
 40
0.9993189899
 41
0.2322197910719097
 42
1.802711531371748
  0
ELLIPSE
  5
39A
330
1F
100
AcDbEntity
  8
0
  6
Continuous
 62
     7
370
    15
100
AcDbEllipse
 10
300.0273663131
 20
111.360552714
 30
0.0
 11
0.2920338624377905
 21
0.06892105535845873
 31
0.0
210
0.0
220
0.0
230
1.0
 40
0.9993189899
 41
1.338881122218086
 42
2.909372862517837
  0
LINE
  5
39B
330
1F
100
AcDbEntity
  8
0
  6
Continuous
 62
     7
370
    15
100
AcDbLine
 10
300.0274577029
 20
111.6604156326
 30
0.0
 11
316.429620274
 21
111.6604156326
 31
0.0
  0
LINE
  5
39C
330
1F
100
AcDbEntity
  8
0
  6
Continuous
 62
     7
370
    15
100
AcDbLine
 10
308.0285389884
 20
112.6593800386
 30
0.0
 11
308.4285389884
 21
112.6593800386
 31
0.0
  0
LINE
  5
39D
330
1F
100
AcDbEntity
  8
0
  6
Continuous
 62
     7
370
    15
100
AcDbLine
 10
308.0285389884
 20
112.6593800386
 30
0.0
 11
308.0285389884
 21
113.3593800386
 31
0.0
  0
LINE
  5
39E
330
1F
100
AcDbEntity
  8
0
  6
Continuous
 62
     7
370
    15
100
AcDbLine
 10
308.4285389884
 20
112.6593800386
 30
0.0
 11
308.4285389884
 21
113.3593800386
 31
0.0
  0
LINE
  5
39F
330
1F
100
AcDbEntity
  8
0
  6
Continuous
 62
     7
370
    15
100
AcDbLine
 10
315.8285389884
 20
113.3593800386
 30
0.0
 11
316.5471614388
 21
113.3593800386
 31
0.0
  0
ARC
  5
3A0
330
1F
100
AcDbEntity
  8
0
  6
Continuous
 62
     7
370
    15
100
AcDbCircle
 10
316.5471614388
 20
111.3593800386
 30
0.0
 40
2.000000000000014
100
AcDbArc
 50
2.0
 51
90.0
  0
LINE
  5
3A1
330
1F
100
AcDbEntity
  8
0
  6
Continuous
 62
     7
370
    15
100
AcDbLine
 10
318.7404447596
 20
105.8593800386
 30
0.0
 11
318.5459430929
 21
111.429179032
 31
0.0
  0
LINE
  5
3A2
330
1F
100
AcDbEntity
  8
0
  6
Continuous
 62
     7
370
    15
100
AcDbLine
 10
297.7166332173
 20
105.8593800386
 30
0.0
 11
297.911134884
 21
111.429179032
 31
0.0
  0
ARC
  5
3A3
330
1F
100
AcDbEntity
  8
0
  6
Continuous
 62
     7
370
    15
100
AcDbCircle
 10
299.9099165381
 20
111.3593800386
 30
0.0
 40
2.000000000000014
100
AcDbArc
 50
90.0
 51
178.0
  0
LINE
  5
3A4
330
1F
100
AcDbEntity
  8
0
  6
Continuous
 62
     7
370
    15
100
AcDbLine
 10
299.9099165381
 20
113.3593800386
 30
0.0
 11
300.6285389884
 21
113.3593800386
 31
0.0
  0
LINE
  5
3A5
330
1F
100
AcDbEntity
  8
0
  6
Continuous
 62
     7
370
    15
100
AcDbLine
 10
297.7166332173
 20
105.8593800386
 30
0.0
 11
299.7239674062
 21
105.8593800386
 31
0.0
  0
LINE
  5
3A6
330
1F
100
AcDbEntity
  8
0
  6
Continuous
 62
     7
370
    15
100
AcDbLine
 10
316.7331105707
 20
105.8593800386
 30
0.0
 11
318.7404447596
 21
105.8593800386
 31
0.0
  0
SPLINE
  5
3A7
330
1F
100
AcDbEntity
  8
0
  6
PHANTOM
 62
     8
370
     0
100
AcDbSpline
210
0.0
220
0.0
230
1.0
 70
     8
 71
     3
 72
    20
 73
    16
 74
     0
 42
0.000000001
 43
0.00000001
 40
0.0
 40
0.0
 40
0.0
 40
0.0
 40
0.2500000000000027
 40
0.2500000000000027
 40
0.3750000000000022
 40
0.3750000000000022
 40
0.5000000000000018
 40
0.5000000000000018
 40
0.6250000000000013
 40
0.6250000000000013
 40
0.7500000000000009
 40
0.7500000000000009
 40
0.8750000000000006
 40
0.8750000000000006
 40
1.0
 40
1.0
 40
1.0
 40
1.0
 10
315.80630663142
 20
121.8214089548306
 30
0.0
 10
315.8062256723804
 20
121.9336791152497
 30
0.0
 10
315.7246429122094
 20
122.0613020322931
 30
0.0
 10
315.4955463686757
 20
122.2574499035146
 30
0.0
 10
315.3999467295719
 20
122.3247846828618
 30
0.0
 10
315.1780852027495
 20
122.4569692688891
 30
0.0
 10
315.052625536795
 20
122.521624916371
 30
0.0
 10
314.7732251035287
 20
122.6473390250377
 30
0.0
 10
314.6178201892097
 20
122.7087741521556
 30
0.0
 10
314.2910932117114
 20
122.8220596927007
 30
0.0
 10
314.1185800728375
 20
122.8745656420728
 30
0.0
 10
313.7549782693405
 20
122.9705796095793
 30
0.0
 10
313.565059521897
 20
123.0136097913828
 30
0.0
 10
313.182458158986
 20
123.0865619174014
 30
0.0
 10
312.9879365383094
 20
123.1169944453261
 30
0.0
 10
312.7900351736911
 20
123.1410378610952
 30
0.0
  0
LINE
  5
3A8
330
1F
100
AcDbEntity
  8
0
  6
PHANTOM
 62
     8
370
     0
100
AcDbLine
 10
312.8191143212
 20
122.3485934046
 30
0.0
 11
312.7900351737
 21
123.1410378611
 31
0.0
  0
SPLINE
  5
3A9
330
1F
100
AcDbEntity
  8
0
  6
PHANTOM
 62
     8
370
     0
100
AcDbSpline
210
0.0
220
0.0
230
1.0
 70
     8
 71
     3
 72
    20
 73
    16
 74
     0
 42
0.000000001
 43
0.00000001
 40
0.0
 40
0.0
 40
0.0
 40
0.0
 40
0.1249999999999998
 40
0.1249999999999998
 40
0.2499999999999997
 40
0.2499999999999997
 40
0.4999999999999998
 40
0.4999999999999998
 40
0.6249999999999998
 40
0.6249999999999998
 40
0.7499999999999999
 40
0.7499999999999999
 40
0.8749999999999999
 40
0.8749999999999999
 40
1.0
 40
1.0
 40
1.0
 40
1.0
 10
303.6670428032008
 20
123.1410378610952
 30
0.0
 10
303.4692448088157
 20
123.1170070039737
 30
0.0
 10
303.2739844329847
 20
123.086490404966
 30
0.0
 10
302.8884192866954
 20
123.0128733365376
 30
0.0
 10
302.6984745928464
 20
122.969680742037
 30
0.0
 10
302.1570420333497
 20
122.8265318584175
 30
0.0
 10
301.8215312058384
 20
122.7093929500457
 30
0.0
 10
301.4034334225626
 20
122.5211127270652
 30
0.0
 10
301.2756876076559
 20
122.4551812357262
 30
0.0
 10
301.0544466558643
 20
122.3229990659848
 30
0.0
 10
300.9607872165839
 20
122.2569323103803
 30
0.0
 10
300.807619244248
 20
122.1255519671588
 30
0.0
 10
300.7485819557724
 20
122.0602064901655
 30
0.0
 10
300.6706930891555
 20
121.9365734122289
 30
0.0
 10
300.6508118024056
 20
121.8775127137226
 30
0.0
 10
300.6507713454719
 20
121.8214089548306
 30
0.0
  0
LINE
  5
3AA
330
1F
100
AcDbEntity
  8
0
  6
PHANTOM
 62
     8
370
     0
100
AcDbLine
 10
303.6670428032
 20
123.1410378611
 30
0.0
 11
303.6379636557
 21
122.3485934046
 31
0.0
  0
LINE
  5
3AB
330
1F
100
AcDbEntity
  8
0
  6
PHANTOM
 62
     8
370
     0
100
AcDbLine
 10
300.6285389884
 20
113.6964032839
 30
0.0
 11
304.1850483364
 21
113.6964032839
 31
0.0
  0
LINE
  5
3AC
330
1F
100
AcDbEntity
  8
0
  6
PHANTOM
 62
     8
370
     0
100
AcDbLine
 10
305.3785389884
 20
113.6964032839
 30
0.0
 11
308.1225662156
 21
113.6964032839
 31
0.0
  0
LINE
  5
3AD
330
1F
100
AcDbEntity
  8
0
  6
PHANTOM
 62
     8
370
     0
100
AcDbLine
 10
308.3345117613
 20
113.6964032839
 30
0.0
 11
311.0785389884
 21
113.6964032839
 31
0.0
  0
LINE
  5
3AE
330
1F
100
AcDbEntity
  8
0
  6
PHANTOM
 62
     8
370
     0
100
AcDbLine
 10
312.2720296405
 20
113.6964032839
 30
0.0
 11
315.8285389884
 21
113.6964032839
 31
0.0
  0
LINE
  5
3AF
330
1F
100
AcDbEntity
  8
0
  6
PHANTOM
 62
     8
370
     0
100
AcDbLine
 10
304.2285389884
 20
117.1418702316
 30
0.0
 11
304.2285389884
 21
115.7837364436
 31
0.0
  0
LINE
  5
3B0
330
1F
100
AcDbEntity
  8
0
  6
PHANTOM
 62
     8
370
     0
100
AcDbLine
 10
312.2285389884
 20
117.1418702316
 30
0.0
 11
312.2285389884
 21
115.7837364436
 31
0.0
  0
ELLIPSE
  5
3B1
330
1F
100
AcDbEntity
  8
0
  6
PHANTOM
 62
     8
370
     0
100
AcDbEllipse
 10
308.2285389884
 20
96.002762654
 30
0.0
 11
28.88000000000005
 21
0.0
 31
0.0
210
0.0
220
0.0
230
1.0
 40
0.9516362274
 41
1.412185580843995
 42
1.729407072745794
  0
ARC
  5
3B2
330
1F
100
AcDbEntity
  8
0
  6
PHANTOM
 62
     8
370
     0
100
AcDbCircle
 10
314.0031284395
 20
123.0506394879
 30
0.0
 40
1.216456796393196
100
AcDbArc
 50
159.2894876573
 51
175.7382585876
  0
ARC
  5
3B3
330
1F
100
AcDbEntity
  8
0
  6
PHANTOM
 62
     8
370
     0
100
AcDbCircle
 10
302.485634639
 20
123.0567336821
 30
0.0
 40
1.184412278352592
100
AcDbArc
 50
4.0816544088
 51
20.9780727824
  0
LINE
  5
3B4
330
1F
100
AcDbEntity
  8
0
  6
PHANTOM
 62
     8
370
     0
100
AcDbLine
 10
312.2554663855
 20
115.0333381766
 30
0.0
 11
312.2554663855
 21
113.6561461314
 31
0.0
  0
LINE
  5
3B5
330
1F
100
AcDbEntity
  8
0
  6
PHANTOM
 62
     8
370
     0
100
AcDbLine
 10
304.2016115914
 20
115.0333381766
 30
0.0
 11
304.2016115914
 21
113.6561461314
 31
0.0
  0
LINE
  5
3B6
330
1F
100
AcDbEntity
  8
0
  6
PHANTOM
 62
     8
370
     0
100
AcDbLine
 10
308.6285389884
 20
114.3091432455
 30
0.0
 11
308.2285389884
 21
114.3091432455
 31
0.0
  0
LINE
  5
3B7
330
1F
100
AcDbEntity
  8
0
  6
PHANTOM
 62
     8
370
     0
100
AcDbLine
 10
308.2285389884
 20
115.0480210613
 30
0.0
 11
308.2285389884
 21
114.3091432455
 31
0.0
  0
ARC
  5
3B8
330
1F
100
AcDbEntity
  8
0
  6
PHANTOM
 62
     8
370
     0
100
AcDbCircle
 10
308.2361365836
 20
114.3170470195
 30
0.0
 40
0.3924819956919034
100
AcDbArc
 50
268.890809425
 51
358.8461037434
  0
LINE
  5
3B9
330
1F
100
AcDbEntity
  8
0
  6
PHANTOM
 62
     8
370
     0
100
AcDbLine
 10
308.2285389884
 20
113.9246385671
 30
0.0
 11
308.2285389884
 21
114.3091432455
 31
0.0
  0
LINE
  5
3BA
330
1F
100
AcDbEntity
  8
0
  6
PHANTOM
 62
     8
370
     0
100
AcDbLine
 10
308.2285389884
 20
114.3091432455
 30
0.0
 11
307.8285389884
 21
114.3091432455
 31
0.0
  0
ARC
  5
3BB
330
1F
100
AcDbEntity
  8
0
  6
PHANTOM
 62
     8
370
     0
100
AcDbCircle
 10
308.2209413933
 20
114.3170470195
 30
0.0
 40
0.392481995691857
100
AcDbArc
 50
181.1538962566
 51
271.109190575
  0
ARC
  5
3BC
330
1F
100
AcDbEntity
  8
0
  6
PHANTOM
 62
     8
370
     0
100
AcDbCircle
 10
308.2361365836
 20
114.0900139044
 30
0.0
 40
0.392481995691875
100
AcDbArc
 50
268.890809425
 51
358.8461037434
  0
LINE
  5
3BD
330
1F
100
AcDbEntity
  8
0
  6
PHANTOM
 62
     8
370
     0
100
AcDbLine
 10
308.2285389884
 20
113.9246385671
 30
0.0
 11
308.2285389884
 21
113.697605452
 31
0.0
  0
ARC
  5
3BE
330
1F
100
AcDbEntity
  8
0
  6
PHANTOM
 62
     8
370
     0
100
AcDbCircle
 10
308.2209413933
 20
114.0900139044
 30
0.0
 40
0.3924819956918567
100
AcDbArc
 50
181.1538962566
 51
271.109190575
  0
LINE
  5
3BF
330
1F
100
AcDbEntity
  8
0
  6
PHANTOM
 62
     8
370
     0
100
AcDbLine
 10
308.2285389884
 20
113.697605452
 30
0.0
 11
308.2285389884
 21
113.6821101304
 31
0.0
  0
ARC
  5
3C0
330
1F
100
AcDbEntity
  8
0
  6
PHANTOM
 62
     8
370
     0
100
AcDbCircle
 10
316.3904120223
 20
106.3460023917
 30
0.0
 40
0.2850008912838256
100
AcDbArc
 50
266.7757862595
 51
355.0196407111
  0
LINE
  5
3C1
330
1F
100
AcDbEntity
  8
0
  6
PHANTOM
 62
     8
370
     0
100
AcDbLine
 10
316.3743825888
 20
106.3212602539
 30
0.0
 11
316.3743825888
 21
106.0614526328
 31
0.0
  0
LINE
  5
3C2
330
1F
100
AcDbEntity
  8
0
  6
PHANTOM
 62
     8
370
     0
100
AcDbLine
 10
316.6743368973
 20
106.3212602539
 30
0.0
 11
316.3743825888
 21
106.3212602539
 31
0.0
  0
LINE
  5
3C3
330
1F
100
AcDbEntity
  8
0
  6
PHANTOM
 62
     8
370
     0
100
AcDbLine
 10
316.6743368973
 20
110.9088246886
 30
0.0
 11
316.6743368973
 21
106.3212602539
 31
0.0
  0
LINE
  5
3C4
330
1F
100
AcDbEntity
  8
0
  6
PHANTOM
 62
     8
370
     0
100
AcDbLine
 10
316.3743825888
 20
106.3212602539
 30
0.0
 11
316.3743825888
 21
110.9088246886
 31
0.0
  0
LINE
  5
3C5
330
1F
100
AcDbEntity
  8
0
  6
PHANTOM
 62
     8
370
     0
100
AcDbLine
 10
316.6743368973
 20
110.9088246886
 30
0.0
 11
316.3743825888
 21
110.9088246886
 31
0.0
  0
LINE
  5
3C6
330
1F
100
AcDbEntity
  8
0
  6
PHANTOM
 62
     8
370
     0
100
AcDbLine
 10
316.3743825888
 20
111.1686323098
 30
0.0
 11
316.3743825888
 21
110.9088246886
 31
0.0
  0
ARC
  5
3C7
330
1F
100
AcDbEntity
  8
0
  6
PHANTOM
 62
     8
370
     0
100
AcDbCircle
 10
316.3904120223
 20
110.8840825509
 30
0.0
 40
0.2850008912838268
100
AcDbArc
 50
4.9803592889
 51
93.2242137405
  0
LINE
  5
3C8
330
1F
100
AcDbEntity
  8
0
  6
PHANTOM
 62
     8
370
     0
100
AcDbLine
 10
316.3743825888
 20
106.0614526328
 30
0.0
 11
300.0826953881
 21
106.0614526328
 31
0.0
  0
LINE
  5
3C9
330
1F
100
AcDbEntity
  8
0
  6
PHANTOM
 62
     8
370
     0
100
AcDbLine
 10
300.0826953881
 20
106.0614526328
 30
0.0
 11
300.0826953881
 21
106.3212602539
 31
0.0
  0
LINE
  5
3CA
330
1F
100
AcDbEntity
  8
0
  6
PHANTOM
 62
     8
370
     0
100
AcDbLine
 10
300.0826953881
 20
106.3212602539
 30
0.0
 11
316.3743825888
 21
106.3212602539
 31
0.0
  0
LINE
  5
3CB
330
1F
100
AcDbEntity
  8
0
  6
PHANTOM
 62
     8
370
     0
100
AcDbLine
 10
316.3743825888
 20
110.9088246886
 30
0.0
 11
300.0826953881
 21
110.9088246886
 31
0.0
  0
LINE
  5
3CC
330
1F
100
AcDbEntity
  8
0
  6
PHANTOM
 62
     8
370
     0
100
AcDbLine
 10
300.0826953881
 20
110.9088246886
 30
0.0
 11
300.0826953881
 21
106.3212602539
 31
0.0
  0
LINE
  5
3CD
330
1F
100
AcDbEntity
  8
0
  6
PHANTOM
 62
     8
370
     0
100
AcDbLine
 10
300.0826953881
 20
110.9088246886
 30
0.0
 11
300.0826953881
 21
111.1686323098
 31
0.0
  0
LINE
  5
3CE
330
1F
100
AcDbEntity
  8
0
  6
PHANTOM
 62
     8
370
     0
100
AcDbLine
 10
300.0826953881
 20
111.1686323098
 30
0.0
 11
316.3743825888
 21
111.1686323098
 31
0.0
  0
LINE
  5
3CF
330
1F
100
AcDbEntity
  8
0
  6
PHANTOM
 62
     8
370
     0
100
AcDbLine
 10
315.298731048
 20
109.7894163945
 30
0.0
 11
315.2336841181
 21
109.8544633245
 31
0.0
  0
ARC
  5
3D0
330
1F
100
AcDbEntity
  8
0
  6
PHANTOM
 62
     8
370
     0
100
AcDbCircle
 10
314.9338126132
 20
109.854381391
 30
0.0
 40
0.2998715160872117
100
AcDbArc
 50
0.0156548446
 51
36.189718505
  0
LINE
  5
3D1
330
1F
100
AcDbEntity
  8
0
  6
PHANTOM
 62
     8
370
     0
100
AcDbLine
 10
315.000388221
 20
107.1440568968
 30
0.0
 11
314.9337298095
 21
107.3439509183
 31
0.0
  0
ARC
  5
3D2
330
1F
100
AcDbEntity
  8
0
  6
PHANTOM
 62
     8
370
     0
100
AcDbCircle
 10
314.9335914446
 20
107.6440437317
 30
0.0
 40
0.3000928453457129
100
AcDbArc
 50
270.0264175691
 51
359.938668757
  0
LINE
  5
3D3
330
1F
100
AcDbEntity
  8
0
  6
PHANTOM
 62
     8
370
     0
100
AcDbLine
 10
315.2336841181
 20
107.6437225028
 30
0.0
 11
315.3001595826
 21
107.4443770992
 31
0.0
  0
LINE
  5
3D4
330
1F
100
AcDbEntity
  8
0
  6
PHANTOM
 62
     8
370
     0
100
AcDbLine
 10
315.2336841181
 20
109.8544633245
 30
0.0
 11
315.2336841181
 21
107.6437225028
 31
0.0
  0
LINE
  5
3D5
330
1F
100
AcDbEntity
  8
0
  6
PHANTOM
 62
     8
370
     0
100
AcDbLine
 10
309.2733481674
 20
107.3439509183
 30
0.0
 11
309.2066897559
 21
107.1440568968
 31
0.0
  0
LINE
  5
3D6
330
1F
100
AcDbEntity
  8
0
  6
PHANTOM
 62
     8
370
     0
100
AcDbLine
 10
314.9337298095
 20
107.3439509183
 30
0.0
 11
309.2733481674
 21
107.3439509183
 31
0.0
  0
ARC
  5
3D7
330
1F
100
AcDbEntity
  8
0
  6
PHANTOM
 62
     8
370
     0
100
AcDbCircle
 10
309.2732653637
 20
109.854381391
 30
0.0
 40
0.2998715160867568
100
AcDbArc
 50
143.8102814756
 51
179.9843451554
  0
LINE
  5
3D8
330
1F
100
AcDbEntity
  8
0
  6
PHANTOM
 62
     8
370
     0
100
AcDbLine
 10
308.9733938588
 20
109.8544633245
 30
0.0
 11
308.9083469289
 21
109.7894163945
 31
0.0
  0
LINE
  5
3D9
330
1F
100
AcDbEntity
  8
0
  6
PHANTOM
 62
     8
370
     0
100
AcDbLine
 10
308.9069183943
 20
107.4443770992
 30
0.0
 11
308.9733938588
 21
107.6437225028
 31
0.0
  0
ARC
  5
3DA
330
1F
100
AcDbEntity
  8
0
  6
PHANTOM
 62
     8
370
     0
100
AcDbCircle
 10
309.2734865323
 20
107.6440437317
 30
0.0
 40
0.3000928453455707
100
AcDbArc
 50
180.061331243
 51
269.9735824309
  0
LINE
  5
3DB
330
1F
100
AcDbEntity
  8
0
  6
PHANTOM
 62
     8
370
     0
100
AcDbLine
 10
308.9733938588
 20
107.6437225028
 30
0.0
 11
308.9733938588
 21
109.8544633245
 31
0.0
  0
LINE
  5
3DC
330
1F
100
AcDbEntity
  8
0
  6
PHANTOM
 62
     8
370
     0
100
AcDbLine
 10
307.548731048
 20
109.7894163945
 30
0.0
 11
307.4836841181
 21
109.8544633245
 31
0.0
  0
ARC
  5
3DD
330
1F
100
AcDbEntity
  8
0
  6
PHANTOM
 62
     8
370
     0
100
AcDbCircle
 10
307.1838126132
 20
109.854381391
 30
0.0
 40
0.2998715160870516
100
AcDbArc
 50
0.0156548446
 51
36.189718524
  0
LINE
  5
3DE
330
1F
100
AcDbEntity
  8
0
  6
PHANTOM
 62
     8
370
     0
100
AcDbLine
 10
307.4836841181
 20
107.6437225028
 30
0.0
 11
307.5501595826
 21
107.4443770992
 31
0.0
  0
LINE
  5
3DF
330
1F
100
AcDbEntity
  8
0
  6
PHANTOM
 62
     8
370
     0
100
AcDbLine
 10
307.4836841181
 20
109.8544633245
 30
0.0
 11
307.4836841181
 21
107.6437225028
 31
0.0
  0
LINE
  5
3E0
330
1F
100
AcDbEntity
  8
0
  6
PHANTOM
 62
     8
370
     0
100
AcDbLine
 10
307.250388221
 20
107.1440568968
 30
0.0
 11
307.1837298095
 21
107.3439509183
 31
0.0
  0
ARC
  5
3E1
330
1F
100
AcDbEntity
  8
0
  6
PHANTOM
 62
     8
370
     0
100
AcDbCircle
 10
307.1835914446
 20
107.6440437317
 30
0.0
 40
0.3000928453455707
100
AcDbArc
 50
270.0264175691
 51
359.938668757
  0
LINE
  5
3E2
330
1F
100
AcDbEntity
  8
0
  6
PHANTOM
 62
     8
370
     0
100
AcDbLine
 10
301.5233481674
 20
107.3439509183
 30
0.0
 11
301.4566897559
 21
107.1440568968
 31
0.0
  0
LINE
  5
3E3
330
1F
100
AcDbEntity
  8
0
  6
PHANTOM
 62
     8
370
     0
100
AcDbLine
 10
307.1837298095
 20
107.3439509183
 30
0.0
 11
301.5233481674
 21
107.3439509183
 31
0.0
  0
LINE
  5
3E4
330
1F
100
AcDbEntity
  8
0
  6
PHANTOM
 62
     8
370
     0
100
AcDbLine
 10
301.2233938588
 20
109.8544633245
 30
0.0
 11
301.1583469289
 21
109.7894163945
 31
0.0
  0
ARC
  5
3E5
330
1F
100
AcDbEntity
  8
0
  6
PHANTOM
 62
     8
370
     0
100
AcDbCircle
 10
301.5232653637
 20
109.854381391
 30
0.0
 40
0.2998715160859701
100
AcDbArc
 50
143.8102814948
 51
179.9843451554
  0
LINE
  5
3E6
330
1F
100
AcDbEntity
  8
0
  6
PHANTOM
 62
     8
370
     0
100
AcDbLine
 10
301.1569183943
 20
107.4443770992
 30
0.0
 11
301.2233938588
 21
107.6437225028
 31
0.0
  0
ARC
  5
3E7
330
1F
100
AcDbEntity
  8
0
  6
PHANTOM
 62
     8
370
     0
100
AcDbCircle
 10
301.5234865323
 20
107.6440437317
 30
0.0
 40
0.3000928453456845
100
AcDbArc
 50
180.061331243
 51
269.9735824309
  0
LINE
  5
3E8
330
1F
100
AcDbEntity
  8
0
  6
PHANTOM
 62
     8
370
     0
100
AcDbLine
 10
301.2233938588
 20
107.6437225028
 30
0.0
 11
301.2233938588
 21
109.8544633245
 31
0.0
  0
LINE
  5
3E9
330
1F
100
AcDbEntity
  8
0
  6
PHANTOM
 62
     8
370
     0
100
AcDbLine
 10
300.0826953881
 20
106.3212602539
 30
0.0
 11
299.7827410796
 21
106.3212602539
 31
0.0
  0
LINE
  5
3EA
330
1F
100
AcDbEntity
  8
0
  6
PHANTOM
 62
     8
370
     0
100
AcDbLine
 10
299.7827410796
 20
106.3212602539
 30
0.0
 11
299.7827410796
 21
110.9088246886
 31
0.0
  0
LINE
  5
3EB
330
1F
100
AcDbEntity
  8
0
  6
PHANTOM
 62
     8
370
     0
100
AcDbLine
 10
300.0826953881
 20
110.9088246886
 30
0.0
 11
299.7827410796
 21
110.9088246886
 31
0.0
  0
ARC
  5
3EC
330
1F
100
AcDbEntity
  8
0
  6
PHANTOM
 62
     8
370
     0
100
AcDbCircle
 10
300.0666659546
 20
106.3460023917
 30
0.0
 40
0.2850008912838256
100
AcDbArc
 50
184.9803592889
 51
273.2242137405
  0
ARC
  5
3ED
330
1F
100
AcDbEntity
  8
0
  6
PHANTOM
 62
     8
370
     0
100
AcDbCircle
 10
300.0666659546
 20
110.8840825509
 30
0.0
 40
0.2850008912838268
100
AcDbArc
 50
86.7757862595
 51
175.0196407111
  0
LINE
  5
3EE
330
1F
100
AcDbEntity
  8
0
  6
PHANTOM
 62
     8
370
     0
100
AcDbLine
 10
316.6866948696
 20
111.3175816112
 30
0.0
 11
316.6743368973
 21
110.9088246886
 31
0.0
  0
LINE
  5
3EF
330
1F
100
AcDbEntity
  8
0
  6
PHANTOM
 62
     8
370
     0
100
AcDbLine
 10
316.3743825888
 20
111.1686323098
 30
0.0
 11
316.386740561
 21
111.5773892323
 31
0.0
  0
ARC
  5
3F0
330
1F
100
AcDbEntity
  8
0
  6
PHANTOM
 62
     8
370
     0
100
AcDbCircle
 10
316.4027699946
 20
111.2928394734
 30
0.0
 40
0.2850008912838847
100
AcDbArc
 50
4.9803592889
 51
93.2242137405
  0
LINE
  5
3F1
330
1F
100
AcDbEntity
  8
0
  6
PHANTOM
 62
     8
370
     0
100
AcDbLine
 10
316.3792767229
 20
105.8995724174
 30
0.0
 11
316.3743825888
 21
106.0614526328
 31
0.0
  0
LINE
  5
3F2
330
1F
100
AcDbEntity
  8
0
  6
PHANTOM
 62
     8
370
     0
100
AcDbLine
 10
300.0703374159
 20
111.5773892323
 30
0.0
 11
300.0826953881
 21
111.1686323098
 31
0.0
  0
ARC
  5
3F3
330
1F
100
AcDbEntity
  8
0
  6
PHANTOM
 62
     8
370
     0
100
AcDbCircle
 10
300.0543079823
 20
111.2928394734
 30
0.0
 40
0.2850008912837507
100
AcDbArc
 50
86.7757862595
 51
175.0196407111
  0
LINE
  5
3F4
330
1F
100
AcDbEntity
  8
0
  6
PHANTOM
 62
     8
370
     0
100
AcDbLine
 10
300.0826953881
 20
106.0614526328
 30
0.0
 11
300.077801254
 21
105.8995724174
 31
0.0
  0
LINE
  5
3F5
330
1F
100
AcDbEntity
  8
0
  6
PHANTOM
 62
     8
370
     0
100
AcDbLine
 10
300.077801254
 20
105.8995724174
 30
0.0
 11
316.3792767229
 21
105.8995724174
 31
0.0
  0
LINE
  5
3F6
330
1F
100
AcDbEntity
  8
0
  6
PHANTOM
 62
     8
370
     0
100
AcDbLine
 10
316.386740561
 20
111.5773892323
 30
0.0
 11
300.0703374159
 21
111.5773892323
 31
0.0
  0
LINE
  5
3F7
330
1F
100
AcDbEntity
  8
0
  6
PHANTOM
 62
     8
370
     0
100
AcDbLine
 10
316.7297573066
 20
111.3606440482
 30
0.0
 11
316.6866948696
 21
111.3175816112
 31
0.0
  0
LINE
  5
3F8
330
1F
100
AcDbEntity
  8
0
  6
PHANTOM
 62
     8
370
     0
100
AcDbLine
 10
299.7703831073
 20
111.3175816112
 30
0.0
 11
299.7273206703
 21
111.3606440482
 31
0.0
  0
LINE
  5
3F9
330
1F
100
AcDbEntity
  8
0
  6
PHANTOM
 62
     8
370
     0
100
AcDbLine
 10
316.386740561
 20
111.6175359197
 30
0.0
 11
316.386740561
 21
111.5773892323
 31
0.0
  0
ARC
  5
3FA
330
1F
100
AcDbEntity
  8
0
  6
PHANTOM
 62
     8
370
     0
100
AcDbCircle
 10
316.3866335312
 20
111.3174745813
 30
0.0
 40
0.3000613574863785
100
AcDbArc
 50
0.0204370164
 51
89.9795629836
  0
ARC
  5
3FB
330
1F
100
AcDbEntity
  8
0
  6
PHANTOM
 62
     8
370
     0
100
AcDbCircle
 10
300.0704444457
 20
111.3174745813
 30
0.0
 40
0.3000613574862932
100
AcDbArc
 50
90.0204370164
 51
179.9795629836
  0
LINE
  5
3FC
330
1F
100
AcDbEntity
  8
0
  6
PHANTOM
 62
     8
370
     0
100
AcDbLine
 10
300.0703374159
 20
111.5773892323
 30
0.0
 11
300.0703374159
 21
111.6175359197
 31
0.0
  0
LINE
  5
3FD
330
1F
100
AcDbEntity
  8
0
  6
PHANTOM
 62
     8
370
     0
100
AcDbLine
 10
300.0703374159
 20
111.6175359197
 30
0.0
 11
316.386740561
 21
111.6175359197
 31
0.0
  0
LINE
  5
3FE
330
1F
100
AcDbEntity
  8
0
  6
PHANTOM
 62
     8
370
     0
100
AcDbLine
 10
316.386740561
 20
111.6175359197
 30
0.0
 11
316.429620274
 21
111.6604156326
 31
0.0
  0
LINE
  5
3FF
330
1F
100
AcDbEntity
  8
0
  6
PHANTOM
 62
     8
370
     0
100
AcDbLine
 10
300.0274577029
 20
111.6604156326
 30
0.0
 11
300.0703374159
 21
111.6175359197
 31
0.0
  0
ARC
  5
400
330
1F
100
AcDbEntity
  8
0
  6
PHANTOM
 62
     8
370
     0
100
AcDbCircle
 10
315.0068853763
 20
107.6196257202
 30
0.0
 40
2.246316270381583
100
AcDbArc
 50
84.205272718
 51
91.8662761589
  0
LINE
  5
401
330
1F
100
AcDbEntity
  8
0
  6
PHANTOM
 62
     8
370
     0
100
AcDbLine
 10
314.9337298095
 20
110.089370703
 30
0.0
 11
314.9337298095
 21
109.8647504494
 31
0.0
  0
LINE
  5
402
330
1F
100
AcDbEntity
  8
0
  6
PHANTOM
 62
     8
370
     0
100
AcDbLine
 10
314.9337298095
 20
109.8647504494
 30
0.0
 11
309.2733481674
 21
109.8647504494
 31
0.0
  0
LINE
  5
403
330
1F
100
AcDbEntity
  8
0
  6
PHANTOM
 62
     8
370
     0
100
AcDbLine
 10
309.2733481674
 20
109.8647504494
 30
0.0
 11
309.2733481674
 21
110.089370703
 31
0.0
  0
ARC
  5
404
330
1F
100
AcDbEntity
  8
0
  6
PHANTOM
 62
     8
370
     0
100
AcDbCircle
 10
309.2001926006
 20
107.6196257202
 30
0.0
 40
2.24631627037923
100
AcDbArc
 50
88.1337238411
 51
95.794727282
  0
ARC
  5
405
330
1F
100
AcDbEntity
  8
0
  6
PHANTOM
 62
     8
370
     0
100
AcDbCircle
 10
307.2568853763
 20
107.6196257202
 30
0.0
 40
2.246316270379567
100
AcDbArc
 50
84.205272718
 51
91.8662761589
  0
LINE
  5
406
330
1F
100
AcDbEntity
  8
0
  6
PHANTOM
 62
     8
370
     0
100
AcDbLine
 10
307.1837298095
 20
110.089370703
 30
0.0
 11
307.1837298095
 21
109.8647504494
 31
0.0
  0
LINE
  5
407
330
1F
100
AcDbEntity
  8
0
  6
PHANTOM
 62
     8
370
     0
100
AcDbLine
 10
307.1837298095
 20
109.8647504494
 30
0.0
 11
301.5233481674
 21
109.8647504494
 31
0.0
  0
LINE
  5
408
330
1F
100
AcDbEntity
  8
0
  6
PHANTOM
 62
     8
370
     0
100
AcDbLine
 10
301.5233481674
 20
110.089370703
 30
0.0
 11
301.5233481674
 21
109.8647504494
 31
0.0
  0
ARC
  5
409
330
1F
100
AcDbEntity
  8
0
  6
PHANTOM
 62
     8
370
     0
100
AcDbCircle
 10
301.4501926006
 20
107.6196257202
 30
0.0
 40
2.246316270380676
100
AcDbArc
 50
88.1337238411
 51
95.794727282
  0
ARC
  5
40A
330
1F
100
AcDbEntity
  8
0
  6
PHANTOM
 62
     8
370
     0
100
AcDbCircle
 10
315.0068853763
 20
105.4088848985
 30
0.0
 40
2.246316270375543
100
AcDbArc
 50
84.205272718
 51
91.8662761589
  0
LINE
  5
40B
330
1F
100
AcDbEntity
  8
0
  6
PHANTOM
 62
     8
370
     0
100
AcDbLine
 10
314.9337298095
 20
107.6540096277
 30
0.0
 11
314.9337298095
 21
109.8647504494
 31
0.0
  0
LINE
  5
40C
330
1F
100
AcDbEntity
  8
0
  6
PHANTOM
 62
     8
370
     0
100
AcDbLine
 10
309.2733481674
 20
109.8647504494
 30
0.0
 11
309.2733481674
 21
107.6540096277
 31
0.0
  0
ARC
  5
40D
330
1F
100
AcDbEntity
  8
0
  6
PHANTOM
 62
     8
370
     0
100
AcDbCircle
 10
309.2001926006
 20
105.4088848985
 30
0.0
 40
2.246316270371581
100
AcDbArc
 50
88.1337238411
 51
95.794727282
  0
ARC
  5
40E
330
1F
100
AcDbEntity
  8
0
  6
PHANTOM
 62
     8
370
     0
100
AcDbCircle
 10
307.2568853763
 20
105.4088848985
 30
0.0
 40
2.246316270373524
100
AcDbArc
 50
84.205272718
 51
91.8662761589
  0
LINE
  5
40F
330
1F
100
AcDbEntity
  8
0
  6
PHANTOM
 62
     8
370
     0
100
AcDbLine
 10
307.1837298095
 20
107.6540096277
 30
0.0
 11
307.1837298095
 21
109.8647504494
 31
0.0
  0
LINE
  5
410
330
1F
100
AcDbEntity
  8
0
  6
PHANTOM
 62
     8
370
     0
100
AcDbLine
 10
301.5233481674
 20
109.8647504494
 30
0.0
 11
301.5233481674
 21
107.6540096277
 31
0.0
  0
ARC
  5
411
330
1F
100
AcDbEntity
  8
0
  6
PHANTOM
 62
     8
370
     0
100
AcDbCircle
 10
301.4501926006
 20
105.4088848985
 30
0.0
 40
2.246316270375698
100
AcDbArc
 50
88.1337238411
 51
95.794727282
  0
LINE
  5
412
330
1F
100
AcDbEntity
  8
0
  6
PHANTOM
 62
     8
370
     0
100
AcDbLine
 10
314.9337298095
 20
107.3439509183
 30
0.0
 11
314.9337298095
 21
107.6540096277
 31
0.0
  0
LINE
  5
413
330
1F
100
AcDbEntity
  8
0
  6
PHANTOM
 62
     8
370
     0
100
AcDbLine
 10
309.2733481674
 20
107.6540096277
 30
0.0
 11
309.2733481674
 21
107.3439509183
 31
0.0
  0
LINE
  5
414
330
1F
100
AcDbEntity
  8
0
  6
PHANTOM
 62
     8
370
     0
100
AcDbLine
 10
307.1837298095
 20
107.6540096277
 30
0.0
 11
307.1837298095
 21
107.3439509183
 31
0.0
  0
LINE
  5
415
330
1F
100
AcDbEntity
  8
0
  6
PHANTOM
 62
     8
370
     0
100
AcDbLine
 10
301.5233481674
 20
107.6540096277
 30
0.0
 11
301.5233481674
 21
107.3439509183
 31
0.0
  0
LINE
  5
416
330
1F
100
AcDbEntity
  8
0
  6
PHANTOM
 62
     8
370
     0
100
AcDbLine
 10
309.2733481674
 20
107.6540096277
 30
0.0
 11
314.9337298095
 21
107.6540096277
 31
0.0
  0
LINE
  5
417
330
1F
100
AcDbEntity
  8
0
  6
PHANTOM
 62
     8
370
     0
100
AcDbLine
 10
301.5233481674
 20
107.6540096277
 30
0.0
 11
307.1837298095
 21
107.6540096277
 31
0.0
  0
ENDSEC
  0
SECTION
  2
OBJECTS
  0
DICTIONARY
  5
C
330
0
100
AcDbDictionary
281
     1
  3
ACAD_GROUP
350
D
  3
ACAD_LAYOUT
350
1A
  3
ACAD_MLINESTYLE
350
17
  3
ACAD_PLOTSETTINGS
350
19
  3
ACAD_PLOTSTYLENAME
350
E
  3
ACAD_SCALELIST
350
47
  0
DICTIONARY
  5
D
102
{ACAD_REACTORS
330
C
102
}
330
C
100
AcDbDictionary
281
     1
  0
DICTIONARY
  5
1A
102
{ACAD_REACTORS
330
C
102
}
330
C
100
AcDbDictionary
281
     1
  3
Layout1
350
1E
  3
Layout2
350
26
  3
Model
350
22
  0
DICTIONARY
  5
17
102
{ACAD_REACTORS
330
C
102
}
330
C
100
AcDbDictionary
281
     1
  3
Standard
350
18
  0
DICTIONARY
  5
19
102
{ACAD_REACTORS
330
C
102
}
330
C
100
AcDbDictionary
281
     1
  0
ACDBDICTIONARYWDFLT
  5
E
102
{ACAD_REACTORS
330
C
102
}
330
C
100
AcDbDictionary
281
     1
  3
Normal
350
F
100
AcDbDictionaryWithDefault
340
F
  0
DICTIONARY
  5
47
102
{ACAD_REACTORS
330
C
102
}
330
C
100
AcDbDictionary
281
     1
  3
A0
350
48
  3
A1
350
49
  3
A2
350
4A
  3
A3
350
4B
  3
A4
350
4C
  3
A5
350
4D
  3
A6
350
4E
  3
A7
350
4F
  3
A8
350
50
  3
A9
350
51
  3
B0
350
52
  3
B1
350
53
  3
B2
350
54
  3
B3
350
55
  3
B4
350
56
  3
B5
350
57
  3
B6
350
58
  3
B7
350
59
  3
B8
350
5A
  3
B9
350
5B
  3
C0
350
5C
  3
C1
350
5D
  3
C2
350
5E
  3
C3
350
5F
  3
C4
350
60
  3
C5
350
61
  3
C6
350
62
  3
C7
350
63
  3
C8
350
64
  3
C9
350
65
  3
D0
350
66
  3
D1
350
67
  3
D2
350
68
  0
LAYOUT
  5
1E
102
{ACAD_REACTORS
330
1A
102
}
330
1A
100
AcDbPlotSettings
  1

  2
none_device
  4

  6

 40
0.0
 41
0.0
 42
0.0
 43
0.0
 44
0.0
 45
0.0
 46
0.0
 47
0.0
 48
0.0
 49
0.0
140
0.0
141
0.0
142
1.0
143
1.0
 70
   688
 72
     1
 73
     0
 74
     5
  7

 75
    16
147
1.0
148
0.0
149
0.0
100
AcDbLayout
  1
Layout1
 70
     1
 71
     1
 10
0.0
 20
0.0
 11
420.0
 21
297.0
 12
0.0
 22
0.0
 32
0.0
 14
1.0000000000E+20
 24
1.0000000000E+20
 34
1.0000000000E+20
 15
-1.0000000000E+20
 25
-1.0000000000E+20
 35
-1.0000000000E+20
146
0.0
 13
0.0
 23
0.0
 33
0.0
 16
1.0
 26
0.0
 36
0.0
 17
0.0
 27
1.0
 37
0.0
 76
     0
330
1B
  0
LAYOUT
  5
26
102
{ACAD_REACTORS
330
1A
102
}
330
1A
100
AcDbPlotSettings
  1

  2
none_device
  4

  6

 40
0.0
 41
0.0
 42
0.0
 43
0.0
 44
0.0
 45
0.0
 46
0.0
 47
0.0
 48
0.0
 49
0.0
140
0.0
141
0.0
142
1.0
143
1.0
 70
   688
 72
     1
 73
     0
 74
     5
  7

 75
    16
147
1.0
148
0.0
149
0.0
100
AcDbLayout
  1
Layout2
 70
     1
 71
     2
 10
0.0
 20
0.0
 11
0.0
 21
0.0
 12
0.0
 22
0.0
 32
0.0
 14
0.0
 24
0.0
 34
0.0
 15
0.0
 25
0.0
 35
0.0
146
0.0
 13
0.0
 23
0.0
 33
0.0
 16
1.0
 26
0.0
 36
0.0
 17
0.0
 27
1.0
 37
0.0
 76
     0
330
23
  0
LAYOUT
  5
22
102
{ACAD_REACTORS
330
1A
102
}
330
1A
100
AcDbPlotSettings
  1

  2
none_device
  4
Letter_(8.50_x_11.00_Inches)
  6

 40
6.35
 41
6.35
 42
6.35000508
 43
6.35000508
 44
215.9
 45
279.4
 46
0.0
 47
0.0
 48
0.0
 49
0.0
140
0.0
141
0.0
142
1.0
143
1.0
 70
  1712
 72
     1
 73
     0
 74
     0
  7

 75
     0
147
1.0
148
0.0
149
0.0
100
AcDbLayout
  1
Model
 70
     1
 71
     0
 10
0.0
 20
0.0
 11
1189.0
 21
841.0
 12
0.0
 22
0.0
 32
0.0
 14
0.0
 24
0.0
 34
0.0
 15
1189.0
 25
841.0
 35
0.0
146
0.0
 13
0.0
 23
0.0
 33
0.0
 16
1.0
 26
0.0
 36
0.0
 17
0.0
 27
1.0
 37
0.0
 76
     0
330
1F
331
29
  0
MLINESTYLE
  5
18
102
{ACAD_REACTORS
330
17
102
}
330
17
100
AcDbMlineStyle
  2
Standard
 70
     0
  3

 62
   256
 51
90.0
 52
90.0
 71
     2
 49
0.5
 62
   256
  6
BYLAYER
 49
-0.5
 62
   256
  6
BYLAYER
  0
ACDBPLACEHOLDER
  5
F
102
{ACAD_REACTORS
330
E
102
}
330
E
  0
SCALE
  5
48
102
{ACAD_REACTORS
330
47
102
}
330
47
100
AcDbScale
 70
     0
300
1:1
140
1.0
141
1.0
290
     1
  0
SCALE
  5
49
102
{ACAD_REACTORS
330
47
102
}
330
47
100
AcDbScale
 70
     0
300
1:2
140
1.0
141
2.0
290
     0
  0
SCALE
  5
4A
102
{ACAD_REACTORS
330
47
102
}
330
47
100
AcDbScale
 70
     0
300
1:4
140
1.0
141
4.0
290
     0
  0
SCALE
  5
4B
102
{ACAD_REACTORS
330
47
102
}
330
47
100
AcDbScale
 70
     0
300
1:5
140
1.0
141
5.0
290
     0
  0
SCALE
  5
4C
102
{ACAD_REACTORS
330
47
102
}
330
47
100
AcDbScale
 70
     0
300
1:8
140
1.0
141
8.0
290
     0
  0
SCALE
  5
4D
102
{ACAD_REACTORS
330
47
102
}
330
47
100
AcDbScale
 70
     0
300
1:10
140
1.0
141
10.0
290
     0
  0
SCALE
  5
4E
102
{ACAD_REACTORS
330
47
102
}
330
47
100
AcDbScale
 70
     0
300
1:16
140
1.0
141
16.0
290
     0
  0
SCALE
  5
4F
102
{ACAD_REACTORS
330
47
102
}
330
47
100
AcDbScale
 70
     0
300
1:20
140
1.0
141
20.0
290
     0
  0
SCALE
  5
50
102
{ACAD_REACTORS
330
47
102
}
330
47
100
AcDbScale
 70
     0
300
1:30
140
1.0
141
30.0
290
     0
  0
SCALE
  5
51
102
{ACAD_REACTORS
330
47
102
}
330
47
100
AcDbScale
 70
     0
300
1:40
140
1.0
141
40.0
290
     0
  0
SCALE
  5
52
102
{ACAD_REACTORS
330
47
102
}
330
47
100
AcDbScale
 70
     0
300
1:50
140
1.0
141
50.0
290
     0
  0
SCALE
  5
53
102
{ACAD_REACTORS
330
47
102
}
330
47
100
AcDbScale
 70
     0
300
1:100
140
1.0
141
100.0
290
     0
  0
SCALE
  5
54
102
{ACAD_REACTORS
330
47
102
}
330
47
100
AcDbScale
 70
     0
300
2:1
140
2.0
141
1.0
290
     0
  0
SCALE
  5
55
102
{ACAD_REACTORS
330
47
102
}
330
47
100
AcDbScale
 70
     0
300
4:1
140
4.0
141
1.0
290
     0
  0
SCALE
  5
56
102
{ACAD_REACTORS
330
47
102
}
330
47
100
AcDbScale
 70
     0
300
8:1
140
8.0
141
1.0
290
     0
  0
SCALE
  5
57
102
{ACAD_REACTORS
330
47
102
}
330
47
100
AcDbScale
 70
     0
300
10:1
140
10.0
141
1.0
290
     0
  0
SCALE
  5
58
102
{ACAD_REACTORS
330
47
102
}
330
47
100
AcDbScale
 70
     0
300
100:1
140
100.0
141
1.0
290
     0
  0
SCALE
  5
59
102
{ACAD_REACTORS
330
47
102
}
330
47
100
AcDbScale
 70
     0
300
1/128" = 1'-0"
140
0.0078125
141
12.0
290
     0
  0
SCALE
  5
5A
102
{ACAD_REACTORS
330
47
102
}
330
47
100
AcDbScale
 70
     0
300
1/64" = 1'-0"
140
0.015625
141
12.0
290
     0
  0
SCALE
  5
5B
102
{ACAD_REACTORS
330
47
102
}
330
47
100
AcDbScale
 70
     0
300
1/32" = 1'-0"
140
0.03125
141
12.0
290
     0
  0
SCALE
  5
5C
102
{ACAD_REACTORS
330
47
102
}
330
47
100
AcDbScale
 70
     0
300
1/16" = 1'-0"
140
0.0625
141
12.0
290
     0
  0
SCALE
  5
5D
102
{ACAD_REACTORS
330
47
102
}
330
47
100
AcDbScale
 70
     0
300
3/32" = 1'-0"
140
0.09375
141
12.0
290
     0
  0
SCALE
  5
5E
102
{ACAD_REACTORS
330
47
102
}
330
47
100
AcDbScale
 70
     0
300
1/8" = 1'-0"
140
0.125
141
12.0
290
     0
  0
SCALE
  5
5F
102
{ACAD_REACTORS
330
47
102
}
330
47
100
AcDbScale
 70
     0
300
3/16" = 1'-0"
140
0.1875
141
12.0
290
     0
  0
SCALE
  5
60
102
{ACAD_REACTORS
330
47
102
}
330
47
100
AcDbScale
 70
     0
300
1/4" = 1'-0"
140
0.25
141
12.0
290
     0
  0
SCALE
  5
61
102
{ACAD_REACTORS
330
47
102
}
330
47
100
AcDbScale
 70
     0
300
3/8" = 1'-0"
140
0.375
141
12.0
290
     0
  0
SCALE
  5
62
102
{ACAD_REACTORS
330
47
102
}
330
47
100
AcDbScale
 70
     0
300
1/2" = 1'-0"
140
0.5
141
12.0
290
     0
  0
SCALE
  5
63
102
{ACAD_REACTORS
330
47
102
}
330
47
100
AcDbScale
 70
     0
300
3/4" = 1'-0"
140
0.75
141
12.0
290
     0
  0
SCALE
  5
64
102
{ACAD_REACTORS
330
47
102
}
330
47
100
AcDbScale
 70
     0
300
1" = 1'-0"
140
1.0
141
12.0
290
     0
  0
SCALE
  5
65
102
{ACAD_REACTORS
330
47
102
}
330
47
100
AcDbScale
 70
     0
300
1-1/2" = 1'-0"
140
1.5
141
12.0
290
     0
  0
SCALE
  5
66
102
{ACAD_REACTORS
330
47
102
}
330
47
100
AcDbScale
 70
     0
300
3" = 1'-0"
140
3.0
141
12.0
290
     0
  0
SCALE
  5
67
102
{ACAD_REACTORS
330
47
102
}
330
47
100
AcDbScale
 70
     0
300
6" = 1'-0"
140
6.0
141
12.0
290
     0
  0
SCALE
  5
68
102
{ACAD_REACTORS
330
47
102
}
330
47
100
AcDbScale
 70
     0
300
1'-0" = 1'-0"
140
12.0
141
12.0
290
     0
  0
ENDSEC
  0
EOF
