  0
SECTION
  2
HEADER
  9
$ACADVER
  1
AC1014
  9
$ACADMAINTVER
 70
     9
  9
$DWGCODEPAGE
  3
DOS932
  9
$INSBASE
 10
0.0
 20
0.0
 30
0.0
  9
$EXTMIN
 10
0.0
 20
0.0
 30
0.0
  9
$EXTMAX
 10
1189.0
 20
841.0
 30
0.0
  9
$LIMMIN
 10
0.0
 20
0.0
  9
$LIMMAX
 10
1189.0
 20
841.0
  9
$ORTHOMODE
 70
     0
  9
$REGENMODE
 70
     1
  9
$FILLMODE
 70
     1
  9
$QTEXTMODE
 70
     0
  9
$MIRRTEXT
 70
     1
  9
$DRAGMODE
 70
     2
  9
$LTSCALE
 40
1.0
  9
$OSMODE
 70
    37
  9
$ATTMODE
 70
     1
  9
$TEXTSIZE
 40
4.0
  9
$TRACEWID
 40
1.0
  9
$TEXTSTYLE
  7
STANDARD
  9
$CLAYER
  8
0
  9
$CELTYPE
  6
BYLAYER
  9
$CECOLOR
 62
   256
  9
$CELTSCALE
 40
1.0
  9
$DELOBJ
 70
     1
  9
$DISPSILH
 70
     0
  9
$DIMSCALE
 40
1.0
  9
$DIMASZ
 40
3.0
  9
$DIMEXO
 40
0.0
  9
$DIMDLI
 40
3.75
  9
$DIMRND
 40
0.0
  9
$DIMDLE
 40
0.0
  9
$DIMEXE
 40
1.0
  9
$DIMTP
 40
0.0
  9
$DIMTM
 40
0.0
  9
$DIMTXT
 40
4.0
  9
$DIMCEN
 40
2.5
  9
$DIMTSZ
 40
0.0
  9
$DIMTOL
 70
     0
  9
$DIMLIM
 70
     0
  9
$DIMTIH
 70
     1
  9
$DIMTOH
 70
     1
  9
$DIMSE1
 70
     0
  9
$DIMSE2
 70
     0
  9
$DIMTAD
 70
     1
  9
$DIMZIN
 70
     0
  9
$DIMBLK
  1

  9
$DIMASO
 70
     1
  9
$DIMSHO
 70
     1
  9
$DIMPOST
  1

  9
$DIMAPOST
  1

  9
$DIMALT
 70
     0
  9
$DIMALTD
 70
     3
  9
$DIMALTF
 40
0.0393700787
  9
$DIMLFAC
 40
1.0
  9
$DIMTOFL
 70
     1
  9
$DIMTVP
 40
0.0
  9
$DIMTIX
 70
     0
  9
$DIMSOXD
 70
     0
  9
$DIMSAH
 70
     0
  9
$DIMBLK1
  1

  9
$DIMBLK2
  1

  9
$DIMSTYLE
  2
ISO-25
  9
$DIMCLRD
 70
     0
  9
$DIMCLRE
 70
     0
  9
$DIMCLRT
 70
     0
  9
$DIMTFAC
 40
1.0
  9
$DIMGAP
 40
1.0
  9
$DIMJUST
 70
     0
  9
$DIMSD1
 70
     0
  9
$DIMSD2
 70
     0
  9
$DIMTOLJ
 70
     0
  9
$DIMTZIN
 70
     0
  9
$DIMALTZ
 70
     0
  9
$DIMALTTZ
 70
     0
  9
$DIMFIT
 70
     3
  9
$DIMUPT
 70
     0
  9
$DIMUNIT
 70
     2
  9
$DIMDEC
 70
     2
  9
$DIMTDEC
 70
     2
  9
$DIMALTU
 70
     2
  9
$DIMALTTD
 70
     3
  9
$DIMTXSTY
  7
STANDARD
  9
$DIMAUNIT
 70
     0
  9
$LUNITS
 70
     2
  9
$LUPREC
 70
     2
  9
$SKETCHINC
 40
1.0
  9
$FILLETRAD
 40
10.0
  9
$AUNITS
 70
     0
  9
$AUPREC
 70
     2
  9
$MENU
  1
.
  9
$ELEVATION
 40
0.0
  9
$PELEVATION
 40
0.0
  9
$THICKNESS
 40
0.0
  9
$LIMCHECK
 70
     0
  9
$CHAMFERA
 40
0.0
  9
$CHAMFERB
 40
0.0
  9
$CHAMFERC
 40
0.0
  9
$CHAMFERD
 40
0.0
  9
$SKPOLY
 70
     0
  9
$TDCREATE
 40
2457494.456722165
  9
$TDUPDATE
 40
2457494.45672522
  9
$TDINDWG
 40
0.0000000116
  9
$TDUSRTIMER
 40
0.0000000116
  9
$USRTIMER
 70
     1
  9
$ANGBASE
 50
0.0
  9
$ANGDIR
 70
     0
  9
$PDMODE
 70
     0
  9
$PDSIZE
 40
-1.0
  9
$PLINEWID
 40
0.0
  9
$COORDS
 70
     1
  9
$SPLFRAME
 70
     0
  9
$SPLINETYPE
 70
     6
  9
$SPLINESEGS
 70
     8
  9
$ATTDIA
 70
     0
  9
$ATTREQ
 70
     1
  9
$HANDLING
 70
     1
  9
$HANDSEED
  5
3C5
  9
$SURFTAB1
 70
     6
  9
$SURFTAB2
 70
     6
  9
$SURFTYPE
 70
     6
  9
$SURFU
 70
     6
  9
$SURFV
 70
     6
  9
$UCSNAME
  2

  9
$UCSORG
 10
0.0
 20
0.0
 30
0.0
  9
$UCSXDIR
 10
1.0
 20
0.0
 30
0.0
  9
$UCSYDIR
 10
0.0
 20
1.0
 30
0.0
  9
$PUCSNAME
  2

  9
$PUCSORG
 10
0.0
 20
0.0
 30
0.0
  9
$PUCSXDIR
 10
1.0
 20
0.0
 30
0.0
  9
$PUCSYDIR
 10
0.0
 20
1.0
 30
0.0
  9
$USERI1
 70
     0
  9
$USERI2
 70
     0
  9
$USERI3
 70
     0
  9
$USERI4
 70
     0
  9
$USERI5
 70
     0
  9
$USERR1
 40
0.0
  9
$USERR2
 40
0.0
  9
$USERR3
 40
0.0
  9
$USERR4
 40
0.0
  9
$USERR5
 40
0.0
  9
$WORLDVIEW
 70
     1
  9
$SHADEDGE
 70
     3
  9
$SHADEDIF
 70
    70
  9
$TILEMODE
 70
     1
  9
$MAXACTVP
 70
    64
  9
$PINSBASE
 10
0.0
 20
0.0
 30
0.0
  9
$PLIMCHECK
 70
     0
  9
$PEXTMIN
 10
1.0000000000E+20
 20
1.0000000000E+20
 30
1.0000000000E+20
  9
$PEXTMAX
 10
-1.0000000000E+20
 20
-1.0000000000E+20
 30
-1.0000000000E+20
  9
$PLIMMIN
 10
0.0
 20
0.0
  9
$PLIMMAX
 10
420.0
 20
297.0
  9
$UNITMODE
 70
     0
  9
$VISRETAIN
 70
     1
  9
$PLINEGEN
 70
     0
  9
$PSLTSCALE
 70
     1
  9
$TREEDEPTH
 70
  3020
  9
$PICKSTYLE
 70
     1
  9
$CMLSTYLE
  2
STANDARD
  9
$CMLJUST
 70
     0
  9
$CMLSCALE
 40
20.0
  9
$PROXYGRAPHICS
 70
     1
  9
$MEASUREMENT
 70
     1
  0
ENDSEC
  0
SECTION
  2
CLASSES
  0
CLASS
  1
ACDBDICTIONARYWDFLT
  2
AcDbDictionaryWithDefault
  3
ObjectDBX Classes
 90
        0
280
     0
281
     0
  0
CLASS
  1
VISUALSTYLE
  2
AcDbVisualStyle
  3
ObjectDBX Classes
 90
     4095
280
     0
281
     0
  0
CLASS
  1
MATERIAL
  2
AcDbMaterial
  3
ObjectDBX Classes
 90
     1153
280
     0
281
     0
  0
CLASS
  1
SCALE
  2
AcDbScale
  3
ObjectDBX Classes
 90
     1153
280
     0
281
     0
  0
CLASS
  1
SUN
  2
AcDbSun
  3
SCENEOE
 90
     1153
280
     0
281
     0
  0
CLASS
  1
XRECORD
  2
AcDbXrecord
  3
ObjectDBX Classes
 90
        0
280
     0
281
     0
  0
CLASS
  1
LWPOLYLINE
  2
AcDbPolyline
  3
ObjectDBX Classes
 90
        0
280
     0
281
     1
  0
CLASS
  1
HATCH
  2
AcDbHatch
  3
ObjectDBX Classes
 90
        0
280
     0
281
     1
  0
ENDSEC
  0
SECTION
  2
TABLES
  0
TABLE
  2
VPORT
  5
8
330
0
100
AcDbSymbolTable
 70
     1
  0
VPORT
  5
29
330
8
100
AcDbSymbolTableRecord
100
AcDbViewportTableRecord
  2
*ACTIVE
 70
     0
 10
0.0
 20
0.0
 11
1.0
 21
1.0
 12
594.5
 22
420.5
 13
0.0
 23
0.0
 14
10.0
 24
10.0
 15
10.0
 25
10.0
 16
0.0
 26
0.0
 36
1.0
 17
0.0
 27
0.0
 37
0.0
 40
841.0
 41
1.4137931034
 42
50.0
 43
0.0
 44
0.0
 50
0.0
 51
0.0
 71
     0
 72
  2000
 73
     1
 74
     3
 75
     0
 76
     0
 77
     0
 78
     0
  0
ENDTAB
  0
TABLE
  2
LTYPE
  5
5
330
0
100
AcDbSymbolTable
 70
     6
  0
LTYPE
  5
14
330
5
100
AcDbSymbolTableRecord
100
AcDbLinetypeTableRecord
  2
BYBLOCK
 70
     0
  3

 72
    65
 73
     0
 40
0.0
  0
LTYPE
  5
15
330
5
100
AcDbSymbolTableRecord
100
AcDbLinetypeTableRecord
  2
BYLAYER
 70
     0
  3

 72
    65
 73
     0
 40
0.0
  0
LTYPE
  5
16
330
5
100
AcDbSymbolTableRecord
100
AcDbLinetypeTableRecord
  2
CONTINUOUS
 70
     0
  3
Solid line
 72
    65
 73
     0
 40
0.0
  0
LTYPE
  5
6A
330
5
100
AcDbSymbolTableRecord
100
AcDbLinetypeTableRecord
  2
HIDDEN
 70
     0
  3
Hidden __ __ __ __ __ __ __ __ __ __ __ __ __ __
 72
    65
 73
     2
 40
1.905
 49
1.27
 74
     0
 49
-0.635
 74
     0
  0
LTYPE
  5
6B
330
5
100
AcDbSymbolTableRecord
100
AcDbLinetypeTableRecord
  2
PHANTOM
 70
     0
  3
Phantom ______  __  __  ______  __  __  ______
 72
    65
 73
     6
 40
12.7
 49
6.35
 74
     0
 49
-1.27
 74
     0
 49
1.27
 74
     0
 49
-1.27
 74
     0
 49
1.27
 74
     0
 49
-1.27
 74
     0
  0
LTYPE
  5
6C
330
5
100
AcDbSymbolTableRecord
100
AcDbLinetypeTableRecord
  2
CENTER
 70
     0
  3
Center ____ _ ____ _ ____ _ ____ _ ____ _ ____
 72
    65
 73
     4
 40
10.16
 49
6.35
 74
     0
 49
-1.27
 74
     0
 49
1.27
 74
     0
 49
-1.27
 74
     0
  0
LTYPE
  5
6D
330
5
100
AcDbSymbolTableRecord
100
AcDbLinetypeTableRecord
  2
CENTERX2
 70
     0
  3
Center (2x) ________  __  ________  __  _____
 72
    65
 73
     4
 40
20.32
 49
12.7
 74
     0
 49
-2.54
 74
     0
 49
2.54
 74
     0
 49
-2.54
 74
     0
  0
LTYPE
  5
6E
330
5
100
AcDbSymbolTableRecord
100
AcDbLinetypeTableRecord
  2
DOT2
 70
     0
  3
Dot (.5x) ........................................
 72
    65
 73
     2
 40
0.635
 49
0.0
 74
     0
 49
-0.635
 74
     0
  0
ENDTAB
  0
TABLE
  2
LAYER
  5
2
330
0
100
AcDbSymbolTable
 70
     6
  0
LAYER
  5
10
330
2
100
AcDbSymbolTableRecord
100
AcDbLayerTableRecord
  2
0
 70
     0
 62
     7
  6
CONTINUOUS
  0
LAYER
  5
6F
330
2
100
AcDbSymbolTableRecord
100
AcDbLayerTableRecord
  2
SLD-0
 70
     0
 62
     7
  6
CONTINUOUS
  0
LAYER
  5
70
330
2
100
AcDbSymbolTableRecord
100
AcDbLayerTableRecord
  2
8
 70
     0
 62
     7
  6
CONTINUOUS
  0
LAYER
  5
71
330
2
100
AcDbSymbolTableRecord
100
AcDbLayerTableRecord
  2
9
 70
     0
 62
     7
  6
CONTINUOUS
  0
LAYER
  5
72
330
2
100
AcDbSymbolTableRecord
100
AcDbLayerTableRecord
  2
10
 70
     0
 62
     1
  6
CONTINUOUS
  0
LAYER
  5
73
330
2
100
AcDbSymbolTableRecord
100
AcDbLayerTableRecord
  2
11
 70
     0
 62
     7
  6
CONTINUOUS
  0
ENDTAB
  0
TABLE
  2
STYLE
  5
3
330
0
100
AcDbSymbolTable
 70
     2
  0
STYLE
  5
11
330
3
100
AcDbSymbolTableRecord
100
AcDbTextStyleTableRecord
  2
STANDARD
 70
     0
 40
0.0
 41
1.0
 50
0.0
 71
     0
 42
4.0
  3
txt
  4
bigfont
  0
STYLE
  5
7E
330
3
100
AcDbSymbolTableRecord
100
AcDbTextStyleTableRecord
  2
SLDTEXTSTYLE0
 70
     0
 40
0.0
 41
0.7
 50
0.0
 71
     0
 42
4.0
  3
TXT
  4
bigfont
  0
ENDTAB
  0
TABLE
  2
VIEW
  5
6
330
0
100
AcDbSymbolTable
 70
     0
  0
ENDTAB
  0
TABLE
  2
UCS
  5
7
330
0
100
AcDbSymbolTable
 70
     0
  0
ENDTAB
  0
TABLE
  2
APPID
  5
9
330
0
100
AcDbSymbolTable
 70
     1
  0
APPID
  5
12
330
9
100
AcDbSymbolTableRecord
100
AcDbRegAppTableRecord
  2
ACAD
 70
     0
  0
ENDTAB
  0
TABLE
  2
DIMSTYLE
  5
A
330
0
100
AcDbSymbolTable
 70
     1
  0
DIMSTYLE
105
27
330
A
100
AcDbSymbolTableRecord
100
AcDbDimStyleTableRecord
  2
ISO-25
 70
     0
  3

  4

  5

  6

  7

 40
1.0
 41
2.5
 42
0.625
 43
3.75
 44
1.25
 45
0.0
 46
0.0
 47
0.0
 48
0.0
140
2.5
141
2.5
142
0.0
143
0.0393700787
144
1.0
145
0.0
146
1.0
147
0.625
 71
     0
 72
     0
 73
     0
 74
     0
 75
     0
 76
     0
 77
     1
 78
     8
170
     0
171
     3
172
     1
173
     0
174
     0
175
     0
176
     0
177
     0
178
     0
270
     2
271
     2
272
     2
273
     2
274
     3
340
11
275
     0
280
     0
281
     0
282
     0
283
     0
284
     8
285
     0
286
     0
287
     3
288
     0
  0
ENDTAB
  0
TABLE
  2
BLOCK_RECORD
  5
1
330
0
100
AcDbSymbolTable
 70
     4
  0
BLOCK_RECORD
  5
1F
330
1
100
AcDbSymbolTableRecord
100
AcDbBlockTableRecord
  2
*MODEL_SPACE
  0
BLOCK_RECORD
  5
1B
330
1
100
AcDbSymbolTableRecord
100
AcDbBlockTableRecord
  2
*PAPER_SPACE
  0
BLOCK_RECORD
  5
23
330
1
100
AcDbSymbolTableRecord
100
AcDbBlockTableRecord
  2
*PAPER_SPACE0
  0
BLOCK_RECORD
  5
74
330
1
100
AcDbSymbolTableRecord
100
AcDbBlockTableRecord
  2
ﾌﾞﾛｯｸ2
  0
BLOCK_RECORD
  5
86
330
1
100
AcDbSymbolTableRecord
100
AcDbBlockTableRecord
  2
新SUGATSUNEロゴ
  0
BLOCK_RECORD
  5
164
330
1
100
AcDbSymbolTableRecord
100
AcDbBlockTableRecord
  2
ﾌﾞﾛｯｸ1
  0
ENDTAB
  0
ENDSEC
  0
SECTION
  2
BLOCKS
  0
BLOCK
  5
20
330
1F
100
AcDbEntity
  8
0
100
AcDbBlockBegin
  2
*MODEL_SPACE
 70
     0
 10
0.0
 20
0.0
 30
0.0
  3
*MODEL_SPACE
  1

  0
ENDBLK
  5
21
330
1F
100
AcDbEntity
  8
0
100
AcDbBlockEnd
  0
BLOCK
  5
1C
330
1B
100
AcDbEntity
 67
     1
  8
0
100
AcDbBlockBegin
  2
*PAPER_SPACE
 70
     0
 10
0.0
 20
0.0
 30
0.0
  3
*PAPER_SPACE
  1

  0
ENDBLK
  5
1D
330
1B
100
AcDbEntity
 67
     1
  8
0
100
AcDbBlockEnd
  0
BLOCK
  5
24
330
23
100
AcDbEntity
  8
0
100
AcDbBlockBegin
  2
*PAPER_SPACE0
 70
     0
 10
0.0
 20
0.0
 30
0.0
  3
*PAPER_SPACE0
  1
*PAPER_SPACE0
  0
ENDBLK
  5
25
330
23
100
AcDbEntity
  8
0
100
AcDbBlockEnd
  0
BLOCK
  5
75
330
74
100
AcDbEntity
  8
0
100
AcDbBlockBegin
  2
ﾌﾞﾛｯｸ2
 70
     2
 10
0.0
 20
0.0
 30
0.0
  3
ﾌﾞﾛｯｸ2
  1
ﾌﾞﾛｯｸ2
  0
LINE
  5
77
330
74
100
AcDbEntity
  8
8
100
AcDbLine
 10
0.0
 20
21.0
 30
0.0
 11
135.0
 21
21.0
 31
0.0
  0
LINE
  5
78
330
74
100
AcDbEntity
  8
8
100
AcDbLine
 10
0.0
 20
0.0
 30
0.0
 11
135.0
 21
0.0
 31
0.0
  0
LINE
  5
79
330
74
100
AcDbEntity
  8
8
100
AcDbLine
 10
135.0
 20
21.0
 30
0.0
 11
135.0
 21
0.0
 31
0.0
  0
LINE
  5
7A
330
74
100
AcDbEntity
  8
9
100
AcDbLine
 10
36.0
 20
7.0
 30
0.0
 11
135.0
 21
7.0
 31
0.0
  0
LINE
  5
7B
330
74
100
AcDbEntity
  8
9
100
AcDbLine
 10
36.0
 20
0.0
 30
0.0
 11
36.0
 21
21.0
 31
0.0
  0
LINE
  5
7C
330
74
100
AcDbEntity
  8
9
100
AcDbLine
 10
65.0
 20
21.0
 30
0.0
 11
65.0
 21
0.0
 31
0.0
  0
LINE
  5
7D
330
74
100
AcDbEntity
  8
8
  6
CONTINUOUS
 62
     7
100
AcDbLine
 10
0.0
 20
21.0
 30
0.0
 11
0.0
 21
0.0
 31
0.0
  0
ATTDEF
  5
7F
330
74
100
AcDbEntity
  8
SLD-0
 62
     7
100
AcDbText
 10
78.3050930978
 20
15.9259892778
 30
0.0
 40
4.0
  1
230-(C)26/19T
 41
0.7
  7
SLDTEXTSTYLE0
 11
78.3050930978
 21
14.5129490301
 31
0.0
100
AcDbAttributeDefinition
  3

  2
AUTOATTR0
 70
     0
 74
     1
  0
ATTDEF
  5
80
330
74
100
AcDbEntity
  8
SLD-0
 62
     7
100
AcDbText
 10
78.3050930978
 20
9.8784312972
 30
0.0
 40
4.0
  1
230-P4W-32T
 41
0.7
  7
SLDTEXTSTYLE0
 11
78.3050930978
 21
8.4653910495
 31
0.0
100
AcDbAttributeDefinition
  3

  2
AUTOATTR0
 70
     0
 74
     1
  0
ATTDEF
  5
81
330
74
100
AcDbEntity
  8
SLD-0
 62
     7
100
AcDbText
 10
66.9646413579
 20
16.8429035566
 30
0.0
 40
2.38125
  1
Title
 41
0.7
  7
SLDTEXTSTYLE0
 11
66.9646413579
 21
16.0017030342
 31
0.0
100
AcDbAttributeDefinition
  3

  2
AUTOATTR0
 70
     0
 74
     1
  0
ATTDEF
  5
82
330
74
100
AcDbEntity
  8
SLD-0
 62
     7
100
AcDbText
 10
66.9646413579
 20
2.4516379051
 30
0.0
 40
2.38125
  1
Date
 41
0.7
  7
SLDTEXTSTYLE0
 11
66.9646413579
 21
1.6104373826
 31
0.0
100
AcDbAttributeDefinition
  3

  2
AUTOATTR0
 70
     0
 74
     1
  0
ATTDEF
  5
83
330
74
100
AcDbEntity
  8
SLD-0
 62
     7
100
AcDbText
 10
51.857512217
 20
2.0282473934
 30
0.0
 40
4.0
  1
1:1
 41
0.7
  7
SLDTEXTSTYLE0
 11
51.857512217
 21
0.6152071457
 31
0.0
100
AcDbAttributeDefinition
  3

  2
AUTOATTR0
 70
     0
 74
     1
  0
ATTDEF
  5
84
330
74
100
AcDbEntity
  8
SLD-0
 62
     7
100
AcDbText
 10
38.4275608796
 20
2.4516379051
 30
0.0
 40
2.38125
  1
Scale
 41
0.7
  7
SLDTEXTSTYLE0
 11
38.4275608796
 21
1.6104373826
 31
0.0
100
AcDbAttributeDefinition
  3

  2
AUTOATTR0
 70
     0
 74
     1
  0
ATTDEF
  5
85
330
74
100
AcDbEntity
  8
SLD-0
 62
     7
100
AcDbText
 10
78.3050930978
 20
2.0282473934
 30
0.0
 40
4.0
  1
2015/05/19
 41
0.7
  7
SLDTEXTSTYLE0
 11
78.3050930978
 21
0.6152071457
 31
0.0
100
AcDbAttributeDefinition
  3

  2
AUTOATTR0
 70
     0
 74
     1
  0
INSERT
  5
170
330
74
100
AcDbEntity
  8
0
  6
CONTINUOUS
 62
     7
100
AcDbBlockReference
  2
新SUGATSUNEロゴ
 10
0.0273220162
 20
-1.67308293
 30
0.0
  0
INSERT
  5
171
330
74
100
AcDbEntity
  8
0
  6
CONTINUOUS
 62
     7
100
AcDbBlockReference
  2
ﾌﾞﾛｯｸ1
 10
39.5300077037
 20
10.3519919558
 30
0.0
  0
ENDBLK
  5
76
330
74
100
AcDbEntity
  8
0
100
AcDbBlockEnd
  0
BLOCK
  5
87
330
86
100
AcDbEntity
  8
0
100
AcDbBlockBegin
  2
新SUGATSUNEロゴ
 70
     0
 10
0.0
 20
0.0
 30
0.0
  3
新SUGATSUNEロゴ
  1
新SUGATSUNEロゴ
  0
LINE
  5
89
330
86
100
AcDbEntity
  8
0
100
AcDbLine
 10
32.7336985468
 20
9.4483046908
 30
0.0
 11
31.5209513067
 21
9.4483046908
 31
0.0
  0
LINE
  5
8A
330
86
100
AcDbEntity
  8
0
100
AcDbLine
 10
31.5209513067
 20
9.4483046908
 30
0.0
 11
31.5209513067
 21
11.8677744187
 31
0.0
  0
LINE
  5
8B
330
86
100
AcDbEntity
  8
0
100
AcDbLine
 10
31.5209513067
 20
11.8677744187
 30
0.0
 11
32.484911708
 21
11.8677744187
 31
0.0
  0
LINE
  5
8C
330
86
100
AcDbEntity
  8
0
100
AcDbLine
 10
32.484911708
 20
11.8677744187
 30
0.0
 11
32.484911708
 21
12.7076957977
 31
0.0
  0
LINE
  5
8D
330
86
100
AcDbEntity
  8
0
100
AcDbLine
 10
32.484911708
 20
12.7076957977
 30
0.0
 11
31.5209513067
 21
12.7076957977
 31
0.0
  0
LINE
  5
8E
330
86
100
AcDbEntity
  8
0
100
AcDbLine
 10
31.5209513067
 20
12.7076957977
 30
0.0
 11
31.5209513067
 21
14.492440129
 31
0.0
  0
LINE
  5
8F
330
86
100
AcDbEntity
  8
0
100
AcDbLine
 10
31.5209513067
 20
14.492440129
 30
0.0
 11
32.5596186391
 21
14.492440129
 31
0.0
  0
LINE
  5
90
330
86
100
AcDbEntity
  8
0
100
AcDbLine
 10
32.5596186391
 20
14.492440129
 30
0.0
 11
32.5596186391
 21
15.3325032669
 31
0.0
  0
LINE
  5
91
330
86
100
AcDbEntity
  8
0
100
AcDbLine
 10
32.5596186391
 20
15.3325032669
 30
0.0
 11
30.6808881687
 21
15.3325032669
 31
0.0
  0
LINE
  5
92
330
86
100
AcDbEntity
  8
0
100
AcDbLine
 10
30.6808881687
 20
15.3325032669
 30
0.0
 11
30.6808881687
 21
8.5904508131
 31
0.0
  0
LINE
  5
93
330
86
100
AcDbEntity
  8
0
100
AcDbLine
 10
30.6808881687
 20
8.5904508131
 30
0.0
 11
32.7336985468
 21
8.5896002598
 31
0.0
  0
LINE
  5
94
330
86
100
AcDbEntity
  8
0
100
AcDbLine
 10
32.7336985468
 20
8.5896002598
 30
0.0
 11
32.7336985468
 21
9.4483046908
 31
0.0
  0
LINE
  5
95
330
86
100
AcDbEntity
  8
0
100
AcDbLine
 10
21.049364412
 20
15.3325032669
 30
0.0
 11
18.7355759311
 21
15.3325032669
 31
0.0
  0
LINE
  5
96
330
86
100
AcDbEntity
  8
0
100
AcDbLine
 10
18.7355759311
 20
15.3325032669
 30
0.0
 11
18.7355759311
 21
14.492440129
 31
0.0
  0
LINE
  5
97
330
86
100
AcDbEntity
  8
0
100
AcDbLine
 10
18.7355759311
 20
14.492440129
 30
0.0
 11
19.4922848461
 21
14.492440129
 31
0.0
  0
LINE
  5
98
330
86
100
AcDbEntity
  8
0
100
AcDbLine
 10
19.4922848461
 20
14.492440129
 30
0.0
 11
19.4922848461
 21
8.5904508131
 31
0.0
  0
LINE
  5
99
330
86
100
AcDbEntity
  8
0
100
AcDbLine
 10
19.4922848461
 20
8.5904508131
 30
0.0
 11
20.3323479841
 21
8.5904508131
 31
0.0
  0
LINE
  5
9A
330
86
100
AcDbEntity
  8
0
100
AcDbLine
 10
20.3323479841
 20
8.5904508131
 30
0.0
 11
20.3323479841
 21
14.492440129
 31
0.0
  0
LINE
  5
9B
330
86
100
AcDbEntity
  8
0
100
AcDbLine
 10
20.3323479841
 20
14.492440129
 30
0.0
 11
21.049364412
 21
14.492440129
 31
0.0
  0
LINE
  5
9C
330
86
100
AcDbEntity
  8
0
100
AcDbLine
 10
21.049364412
 20
14.492440129
 30
0.0
 11
21.049364412
 21
15.3325032669
 31
0.0
  0
LINE
  5
9D
330
86
100
AcDbEntity
  8
0
100
AcDbLine
 10
29.175550595
 20
15.3418593532
 30
0.0
 11
29.175550595
 21
10.4115562977
 31
0.0
  0
LINE
  5
9E
330
86
100
AcDbEntity
  8
0
100
AcDbLine
 10
29.175550595
 20
10.4115562977
 30
0.0
 11
28.3179093556
 21
15.3418593532
 31
0.0
  0
LINE
  5
9F
330
86
100
AcDbEntity
  8
0
100
AcDbLine
 10
28.3179093556
 20
15.3418593532
 30
0.0
 11
26.9115194818
 21
15.3418593532
 31
0.0
  0
LINE
  5
A0
330
86
100
AcDbEntity
  8
0
100
AcDbLine
 10
26.9115194818
 20
15.3418593532
 30
0.0
 11
26.9115194818
 21
8.5904508131
 31
0.0
  0
LINE
  5
A1
330
86
100
AcDbEntity
  8
0
100
AcDbLine
 10
26.9115194818
 20
8.5904508131
 30
0.0
 11
27.7517243787
 21
8.5904508131
 31
0.0
  0
LINE
  5
A2
330
86
100
AcDbEntity
  8
0
100
AcDbLine
 10
27.7517243787
 20
8.5904508131
 30
0.0
 11
27.7517243787
 21
13.7348097812
 31
0.0
  0
LINE
  5
A3
330
86
100
AcDbEntity
  8
0
100
AcDbLine
 10
27.7517243787
 20
13.7348097812
 30
0.0
 11
28.6387097068
 21
8.5883244299
 31
0.0
  0
LINE
  5
A4
330
86
100
AcDbEntity
  8
0
100
AcDbLine
 10
28.6387097068
 20
8.5883244299
 30
0.0
 11
30.0157554918
 21
8.5904508131
 31
0.0
  0
LINE
  5
A5
330
86
100
AcDbEntity
  8
0
100
AcDbLine
 10
30.0157554918
 20
8.5904508131
 30
0.0
 11
30.0157554918
 21
15.3418593532
 31
0.0
  0
LINE
  5
A6
330
86
100
AcDbEntity
  8
0
100
AcDbLine
 10
30.0157554918
 20
15.3418593532
 30
0.0
 11
29.175550595
 21
15.3418593532
 31
0.0
  0
LINE
  5
A7
330
86
100
AcDbEntity
  8
0
100
AcDbLine
 10
3.3854988525
 20
9.4534080106
 30
0.0
 11
3.292575905
 21
9.4549673583
 31
0.0
  0
LINE
  5
A8
330
86
100
AcDbEntity
  8
0
100
AcDbLine
 10
3.292575905
 20
9.4549673583
 30
0.0
 11
3.292575905
 21
8.5959794095
 31
0.0
  0
LINE
  5
A9
330
86
100
AcDbEntity
  8
0
100
AcDbLine
 10
3.292575905
 20
8.5959794095
 30
0.0
 11
3.4568035704
 21
8.5959794095
 31
0.0
  0
LINE
  5
AA
330
86
100
AcDbEntity
  8
0
100
AcDbLine
 10
4.9498790008
 20
9.2970479632
 30
0.0
 11
4.9498790008
 21
9.2973314809
 31
0.0
  0
LINE
  5
AB
330
86
100
AcDbEntity
  8
0
100
AcDbLine
 10
4.9498790008
 20
14.5159721035
 30
0.0
 11
4.9498790008
 21
15.3285340182
 31
0.0
  0
LINE
  5
AC
330
86
100
AcDbEntity
  8
0
100
AcDbLine
 10
4.9498790008
 20
15.3285340182
 30
0.0
 11
4.6043417246
 21
15.3285340182
 31
0.0
  0
LINE
  5
AD
330
86
100
AcDbEntity
  8
0
100
AcDbLine
 10
21.230390505
 20
9.4534080106
 30
0.0
 11
21.1375384369
 21
9.4549673583
 31
0.0
  0
LINE
  5
AE
330
86
100
AcDbEntity
  8
0
100
AcDbLine
 10
21.1375384369
 20
9.4549673583
 30
0.0
 11
21.1375384369
 21
8.5959794095
 31
0.0
  0
LINE
  5
AF
330
86
100
AcDbEntity
  8
0
100
AcDbLine
 10
21.1375384369
 20
8.5959794095
 30
0.0
 11
21.301553464
 21
8.5959794095
 31
0.0
  0
LINE
  5
B0
330
86
100
AcDbEntity
  8
0
100
AcDbLine
 10
22.7946997739
 20
9.2970479632
 30
0.0
 11
22.7946997739
 21
9.2973314809
 31
0.0
  0
LINE
  5
B1
330
86
100
AcDbEntity
  8
0
100
AcDbLine
 10
22.7946997739
 20
14.5159721035
 30
0.0
 11
22.7946997739
 21
15.3285340182
 31
0.0
  0
LINE
  5
B2
330
86
100
AcDbEntity
  8
0
100
AcDbLine
 10
22.7946997739
 20
15.3285340182
 30
0.0
 11
22.4490916182
 21
15.3285340182
 31
0.0
  0
LINE
  5
B3
330
86
100
AcDbEntity
  8
0
 62
     1
100
AcDbLine
 10
12.1710764777
 20
17.9278248886
 30
0.0
 11
9.7662787942
 21
17.9278248886
 31
0.0
  0
LINE
  5
B4
330
86
100
AcDbEntity
  8
0
 62
     1
100
AcDbLine
 10
9.7662787942
 20
17.9278248886
 30
0.0
 11
9.7662787942
 21
20.3329060898
 31
0.0
  0
LINE
  5
B5
330
86
100
AcDbEntity
  8
0
 62
     1
100
AcDbLine
 10
9.7662787942
 20
20.3329060898
 30
0.0
 11
12.1710764777
 21
20.3329060898
 31
0.0
  0
LINE
  5
B6
330
86
100
AcDbEntity
  8
0
 62
     1
100
AcDbLine
 10
12.1710764777
 20
20.3329060898
 30
0.0
 11
12.1710764777
 21
17.9278248886
 31
0.0
  0
LINE
  5
B7
330
86
100
AcDbEntity
  8
0
 62
     1
100
AcDbLine
 10
12.1710764777
 20
3.67
 30
0.0
 11
9.7662787942
 21
3.67
 31
0.0
  0
LINE
  5
B8
330
86
100
AcDbEntity
  8
0
 62
     1
100
AcDbLine
 10
9.7662787942
 20
3.67
 30
0.0
 11
9.7662787942
 21
6.0749394424
 31
0.0
  0
LINE
  5
B9
330
86
100
AcDbEntity
  8
0
 62
     1
100
AcDbLine
 10
9.7662787942
 20
6.0749394424
 30
0.0
 11
12.1710764777
 21
6.0749394424
 31
0.0
  0
LINE
  5
BA
330
86
100
AcDbEntity
  8
0
 62
     1
100
AcDbLine
 10
12.1710764777
 20
6.0749394424
 30
0.0
 11
12.1710764777
 21
3.67
 31
0.0
  0
LINE
  5
BB
330
86
100
AcDbEntity
  8
0
 62
     1
100
AcDbLine
 10
25.8269222715
 20
17.9278248886
 30
0.0
 11
23.422124588
 21
17.9278248886
 31
0.0
  0
LINE
  5
BC
330
86
100
AcDbEntity
  8
0
 62
     1
100
AcDbLine
 10
23.422124588
 20
17.9278248886
 30
0.0
 11
23.422124588
 21
20.3329060898
 31
0.0
  0
LINE
  5
BD
330
86
100
AcDbEntity
  8
0
 62
     1
100
AcDbLine
 10
23.422124588
 20
20.3329060898
 30
0.0
 11
25.8269222715
 21
20.3329060898
 31
0.0
  0
LINE
  5
BE
330
86
100
AcDbEntity
  8
0
 62
     1
100
AcDbLine
 10
25.8269222715
 20
20.3329060898
 30
0.0
 11
25.8269222715
 21
17.9278248886
 31
0.0
  0
LINE
  5
BF
330
86
100
AcDbEntity
  8
0
 62
     1
100
AcDbLine
 10
25.8269222715
 20
3.67
 30
0.0
 11
23.422124588
 21
3.67
 31
0.0
  0
LINE
  5
C0
330
86
100
AcDbEntity
  8
0
 62
     1
100
AcDbLine
 10
23.422124588
 20
3.67
 30
0.0
 11
23.422124588
 21
6.0749394424
 31
0.0
  0
LINE
  5
C1
330
86
100
AcDbEntity
  8
0
 62
     1
100
AcDbLine
 10
23.422124588
 20
6.0749394424
 30
0.0
 11
25.8269222715
 21
6.0749394424
 31
0.0
  0
LINE
  5
C2
330
86
100
AcDbEntity
  8
0
 62
     1
100
AcDbLine
 10
25.8269222715
 20
6.0749394424
 30
0.0
 11
25.8269222715
 21
3.67
 31
0.0
  0
LINE
  5
C3
330
86
100
AcDbEntity
  8
0
100
AcDbLine
 10
8.2465526938
 20
15.3418593532
 30
0.0
 11
7.4064186764
 21
15.3418593532
 31
0.0
  0
LINE
  5
C4
330
86
100
AcDbEntity
  8
0
100
AcDbLine
 10
7.4064186764
 20
15.3418593532
 30
0.0
 11
7.4025203072
 21
9.7790281638
 31
0.0
  0
LINE
  5
C5
330
86
100
AcDbEntity
  8
0
100
AcDbLine
 10
6.5577791261
 20
9.7866831435
 30
0.0
 11
6.554873069
 21
15.3418593532
 31
0.0
  0
LINE
  5
C6
330
86
100
AcDbEntity
  8
0
100
AcDbLine
 10
6.554873069
 20
15.3418593532
 30
0.0
 11
5.7147390516
 21
15.3418593532
 31
0.0
  0
LINE
  5
C7
330
86
100
AcDbEntity
  8
0
100
AcDbLine
 10
26.1769249525
 20
15.3418593532
 30
0.0
 11
25.3368618145
 21
15.3418593532
 31
0.0
  0
LINE
  5
C8
330
86
100
AcDbEntity
  8
0
100
AcDbLine
 10
25.3368618145
 20
15.3418593532
 30
0.0
 11
25.3327508069
 21
9.7790281638
 31
0.0
  0
LINE
  5
C9
330
86
100
AcDbEntity
  8
0
100
AcDbLine
 10
24.4880096259
 20
9.7866831435
 30
0.0
 11
24.4851744482
 21
15.3418593532
 31
0.0
  0
LINE
  5
CA
330
86
100
AcDbEntity
  8
0
100
AcDbLine
 10
24.4851744482
 20
15.3418593532
 30
0.0
 11
23.6451113103
 21
15.3418593532
 31
0.0
  0
LINE
  5
CB
330
86
100
AcDbEntity
  8
0
100
AcDbLine
 10
12.9538690271
 20
12.6636087853
 30
0.0
 11
11.909956616
 21
11.8235456473
 31
0.0
  0
LINE
  5
CC
330
86
100
AcDbEntity
  8
0
100
AcDbLine
 10
11.909956616
 20
11.8235456473
 30
0.0
 11
14.4506301884
 21
11.8235456473
 31
0.0
  0
LINE
  5
CD
330
86
100
AcDbEntity
  8
0
100
AcDbLine
 10
14.4506301884
 20
11.8235456473
 30
0.0
 11
14.4506301884
 21
10.4153837876
 31
0.0
  0
LINE
  5
CE
330
86
100
AcDbEntity
  8
0
100
AcDbLine
 10
14.5099562808
 20
13.5421594598
 30
0.0
 11
15.2200265234
 21
14.0836783912
 31
0.0
  0
LINE
  5
CF
330
86
100
AcDbEntity
  8
0
100
AcDbLine
 10
15.2916856385
 20
10.0266809316
 30
0.0
 11
15.2905515675
 21
12.6636087853
 31
0.0
  0
LINE
  5
D0
330
86
100
AcDbEntity
  8
0
100
AcDbLine
 10
15.2905515675
 20
12.6636087853
 30
0.0
 11
12.9538690271
 21
12.6636087853
 31
0.0
  0
LINE
  5
D1
330
86
100
AcDbEntity
  8
0
100
AcDbLine
 10
17.7875634041
 20
15.3342043735
 30
0.0
 11
16.3643042233
 21
15.3342043735
 31
0.0
  0
LINE
  5
D2
330
86
100
AcDbEntity
  8
0
100
AcDbLine
 10
16.3643042233
 20
15.3342043735
 30
0.0
 11
15.5117663037
 21
8.5904508131
 31
0.0
  0
LINE
  5
D3
330
86
100
AcDbEntity
  8
0
100
AcDbLine
 10
15.5117663037
 20
8.5904508131
 30
0.0
 11
16.3519003211
 21
8.5904508131
 31
0.0
  0
LINE
  5
D4
330
86
100
AcDbEntity
  8
0
100
AcDbLine
 10
16.3519003211
 20
8.5904508131
 30
0.0
 11
16.5956547196
 21
10.5190095307
 31
0.0
  0
LINE
  5
D5
330
86
100
AcDbEntity
  8
0
100
AcDbLine
 10
16.5956547196
 20
10.5190095307
 30
0.0
 11
17.5561420283
 21
10.5190095307
 31
0.0
  0
LINE
  5
D6
330
86
100
AcDbEntity
  8
0
100
AcDbLine
 10
17.5561420283
 20
10.5190095307
 30
0.0
 11
17.8000381857
 21
8.5904508131
 31
0.0
  0
LINE
  5
D7
330
86
100
AcDbEntity
  8
0
100
AcDbLine
 10
17.8000381857
 20
8.5904508131
 30
0.0
 11
18.6401722031
 21
8.5904508131
 31
0.0
  0
LINE
  5
D8
330
86
100
AcDbEntity
  8
0
100
AcDbLine
 10
18.6401722031
 20
8.5904508131
 30
0.0
 11
17.7875634041
 21
15.3342043735
 31
0.0
  0
LINE
  5
D9
330
86
100
AcDbEntity
  8
0
100
AcDbLine
 10
16.7253640972
 20
11.5449894431
 30
0.0
 11
17.0745162249
 21
14.306594234
 31
0.0
  0
LINE
  5
DA
330
86
100
AcDbEntity
  8
0
100
AcDbLine
 10
17.0745162249
 20
14.306594234
 30
0.0
 11
17.4265035302
 21
11.5449894431
 31
0.0
  0
LINE
  5
DB
330
86
100
AcDbEntity
  8
0
100
AcDbLine
 10
17.4265035302
 20
11.5449894431
 30
0.0
 11
16.7253640972
 21
11.5449894431
 31
0.0
  0
LINE
  5
DC
330
86
100
AcDbEntity
  8
0
100
AcDbLine
 10
32.7336985468
 20
9.4483046908
 30
0.0
 11
31.5209513067
 21
9.4483046908
 31
0.0
  0
LINE
  5
DD
330
86
100
AcDbEntity
  8
0
100
AcDbLine
 10
31.5209513067
 20
9.4483046908
 30
0.0
 11
31.5209513067
 21
11.8677744187
 31
0.0
  0
LINE
  5
DE
330
86
100
AcDbEntity
  8
0
100
AcDbLine
 10
31.5209513067
 20
11.8677744187
 30
0.0
 11
32.484911708
 21
11.8677744187
 31
0.0
  0
LINE
  5
DF
330
86
100
AcDbEntity
  8
0
100
AcDbLine
 10
32.484911708
 20
11.8677744187
 30
0.0
 11
32.484911708
 21
12.7076957977
 31
0.0
  0
LINE
  5
E0
330
86
100
AcDbEntity
  8
0
100
AcDbLine
 10
32.484911708
 20
12.7076957977
 30
0.0
 11
31.5209513067
 21
12.7076957977
 31
0.0
  0
LINE
  5
E1
330
86
100
AcDbEntity
  8
0
100
AcDbLine
 10
31.5209513067
 20
12.7076957977
 30
0.0
 11
31.5209513067
 21
14.492440129
 31
0.0
  0
LINE
  5
E2
330
86
100
AcDbEntity
  8
0
100
AcDbLine
 10
31.5209513067
 20
14.492440129
 30
0.0
 11
32.5596186391
 21
14.492440129
 31
0.0
  0
LINE
  5
E3
330
86
100
AcDbEntity
  8
0
100
AcDbLine
 10
32.5596186391
 20
14.492440129
 30
0.0
 11
32.5596186391
 21
15.3325032669
 31
0.0
  0
LINE
  5
E4
330
86
100
AcDbEntity
  8
0
100
AcDbLine
 10
32.5596186391
 20
15.3325032669
 30
0.0
 11
30.6808881687
 21
15.3325032669
 31
0.0
  0
LINE
  5
E5
330
86
100
AcDbEntity
  8
0
100
AcDbLine
 10
30.6808881687
 20
15.3325032669
 30
0.0
 11
30.6808881687
 21
8.5904508131
 31
0.0
  0
LINE
  5
E6
330
86
100
AcDbEntity
  8
0
100
AcDbLine
 10
30.6808881687
 20
8.5904508131
 30
0.0
 11
32.7336985468
 21
8.5896002598
 31
0.0
  0
LINE
  5
E7
330
86
100
AcDbEntity
  8
0
100
AcDbLine
 10
32.7336985468
 20
8.5896002598
 30
0.0
 11
32.7336985468
 21
9.4483046908
 31
0.0
  0
LINE
  5
E8
330
86
100
AcDbEntity
  8
0
100
AcDbLine
 10
21.049364412
 20
15.3325032669
 30
0.0
 11
18.7355759311
 21
15.3325032669
 31
0.0
  0
LINE
  5
E9
330
86
100
AcDbEntity
  8
0
100
AcDbLine
 10
18.7355759311
 20
15.3325032669
 30
0.0
 11
18.7355759311
 21
14.492440129
 31
0.0
  0
LINE
  5
EA
330
86
100
AcDbEntity
  8
0
100
AcDbLine
 10
18.7355759311
 20
14.492440129
 30
0.0
 11
19.4922848461
 21
14.492440129
 31
0.0
  0
LINE
  5
EB
330
86
100
AcDbEntity
  8
0
100
AcDbLine
 10
19.4922848461
 20
14.492440129
 30
0.0
 11
19.4922848461
 21
8.5904508131
 31
0.0
  0
LINE
  5
EC
330
86
100
AcDbEntity
  8
0
100
AcDbLine
 10
19.4922848461
 20
8.5904508131
 30
0.0
 11
20.3323479841
 21
8.5904508131
 31
0.0
  0
LINE
  5
ED
330
86
100
AcDbEntity
  8
0
100
AcDbLine
 10
20.3323479841
 20
8.5904508131
 30
0.0
 11
20.3323479841
 21
14.492440129
 31
0.0
  0
LINE
  5
EE
330
86
100
AcDbEntity
  8
0
100
AcDbLine
 10
20.3323479841
 20
14.492440129
 30
0.0
 11
21.049364412
 21
14.492440129
 31
0.0
  0
LINE
  5
EF
330
86
100
AcDbEntity
  8
0
100
AcDbLine
 10
21.049364412
 20
14.492440129
 30
0.0
 11
21.049364412
 21
15.3325032669
 31
0.0
  0
LINE
  5
F0
330
86
100
AcDbEntity
  8
0
100
AcDbLine
 10
29.175550595
 20
15.3418593532
 30
0.0
 11
29.175550595
 21
10.4115562977
 31
0.0
  0
LINE
  5
F1
330
86
100
AcDbEntity
  8
0
100
AcDbLine
 10
29.175550595
 20
10.4115562977
 30
0.0
 11
28.3179093556
 21
15.3418593532
 31
0.0
  0
LINE
  5
F2
330
86
100
AcDbEntity
  8
0
100
AcDbLine
 10
28.3179093556
 20
15.3418593532
 30
0.0
 11
26.9115194818
 21
15.3418593532
 31
0.0
  0
LINE
  5
F3
330
86
100
AcDbEntity
  8
0
100
AcDbLine
 10
26.9115194818
 20
15.3418593532
 30
0.0
 11
26.9115194818
 21
8.5904508131
 31
0.0
  0
LINE
  5
F4
330
86
100
AcDbEntity
  8
0
100
AcDbLine
 10
26.9115194818
 20
8.5904508131
 30
0.0
 11
27.7517243787
 21
8.5904508131
 31
0.0
  0
LINE
  5
F5
330
86
100
AcDbEntity
  8
0
100
AcDbLine
 10
27.7517243787
 20
8.5904508131
 30
0.0
 11
27.7517243787
 21
13.7348097812
 31
0.0
  0
LINE
  5
F6
330
86
100
AcDbEntity
  8
0
100
AcDbLine
 10
27.7517243787
 20
13.7348097812
 30
0.0
 11
28.6387097068
 21
8.5883244299
 31
0.0
  0
LINE
  5
F7
330
86
100
AcDbEntity
  8
0
100
AcDbLine
 10
28.6387097068
 20
8.5883244299
 30
0.0
 11
30.0157554918
 21
8.5904508131
 31
0.0
  0
LINE
  5
F8
330
86
100
AcDbEntity
  8
0
100
AcDbLine
 10
30.0157554918
 20
8.5904508131
 30
0.0
 11
30.0157554918
 21
15.3418593532
 31
0.0
  0
LINE
  5
F9
330
86
100
AcDbEntity
  8
0
100
AcDbLine
 10
30.0157554918
 20
15.3418593532
 30
0.0
 11
29.175550595
 21
15.3418593532
 31
0.0
  0
LINE
  5
FA
330
86
100
AcDbEntity
  8
0
100
AcDbLine
 10
3.3854988525
 20
9.4534080106
 30
0.0
 11
3.292575905
 21
9.4549673583
 31
0.0
  0
LINE
  5
FB
330
86
100
AcDbEntity
  8
0
100
AcDbLine
 10
3.292575905
 20
9.4549673583
 30
0.0
 11
3.292575905
 21
8.5959794095
 31
0.0
  0
LINE
  5
FC
330
86
100
AcDbEntity
  8
0
100
AcDbLine
 10
3.292575905
 20
8.5959794095
 30
0.0
 11
3.4568035704
 21
8.5959794095
 31
0.0
  0
LINE
  5
FD
330
86
100
AcDbEntity
  8
0
100
AcDbLine
 10
4.9498790008
 20
9.2970479632
 30
0.0
 11
4.9498790008
 21
9.2973314809
 31
0.0
  0
LINE
  5
FE
330
86
100
AcDbEntity
  8
0
100
AcDbLine
 10
4.9498790008
 20
14.5159721035
 30
0.0
 11
4.9498790008
 21
15.3285340182
 31
0.0
  0
LINE
  5
FF
330
86
100
AcDbEntity
  8
0
100
AcDbLine
 10
4.9498790008
 20
15.3285340182
 30
0.0
 11
4.6043417246
 21
15.3285340182
 31
0.0
  0
LINE
  5
100
330
86
100
AcDbEntity
  8
0
100
AcDbLine
 10
21.230390505
 20
9.4534080106
 30
0.0
 11
21.1375384369
 21
9.4549673583
 31
0.0
  0
LINE
  5
101
330
86
100
AcDbEntity
  8
0
100
AcDbLine
 10
21.1375384369
 20
9.4549673583
 30
0.0
 11
21.1375384369
 21
8.5959794095
 31
0.0
  0
LINE
  5
102
330
86
100
AcDbEntity
  8
0
100
AcDbLine
 10
21.1375384369
 20
8.5959794095
 30
0.0
 11
21.301553464
 21
8.5959794095
 31
0.0
  0
LINE
  5
103
330
86
100
AcDbEntity
  8
0
100
AcDbLine
 10
22.7946997739
 20
9.2970479632
 30
0.0
 11
22.7946997739
 21
9.2973314809
 31
0.0
  0
LINE
  5
104
330
86
100
AcDbEntity
  8
0
100
AcDbLine
 10
22.7946997739
 20
14.5159721035
 30
0.0
 11
22.7946997739
 21
15.3285340182
 31
0.0
  0
LINE
  5
105
330
86
100
AcDbEntity
  8
0
100
AcDbLine
 10
22.7946997739
 20
15.3285340182
 30
0.0
 11
22.4490916182
 21
15.3285340182
 31
0.0
  0
LINE
  5
106
330
86
100
AcDbEntity
  8
0
 62
     1
100
AcDbLine
 10
12.1710764777
 20
17.9278248886
 30
0.0
 11
9.7662787942
 21
17.9278248886
 31
0.0
  0
LINE
  5
107
330
86
100
AcDbEntity
  8
0
 62
     1
100
AcDbLine
 10
9.7662787942
 20
17.9278248886
 30
0.0
 11
9.7662787942
 21
20.3329060898
 31
0.0
  0
LINE
  5
108
330
86
100
AcDbEntity
  8
0
 62
     1
100
AcDbLine
 10
9.7662787942
 20
20.3329060898
 30
0.0
 11
12.1710764777
 21
20.3329060898
 31
0.0
  0
LINE
  5
109
330
86
100
AcDbEntity
  8
0
 62
     1
100
AcDbLine
 10
12.1710764777
 20
20.3329060898
 30
0.0
 11
12.1710764777
 21
17.9278248886
 31
0.0
  0
LINE
  5
10A
330
86
100
AcDbEntity
  8
0
 62
     1
100
AcDbLine
 10
12.1710764777
 20
3.67
 30
0.0
 11
9.7662787942
 21
3.67
 31
0.0
  0
LINE
  5
10B
330
86
100
AcDbEntity
  8
0
 62
     1
100
AcDbLine
 10
9.7662787942
 20
3.67
 30
0.0
 11
9.7662787942
 21
6.0749394424
 31
0.0
  0
LINE
  5
10C
330
86
100
AcDbEntity
  8
0
 62
     1
100
AcDbLine
 10
9.7662787942
 20
6.0749394424
 30
0.0
 11
12.1710764777
 21
6.0749394424
 31
0.0
  0
LINE
  5
10D
330
86
100
AcDbEntity
  8
0
 62
     1
100
AcDbLine
 10
12.1710764777
 20
6.0749394424
 30
0.0
 11
12.1710764777
 21
3.67
 31
0.0
  0
LINE
  5
10E
330
86
100
AcDbEntity
  8
0
 62
     1
100
AcDbLine
 10
25.8269222715
 20
17.9278248886
 30
0.0
 11
23.422124588
 21
17.9278248886
 31
0.0
  0
LINE
  5
10F
330
86
100
AcDbEntity
  8
0
 62
     1
100
AcDbLine
 10
23.422124588
 20
17.9278248886
 30
0.0
 11
23.422124588
 21
20.3329060898
 31
0.0
  0
LINE
  5
110
330
86
100
AcDbEntity
  8
0
 62
     1
100
AcDbLine
 10
23.422124588
 20
20.3329060898
 30
0.0
 11
25.8269222715
 21
20.3329060898
 31
0.0
  0
LINE
  5
111
330
86
100
AcDbEntity
  8
0
 62
     1
100
AcDbLine
 10
25.8269222715
 20
20.3329060898
 30
0.0
 11
25.8269222715
 21
17.9278248886
 31
0.0
  0
LINE
  5
112
330
86
100
AcDbEntity
  8
0
 62
     1
100
AcDbLine
 10
25.8269222715
 20
3.67
 30
0.0
 11
23.422124588
 21
3.67
 31
0.0
  0
LINE
  5
113
330
86
100
AcDbEntity
  8
0
 62
     1
100
AcDbLine
 10
23.422124588
 20
3.67
 30
0.0
 11
23.422124588
 21
6.0749394424
 31
0.0
  0
LINE
  5
114
330
86
100
AcDbEntity
  8
0
 62
     1
100
AcDbLine
 10
23.422124588
 20
6.0749394424
 30
0.0
 11
25.8269222715
 21
6.0749394424
 31
0.0
  0
LINE
  5
115
330
86
100
AcDbEntity
  8
0
 62
     1
100
AcDbLine
 10
25.8269222715
 20
6.0749394424
 30
0.0
 11
25.8269222715
 21
3.67
 31
0.0
  0
LINE
  5
116
330
86
100
AcDbEntity
  8
0
100
AcDbLine
 10
8.2465526938
 20
15.3418593532
 30
0.0
 11
7.4064186764
 21
15.3418593532
 31
0.0
  0
LINE
  5
117
330
86
100
AcDbEntity
  8
0
100
AcDbLine
 10
7.4064186764
 20
15.3418593532
 30
0.0
 11
7.4025203072
 21
9.7790281638
 31
0.0
  0
LINE
  5
118
330
86
100
AcDbEntity
  8
0
100
AcDbLine
 10
6.5577791261
 20
9.7866831435
 30
0.0
 11
6.554873069
 21
15.3418593532
 31
0.0
  0
LINE
  5
119
330
86
100
AcDbEntity
  8
0
100
AcDbLine
 10
6.554873069
 20
15.3418593532
 30
0.0
 11
5.7147390516
 21
15.3418593532
 31
0.0
  0
LINE
  5
11A
330
86
100
AcDbEntity
  8
0
100
AcDbLine
 10
26.1769249525
 20
15.3418593532
 30
0.0
 11
25.3368618145
 21
15.3418593532
 31
0.0
  0
LINE
  5
11B
330
86
100
AcDbEntity
  8
0
100
AcDbLine
 10
25.3368618145
 20
15.3418593532
 30
0.0
 11
25.3327508069
 21
9.7790281638
 31
0.0
  0
LINE
  5
11C
330
86
100
AcDbEntity
  8
0
100
AcDbLine
 10
24.4880096259
 20
9.7866831435
 30
0.0
 11
24.4851744482
 21
15.3418593532
 31
0.0
  0
LINE
  5
11D
330
86
100
AcDbEntity
  8
0
100
AcDbLine
 10
24.4851744482
 20
15.3418593532
 30
0.0
 11
23.6451113103
 21
15.3418593532
 31
0.0
  0
LINE
  5
11E
330
86
100
AcDbEntity
  8
0
100
AcDbLine
 10
12.9538690271
 20
12.6636087853
 30
0.0
 11
11.909956616
 21
11.8235456473
 31
0.0
  0
LINE
  5
11F
330
86
100
AcDbEntity
  8
0
100
AcDbLine
 10
11.909956616
 20
11.8235456473
 30
0.0
 11
14.4506301884
 21
11.8235456473
 31
0.0
  0
LINE
  5
120
330
86
100
AcDbEntity
  8
0
100
AcDbLine
 10
14.4506301884
 20
11.8235456473
 30
0.0
 11
14.4506301884
 21
10.4153837876
 31
0.0
  0
LINE
  5
121
330
86
100
AcDbEntity
  8
0
100
AcDbLine
 10
14.5099562808
 20
13.5421594598
 30
0.0
 11
15.2200265234
 21
14.0836783912
 31
0.0
  0
LINE
  5
122
330
86
100
AcDbEntity
  8
0
100
AcDbLine
 10
15.2916856385
 20
10.0266809316
 30
0.0
 11
15.2905515675
 21
12.6636087853
 31
0.0
  0
LINE
  5
123
330
86
100
AcDbEntity
  8
0
100
AcDbLine
 10
15.2905515675
 20
12.6636087853
 30
0.0
 11
12.9538690271
 21
12.6636087853
 31
0.0
  0
LINE
  5
124
330
86
100
AcDbEntity
  8
0
100
AcDbLine
 10
17.7875634041
 20
15.3342043735
 30
0.0
 11
16.3643042233
 21
15.3342043735
 31
0.0
  0
LINE
  5
125
330
86
100
AcDbEntity
  8
0
100
AcDbLine
 10
16.3643042233
 20
15.3342043735
 30
0.0
 11
15.5117663037
 21
8.5904508131
 31
0.0
  0
LINE
  5
126
330
86
100
AcDbEntity
  8
0
100
AcDbLine
 10
15.5117663037
 20
8.5904508131
 30
0.0
 11
16.3519003211
 21
8.5904508131
 31
0.0
  0
LINE
  5
127
330
86
100
AcDbEntity
  8
0
100
AcDbLine
 10
16.3519003211
 20
8.5904508131
 30
0.0
 11
16.5956547196
 21
10.5190095307
 31
0.0
  0
LINE
  5
128
330
86
100
AcDbEntity
  8
0
100
AcDbLine
 10
16.5956547196
 20
10.5190095307
 30
0.0
 11
17.5561420283
 21
10.5190095307
 31
0.0
  0
LINE
  5
129
330
86
100
AcDbEntity
  8
0
100
AcDbLine
 10
17.5561420283
 20
10.5190095307
 30
0.0
 11
17.8000381857
 21
8.5904508131
 31
0.0
  0
LINE
  5
12A
330
86
100
AcDbEntity
  8
0
100
AcDbLine
 10
17.8000381857
 20
8.5904508131
 30
0.0
 11
18.6401722031
 21
8.5904508131
 31
0.0
  0
LINE
  5
12B
330
86
100
AcDbEntity
  8
0
100
AcDbLine
 10
18.6401722031
 20
8.5904508131
 30
0.0
 11
17.7875634041
 21
15.3342043735
 31
0.0
  0
LINE
  5
12C
330
86
100
AcDbEntity
  8
0
100
AcDbLine
 10
16.7253640972
 20
11.5449894431
 30
0.0
 11
17.0745162249
 21
14.306594234
 31
0.0
  0
LINE
  5
12D
330
86
100
AcDbEntity
  8
0
100
AcDbLine
 10
17.0745162249
 20
14.306594234
 30
0.0
 11
17.4265035302
 21
11.5449894431
 31
0.0
  0
LINE
  5
12E
330
86
100
AcDbEntity
  8
0
100
AcDbLine
 10
17.4265035302
 20
11.5449894431
 30
0.0
 11
16.7253640972
 21
11.5449894431
 31
0.0
  0
SPLINE
  5
12F
330
86
100
AcDbEntity
  8
0
100
AcDbSpline
210
0.0
220
0.0
230
1.0
 70
     8
 71
     3
 72
     8
 73
     4
 74
     0
 42
0.000000001
 43
0.00000001
 40
0.0
 40
0.0
 40
0.0
 40
0.0
 40
1.0
 40
1.0
 40
1.0
 40
1.0
 10
3.610044922460022
 20
12.39688944776983
 30
0.0
 10
4.129095070897104
 20
11.47510231402356
 30
0.0
 10
4.338118543209125
 20
11.01807167669972
 30
0.0
 10
4.392341315782439
 20
10.69273504125985
 30
0.0
  0
SPLINE
  5
130
330
86
100
AcDbEntity
  8
0
100
AcDbSpline
210
0.0
220
0.0
230
1.0
 70
     8
 71
     3
 72
     8
 73
     4
 74
     0
 42
0.000000001
 43
0.00000001
 40
0.0
 40
0.0
 40
0.0
 40
0.0
 40
1.0
 40
1.0
 40
1.0
 40
1.0
 10
3.456803570429299
 20
8.59597940954257
 30
0.0
 10
4.008670900175461
 20
8.625890533759485
 30
0.0
 10
4.525665544815639
 20
8.733627284493354
 30
0.0
 10
4.949879000830379
 20
9.297047963166914
 30
0.0
  0
SPLINE
  5
131
330
86
100
AcDbEntity
  8
0
100
AcDbSpline
210
0.0
220
0.0
230
1.0
 70
     8
 71
     3
 72
     8
 73
     4
 74
     0
 42
0.000000001
 43
0.00000001
 40
1.0
 40
1.0
 40
1.0
 40
1.0
 40
2.0
 40
2.0
 40
2.0
 40
2.0
 10
4.392341315782439
 20
10.69273504125985
 30
0.0
 10
4.44656408835575
 20
10.36732752637871
 30
0.0
 10
4.45662896901642
 20
9.982593919152642
 30
0.0
 10
4.129095070897104
 20
9.654989141592026
 30
0.0
  0
SPLINE
  5
132
330
86
100
AcDbEntity
  8
0
100
AcDbSpline
210
0.0
220
0.0
230
1.0
 70
     8
 71
     3
 72
     8
 73
     4
 74
     0
 42
0.000000001
 43
0.00000001
 40
0.0
 40
0.0
 40
0.0
 40
0.0
 40
1.0
 40
1.0
 40
1.0
 40
1.0
 10
21.30155346402704
 20
8.59597940954257
 30
0.0
 10
21.85327903489065
 20
8.625890533759485
 30
0.0
 10
22.37041543841338
 20
8.733627284493354
 30
0.0
 10
22.79469977386939
 20
9.297047963166914
 30
0.0
  0
SPLINE
  5
133
330
86
100
AcDbEntity
  8
0
100
AcDbSpline
210
0.0
220
0.0
230
1.0
 70
     8
 71
     2
 72
     6
 73
     3
 74
     0
 42
0.000000001
 43
0.00000001
 40
2.0
 40
2.0
 40
2.0
 40
3.0
 40
3.0
 40
3.0
 10
4.129095070897104
 20
9.654989141592026
 30
0.0
 10
3.919858960261265
 20
9.445611272073664
 30
0.0
 10
3.385498852509362
 20
9.453408010613625
 30
0.0
  0
SPLINE
  5
134
330
86
100
AcDbEntity
  8
0
100
AcDbSpline
210
0.0
220
0.0
230
1.0
 70
     8
 71
     3
 72
     8
 73
     4
 74
     0
 42
0.000000001
 43
0.00000001
 40
6.0
 40
6.0
 40
6.0
 40
6.0
 40
7.0
 40
7.0
 40
7.0
 40
7.0
 10
3.456803570429299
 20
8.59597940954257
 30
0.0
 10
4.008670900175461
 20
8.625890533759485
 30
0.0
 10
4.525665544815639
 20
8.733627284493354
 30
0.0
 10
4.949879000830379
 20
9.297047963166914
 30
0.0
  0
SPLINE
  5
135
330
86
100
AcDbEntity
  8
0
100
AcDbSpline
210
0.0
220
0.0
230
1.0
 70
     8
 71
     2
 72
     6
 73
     3
 74
     0
 42
0.000000001
 43
0.00000001
 40
0.0
 40
0.0
 40
0.0
 40
1.0
 40
1.0
 40
1.0
 10
14.45063018841125
 20
10.41538378756133
 30
0.0
 10
14.35969186525889
 20
10.27064796848328
 30
0.0
 10
14.18199710598922
 20
10.09600102518832
 30
0.0
  0
SPLINE
  5
136
330
86
100
AcDbEntity
  8
0
100
AcDbSpline
210
0.0
220
0.0
230
1.0
 70
     8
 71
     3
 72
     8
 73
     4
 74
     0
 42
0.000000001
 43
0.00000001
 40
8.0
 40
8.0
 40
8.0
 40
8.0
 40
9.0
 40
9.0
 40
9.0
 40
9.0
 10
4.949879000830379
 20
9.297331480932005
 30
0.0
 10
5.118713829941009
 20
9.538605099022927
 30
0.0
 10
5.231270382681425
 20
9.822689899642315
 30
0.0
 10
5.267560656612845
 20
10.088629563296
 30
0.0
  0
SPLINE
  5
137
330
86
100
AcDbEntity
  8
0
100
AcDbSpline
210
0.0
220
0.0
230
1.0
 70
     8
 71
     3
 72
     8
 73
     4
 74
     0
 42
0.000000001
 43
0.00000001
 40
9.0
 40
9.0
 40
9.0
 40
9.0
 40
10.0
 40
10.0
 40
10.0
 40
10.0
 10
5.267560656612845
 20
10.088629563296
 30
0.0
 10
5.314057570087478
 20
10.42941791693324
 30
0.0
 10
5.252038058974208
 20
10.71612525687973
 30
0.0
 10
5.182363568203539
 20
11.01041669704231
 30
0.0
  0
SPLINE
  5
138
330
86
100
AcDbEntity
  8
0
100
AcDbSpline
210
0.0
220
0.0
230
1.0
 70
     8
 71
     3
 72
     8
 73
     4
 74
     0
 42
0.000000001
 43
0.00000001
 40
10.0
 40
10.0
 40
10.0
 40
10.0
 40
11.0
 40
11.0
 40
11.0
 40
11.0
 10
5.182363568203539
 20
11.01041669704231
 30
0.0
 10
5.137851279084528
 20
11.19796369864881
 30
0.0
 10
4.872478650961024
 20
11.82099398743238
 30
0.0
 10
4.833849355467621
 20
11.90122951495261
 30
0.0
  0
SPLINE
  5
139
330
86
100
AcDbEntity
  8
0
100
AcDbSpline
210
0.0
220
0.0
230
1.0
 70
     8
 71
     3
 72
     8
 73
     4
 74
     0
 42
0.000000001
 43
0.00000001
 40
11.0
 40
11.0
 40
11.0
 40
11.0
 40
12.0
 40
12.0
 40
12.0
 40
12.0
 10
4.833849355467621
 20
11.90122951495261
 30
0.0
 10
4.648145219334186
 20
12.28582136329613
 30
0.0
 10
4.291692509175768
 20
12.88482352148837
 30
0.0
 10
4.175521104930461
 20
13.22568275456688
 30
0.0
  0
SPLINE
  5
13A
330
86
100
AcDbEntity
  8
0
100
AcDbSpline
210
0.0
220
0.0
230
1.0
 70
     8
 71
     3
 72
     8
 73
     4
 74
     0
 42
0.000000001
 43
0.00000001
 40
12.0
 40
12.0
 40
12.0
 40
12.0
 40
13.0
 40
13.0
 40
13.0
 40
13.0
 10
4.175521104930461
 20
13.22568275456688
 30
0.0
 10
4.059349700685156
 20
13.56640022876286
 30
0.0
 10
4.098049875619833
 20
13.97693395261202
 30
0.0
 10
4.160069386733099
 20
14.14711549110683
 30
0.0
  0
SPLINE
  5
13B
330
86
100
AcDbEntity
  8
0
100
AcDbSpline
210
0.0
220
0.0
230
1.0
 70
     8
 71
     3
 72
     8
 73
     4
 74
     0
 42
0.000000001
 43
0.00000001
 40
13.0
 40
13.0
 40
13.0
 40
13.0
 40
14.0
 40
14.0
 40
14.0
 40
14.0
 10
4.160069386733099
 20
14.14711549110683
 30
0.0
 10
4.222018018405095
 20
14.31750966792545
 30
0.0
 10
4.40006717488112
 20
14.46493890577188
 30
0.0
 10
4.578258090239689
 20
14.50349732182399
 30
0.0
  0
SPLINE
  5
13C
330
86
100
AcDbEntity
  8
0
100
AcDbSpline
210
0.0
220
0.0
230
1.0
 70
     8
 71
     3
 72
     8
 73
     4
 74
     0
 42
0.000000001
 43
0.00000001
 40
14.0
 40
14.0
 40
14.0
 40
14.0
 40
15.0
 40
15.0
 40
15.0
 40
15.0
 10
4.578258090239689
 20
14.50349732182399
 30
0.0
 10
4.678694258522547
 20
14.52539906917713
 30
0.0
 10
4.815845977384454
 20
14.52242213264369
 30
0.0
 10
4.949879000830379
 20
14.51597210348793
 30
0.0
  0
SPLINE
  5
13D
330
86
100
AcDbEntity
  8
0
100
AcDbSpline
210
0.0
220
0.0
230
1.0
 70
     8
 71
     3
 72
     8
 73
     4
 74
     0
 42
0.000000001
 43
0.00000001
 40
17.0
 40
17.0
 40
17.0
 40
17.0
 40
18.0
 40
18.0
 40
18.0
 40
18.0
 10
4.604341724627901
 20
15.3285340182336
 30
0.0
 10
4.293818892413936
 20
15.3285340182336
 30
0.0
 10
3.922056222940704
 20
15.17954543267921
 30
0.0
 10
3.648886856277244
 20
14.89078258893584
 30
0.0
  0
SPLINE
  5
13E
330
86
100
AcDbEntity
  8
0
100
AcDbSpline
210
0.0
220
0.0
230
1.0
 70
     8
 71
     3
 72
     8
 73
     4
 74
     0
 42
0.000000001
 43
0.00000001
 40
18.0
 40
18.0
 40
18.0
 40
18.0
 40
19.0
 40
19.0
 40
19.0
 40
19.0
 10
3.648886856277244
 20
14.89078258893584
 30
0.0
 10
3.355091572203543
 20
14.5804723950457
 30
0.0
 10
3.176404500756066
 20
14.23252521783996
 30
0.0
 10
3.230627273329383
 20
13.57412608786154
 30
0.0
  0
SPLINE
  5
13F
330
86
100
AcDbEntity
  8
0
100
AcDbSpline
210
0.0
220
0.0
230
1.0
 70
     8
 71
     3
 72
     8
 73
     4
 74
     0
 42
0.000000001
 43
0.00000001
 40
19.0
 40
19.0
 40
19.0
 40
19.0
 40
20.0
 40
20.0
 40
20.0
 40
20.0
 10
3.230627273329383
 20
13.57412608786154
 30
0.0
 10
3.261530709724104
 20
13.17124734366976
 30
0.0
 10
3.356792678794077
 20
12.84683214096644
 30
0.0
 10
3.610044922460022
 20
12.39688944776983
 30
0.0
  0
SPLINE
  5
140
330
86
100
AcDbEntity
  8
0
100
AcDbSpline
210
0.0
220
0.0
230
1.0
 70
     8
 71
     3
 72
     8
 73
     4
 74
     0
 42
0.000000001
 43
0.00000001
 40
0.0
 40
0.0
 40
0.0
 40
0.0
 40
1.0
 40
1.0
 40
1.0
 40
1.0
 10
21.45465305717521
 20
12.39688944776983
 30
0.0
 10
21.97377408505358
 20
11.47510231402356
 30
0.0
 10
22.18301019568941
 20
11.01807167669972
 30
0.0
 10
22.23716208882146
 20
10.69273504125985
 30
0.0
  0
SPLINE
  5
141
330
86
100
AcDbEntity
  8
0
100
AcDbSpline
210
0.0
220
0.0
230
1.0
 70
     8
 71
     3
 72
     8
 73
     4
 74
     0
 42
0.000000001
 43
0.00000001
 40
1.0
 40
1.0
 40
1.0
 40
1.0
 40
2.0
 40
2.0
 40
2.0
 40
2.0
 10
22.23716208882146
 20
10.69273504125985
 30
0.0
 10
22.29117222307095
 20
10.36732752637871
 30
0.0
 10
22.30137886261416
 20
9.982593919152642
 30
0.0
 10
21.97377408505358
 20
9.654989141592026
 30
0.0
  0
SPLINE
  5
142
330
86
100
AcDbEntity
  8
0
100
AcDbSpline
210
0.0
220
0.0
230
1.0
 70
     8
 71
     2
 72
     6
 73
     3
 74
     0
 42
0.000000001
 43
0.00000001
 40
2.0
 40
2.0
 40
2.0
 40
3.0
 40
3.0
 40
3.0
 10
21.97377408505358
 20
9.654989141592026
 30
0.0
 10
21.76453797441773
 20
9.445611272073664
 30
0.0
 10
21.23039050498965
 20
9.453408010613625
 30
0.0
  0
SPLINE
  5
143
330
86
100
AcDbEntity
  8
0
100
AcDbSpline
210
0.0
220
0.0
230
1.0
 70
     8
 71
     3
 72
     8
 73
     4
 74
     0
 42
0.000000001
 43
0.00000001
 40
6.0
 40
6.0
 40
6.0
 40
6.0
 40
7.0
 40
7.0
 40
7.0
 40
7.0
 10
21.30155346402704
 20
8.59597940954257
 30
0.0
 10
21.85327903489065
 20
8.625890533759485
 30
0.0
 10
22.37041543841338
 20
8.733627284493354
 30
0.0
 10
22.79469977386939
 20
9.297047963166914
 30
0.0
  0
SPLINE
  5
144
330
86
100
AcDbEntity
  8
0
100
AcDbSpline
210
0.0
220
0.0
230
1.0
 70
     8
 71
     3
 72
     8
 73
     4
 74
     0
 42
0.000000001
 43
0.00000001
 40
8.0
 40
8.0
 40
8.0
 40
8.0
 40
9.0
 40
9.0
 40
9.0
 40
9.0
 10
22.79469977386939
 20
9.297331480932005
 30
0.0
 10
22.96353460298002
 20
9.538605099022927
 30
0.0
 10
23.07609115572044
 20
9.822689899642315
 30
0.0
 10
23.11238142965186
 20
10.088629563296
 30
0.0
  0
SPLINE
  5
145
330
86
100
AcDbEntity
  8
0
100
AcDbSpline
210
0.0
220
0.0
230
1.0
 70
     8
 71
     3
 72
     8
 73
     4
 74
     0
 42
0.000000001
 43
0.00000001
 40
9.0
 40
9.0
 40
9.0
 40
9.0
 40
10.0
 40
10.0
 40
10.0
 40
10.0
 10
23.11238142965186
 20
10.088629563296
 30
0.0
 10
23.15887834312649
 20
10.42941791693324
 30
0.0
 10
23.09678795257196
 20
10.71612525687973
 30
0.0
 10
23.02704258236
 20
11.01041669704231
 30
0.0
  0
SPLINE
  5
146
330
86
100
AcDbEntity
  8
0
100
AcDbSpline
210
0.0
220
0.0
230
1.0
 70
     8
 71
     3
 72
     8
 73
     4
 74
     0
 42
0.000000001
 43
0.00000001
 40
10.0
 40
10.0
 40
10.0
 40
10.0
 40
11.0
 40
11.0
 40
11.0
 40
11.0
 10
23.02704258236
 20
11.01041669704231
 30
0.0
 10
22.982530293241
 20
11.19796369864881
 30
0.0
 10
22.7171576651175
 20
11.82099398743238
 30
0.0
 10
22.67859924906536
 20
11.90122951495261
 30
0.0
  0
SPLINE
  5
147
330
86
100
AcDbEntity
  8
0
100
AcDbSpline
210
0.0
220
0.0
230
1.0
 70
     8
 71
     3
 72
     8
 73
     4
 74
     0
 42
0.000000001
 43
0.00000001
 40
11.0
 40
11.0
 40
11.0
 40
11.0
 40
12.0
 40
12.0
 40
12.0
 40
12.0
 10
22.67859924906536
 20
11.90122951495261
 30
0.0
 10
22.49289511293193
 20
12.28582136329613
 30
0.0
 10
22.13651328221478
 20
12.88482352148837
 30
0.0
 10
22.02041275741075
 20
13.22568275456688
 30
0.0
  0
SPLINE
  5
148
330
86
100
AcDbEntity
  8
0
100
AcDbSpline
210
0.0
220
0.0
230
1.0
 70
     8
 71
     3
 72
     8
 73
     4
 74
     0
 42
0.000000001
 43
0.00000001
 40
12.0
 40
12.0
 40
12.0
 40
12.0
 40
13.0
 40
13.0
 40
13.0
 40
13.0
 10
22.02041275741075
 20
13.22568275456688
 30
0.0
 10
21.90417047372417
 20
13.56640022876286
 30
0.0
 10
21.9427288897763
 20
13.97693395261202
 30
0.0
 10
22.00467752144829
 20
14.14711549110683
 30
0.0
  0
SPLINE
  5
149
330
86
100
AcDbEntity
  8
0
100
AcDbSpline
210
0.0
220
0.0
230
1.0
 70
     8
 71
     3
 72
     8
 73
     4
 74
     0
 42
0.000000001
 43
0.00000001
 40
13.0
 40
13.0
 40
13.0
 40
13.0
 40
14.0
 40
14.0
 40
14.0
 40
14.0
 10
22.00467752144829
 20
14.14711549110683
 30
0.0
 10
22.06676791200283
 20
14.31750966792545
 30
0.0
 10
22.24481706847886
 20
14.46493890577188
 30
0.0
 10
22.42286622495489
 20
14.50349732182399
 30
0.0
  0
SPLINE
  5
14A
330
86
100
AcDbEntity
  8
0
100
AcDbSpline
210
0.0
220
0.0
230
1.0
 70
     8
 71
     3
 72
     8
 73
     4
 74
     0
 42
0.000000001
 43
0.00000001
 40
14.0
 40
14.0
 40
14.0
 40
14.0
 40
15.0
 40
15.0
 40
15.0
 40
15.0
 10
22.42286622495489
 20
14.50349732182399
 30
0.0
 10
22.52351503156157
 20
14.52539906917713
 30
0.0
 10
22.6605958709822
 20
14.52242213264369
 30
0.0
 10
22.79469977386939
 20
14.51597210348793
 30
0.0
  0
SPLINE
  5
14B
330
86
100
AcDbEntity
  8
0
100
AcDbSpline
210
0.0
220
0.0
230
1.0
 70
     8
 71
     3
 72
     8
 73
     4
 74
     0
 42
0.000000001
 43
0.00000001
 40
17.0
 40
17.0
 40
17.0
 40
17.0
 40
18.0
 40
18.0
 40
18.0
 40
18.0
 10
22.44909161822564
 20
15.3285340182336
 30
0.0
 10
22.13849790657041
 20
15.3285340182336
 30
0.0
 10
21.76680611653844
 20
15.17954543267921
 30
0.0
 10
21.49363674987499
 20
14.89078258893584
 30
0.0
  0
SPLINE
  5
14C
330
86
100
AcDbEntity
  8
0
100
AcDbSpline
210
0.0
220
0.0
230
1.0
 70
     8
 71
     3
 72
     8
 73
     4
 74
     0
 42
0.000000001
 43
0.00000001
 40
18.0
 40
18.0
 40
18.0
 40
18.0
 40
19.0
 40
19.0
 40
19.0
 40
19.0
 10
21.49363674987499
 20
14.89078258893584
 30
0.0
 10
21.19977058636001
 20
14.5804723950457
 30
0.0
 10
21.02115439435381
 20
14.23252521783996
 30
0.0
 10
21.07530628748584
 20
13.57412608786154
 30
0.0
  0
SPLINE
  5
14D
330
86
100
AcDbEntity
  8
0
100
AcDbSpline
210
0.0
220
0.0
230
1.0
 70
     8
 71
     3
 72
     8
 73
     4
 74
     0
 42
0.000000001
 43
0.00000001
 40
19.0
 40
19.0
 40
19.0
 40
19.0
 40
20.0
 40
20.0
 40
20.0
 40
20.0
 10
21.07530628748584
 20
13.57412608786154
 30
0.0
 10
21.10620972388057
 20
13.17124734366976
 30
0.0
 10
21.20147169295055
 20
12.84683214096644
 30
0.0
 10
21.45465305717521
 20
12.39688944776983
 30
0.0
  0
SPLINE
  5
14E
330
86
100
AcDbEntity
  8
0
100
AcDbSpline
210
0.0
220
0.0
230
1.0
 70
     8
 71
     3
 72
     8
 73
     4
 74
     0
 42
0.000000001
 43
0.00000001
 40
2.0
 40
2.0
 40
2.0
 40
2.0
 40
3.0
 40
3.0
 40
3.0
 40
3.0
 10
7.402520307175909
 20
9.779028163818586
 30
0.0
 10
7.391392234896158
 20
9.555332647163173
 30
0.0
 10
7.206893049264348
 20
9.376999972922052
 30
0.0
 10
6.980291475516796
 20
9.376999972922052
 30
0.0
  0
SPLINE
  5
14F
330
86
100
AcDbEntity
  8
0
100
AcDbSpline
210
0.0
220
0.0
230
1.0
 70
     8
 71
     3
 72
     8
 73
     4
 74
     0
 42
0.000000001
 43
0.00000001
 40
3.0
 40
3.0
 40
3.0
 40
3.0
 40
4.0
 40
4.0
 40
4.0
 40
4.0
 10
6.980291475516796
 20
9.376999972922052
 30
0.0
 10
6.751138241883437
 20
9.376999972922052
 30
0.0
 10
6.564937949661092
 20
9.559301895874432
 30
0.0
 10
6.557779126092594
 20
9.786683143475988
 30
0.0
  0
SPLINE
  5
150
330
86
100
AcDbEntity
  8
0
100
AcDbSpline
210
0.0
220
0.0
230
1.0
 70
     8
 71
     2
 72
     6
 73
     3
 74
     0
 42
0.000000001
 43
0.00000001
 40
6.0
 40
6.0
 40
6.0
 40
7.0
 40
7.0
 40
7.0
 10
5.714739051599811
 20
15.34185935319279
 30
0.0
 10
5.713888498304544
 20
9.698509118533215
 30
0.0
 10
5.713888498304544
 20
9.695815699764879
 30
0.0
  0
SPLINE
  5
151
330
86
100
AcDbEntity
  8
0
100
AcDbSpline
210
0.0
220
0.0
230
1.0
 70
     8
 71
     3
 72
     8
 73
     4
 74
     0
 42
0.000000001
 43
0.00000001
 40
7.0
 40
7.0
 40
7.0
 40
7.0
 40
8.0
 40
8.0
 40
8.0
 40
8.0
 10
5.713888498304544
 20
9.695815699764879
 30
0.0
 10
5.713888498304544
 20
8.997582323791436
 30
0.0
 10
6.279931716305157
 20
8.431680864673364
 30
0.0
 10
6.978094212837349
 20
8.431680864673364
 30
0.0
  0
SPLINE
  5
152
330
86
100
AcDbEntity
  8
0
100
AcDbSpline
210
0.0
220
0.0
230
1.0
 70
     8
 71
     3
 72
     8
 73
     4
 74
     0
 42
0.000000001
 43
0.00000001
 40
8.0
 40
8.0
 40
8.0
 40
8.0
 40
9.0
 40
9.0
 40
9.0
 40
9.0
 10
6.978094212837349
 20
8.431680864673364
 30
0.0
 10
7.676256709369548
 20
8.431680864673364
 30
0.0
 10
8.242299927370162
 20
8.997298806026343
 30
0.0
 10
8.242299927370162
 20
9.695815699764879
 30
0.0
  0
SPLINE
  5
153
330
86
100
AcDbEntity
  8
0
100
AcDbSpline
210
0.0
220
0.0
230
1.0
 70
     8
 71
     2
 72
     6
 73
     3
 74
     0
 42
0.000000001
 43
0.00000001
 40
9.0
 40
9.0
 40
9.0
 40
10.0
 40
10.0
 40
10.0
 10
8.242299927370162
 20
9.695815699764879
 30
0.0
 10
8.242299927370162
 20
9.701060778419045
 30
0.0
 10
8.246552693846501
 20
15.34185935319279
 30
0.0
  0
SPLINE
  5
154
330
86
100
AcDbEntity
  8
0
100
AcDbSpline
210
0.0
220
0.0
230
1.0
 70
     8
 71
     3
 72
     8
 73
     4
 74
     0
 42
0.000000001
 43
0.00000001
 40
2.0
 40
2.0
 40
2.0
 40
2.0
 40
3.0
 40
3.0
 40
3.0
 40
3.0
 10
25.33275080694805
 20
9.779028163818586
 30
0.0
 10
25.32155185522702
 20
9.555332647163173
 30
0.0
 10
25.13726530791903
 20
9.376999972922052
 30
0.0
 10
24.91073461361275
 20
9.376999972922052
 30
0.0
  0
SPLINE
  5
155
330
86
100
AcDbEntity
  8
0
100
AcDbSpline
210
0.0
220
0.0
230
1.0
 70
     8
 71
     3
 72
     8
 73
     4
 74
     0
 42
0.000000001
 43
0.00000001
 40
3.0
 40
3.0
 40
3.0
 40
3.0
 40
4.0
 40
4.0
 40
4.0
 40
4.0
 10
24.91073461361275
 20
9.376999972922052
 30
0.0
 10
24.68136874165558
 20
9.376999972922052
 30
0.0
 10
24.4952393288745
 20
9.559301895874432
 30
0.0
 10
24.48800962586473
 20
9.786683143475988
 30
0.0
  0
SPLINE
  5
156
330
86
100
AcDbEntity
  8
0
100
AcDbSpline
210
0.0
220
0.0
230
1.0
 70
     8
 71
     2
 72
     6
 73
     3
 74
     0
 42
0.000000001
 43
0.00000001
 40
6.0
 40
6.0
 40
6.0
 40
7.0
 40
7.0
 40
7.0
 10
23.64511131025449
 20
15.34185935319279
 30
0.0
 10
23.64426075695922
 20
9.698509118533215
 30
0.0
 10
23.64426075695922
 20
9.695815699764879
 30
0.0
  0
SPLINE
  5
157
330
86
100
AcDbEntity
  8
0
100
AcDbSpline
210
0.0
220
0.0
230
1.0
 70
     8
 71
     3
 72
     8
 73
     4
 74
     0
 42
0.000000001
 43
0.00000001
 40
7.0
 40
7.0
 40
7.0
 40
7.0
 40
8.0
 40
8.0
 40
8.0
 40
8.0
 10
23.64426075695922
 20
9.695815699764879
 30
0.0
 10
23.64426075695922
 20
8.997582323791436
 30
0.0
 10
24.2101622160773
 20
8.431680864673364
 30
0.0
 10
24.9083247126095
 20
8.431680864673364
 30
0.0
  0
SPLINE
  5
158
330
86
100
AcDbEntity
  8
0
100
AcDbSpline
210
0.0
220
0.0
230
1.0
 70
     8
 71
     3
 72
     8
 73
     4
 74
     0
 42
0.000000001
 43
0.00000001
 40
8.0
 40
8.0
 40
8.0
 40
8.0
 40
9.0
 40
9.0
 40
9.0
 40
9.0
 10
24.9083247126095
 20
8.431680864673364
 30
0.0
 10
25.60648720914169
 20
8.431680864673364
 30
0.0
 10
26.17267218602484
 20
8.997298806026343
 30
0.0
 10
26.17267218602484
 20
9.695815699764879
 30
0.0
  0
SPLINE
  5
159
330
86
100
AcDbEntity
  8
0
100
AcDbSpline
210
0.0
220
0.0
230
1.0
 70
     8
 71
     2
 72
     6
 73
     3
 74
     0
 42
0.000000001
 43
0.00000001
 40
9.0
 40
9.0
 40
9.0
 40
10.0
 40
10.0
 40
10.0
 10
26.17267218602484
 20
9.695815699764879
 30
0.0
 10
26.17267218602484
 20
9.701060778419045
 30
0.0
 10
26.17692495250119
 20
15.34185935319279
 30
0.0
  0
SPLINE
  5
15A
330
86
100
AcDbEntity
  8
0
100
AcDbSpline
210
0.0
220
0.0
230
1.0
 70
     8
 71
     2
 72
     6
 73
     3
 74
     0
 42
0.000000001
 43
0.00000001
 40
3.0
 40
3.0
 40
3.0
 40
4.0
 40
4.0
 40
4.0
 10
14.45063018841125
 20
10.41538378756133
 30
0.0
 10
14.35969186525889
 20
10.27064796848328
 30
0.0
 10
14.18199710598922
 20
10.09600102518832
 30
0.0
  0
SPLINE
  5
15B
330
86
100
AcDbEntity
  8
0
100
AcDbSpline
210
0.0
220
0.0
230
1.0
 70
     8
 71
     3
 72
     8
 73
     4
 74
     0
 42
0.000000001
 43
0.00000001
 40
4.0
 40
4.0
 40
4.0
 40
4.0
 40
5.0
 40
5.0
 40
5.0
 40
5.0
 10
14.18199710598922
 20
10.09600102518832
 30
0.0
 10
13.69647293327394
 20
9.605231773818897
 30
0.0
 10
13.01900723359326
 20
9.300450176347976
 30
0.0
 10
12.26938626269738
 20
9.300450176347976
 30
0.0
  0
SPLINE
  5
15C
330
86
100
AcDbEntity
  8
0
100
AcDbSpline
210
0.0
220
0.0
230
1.0
 70
     8
 71
     3
 72
     8
 73
     4
 74
     0
 42
0.000000001
 43
0.00000001
 40
5.0
 40
5.0
 40
5.0
 40
5.0
 40
6.0
 40
6.0
 40
6.0
 40
6.0
 10
12.26938626269738
 20
9.300450176347976
 30
0.0
 10
10.79254222434765
 20
9.300450176347976
 30
0.0
 10
9.595246702375896
 20
10.48300277453512
 30
0.0
 10
9.595246702375896
 20
11.94219783200801
 30
0.0
  0
SPLINE
  5
15D
330
86
100
AcDbEntity
  8
0
100
AcDbSpline
210
0.0
220
0.0
230
1.0
 70
     8
 71
     3
 72
     8
 73
     4
 74
     0
 42
0.000000001
 43
0.00000001
 40
6.0
 40
6.0
 40
6.0
 40
6.0
 40
7.0
 40
7.0
 40
7.0
 40
7.0
 10
9.595246702375896
 20
11.94219783200801
 30
0.0
 10
9.595246702375896
 20
13.40096761283331
 30
0.0
 10
10.79254222434765
 20
14.58366196990294
 30
0.0
 10
12.26938626269738
 20
14.58366196990294
 30
0.0
  0
SPLINE
  5
15E
330
86
100
AcDbEntity
  8
0
100
AcDbSpline
210
0.0
220
0.0
230
1.0
 70
     8
 71
     3
 72
     8
 73
     4
 74
     0
 42
0.000000001
 43
0.00000001
 40
7.0
 40
7.0
 40
7.0
 40
7.0
 40
8.0
 40
8.0
 40
8.0
 40
8.0
 10
12.26938626269738
 20
14.58366196990294
 30
0.0
 10
13.16296337881731
 20
14.58366196990294
 30
0.0
 10
13.95355266676859
 20
14.15037594540535
 30
0.0
 10
14.50995628075617
 20
13.54215945984774
 30
0.0
  0
SPLINE
  5
15F
330
86
100
AcDbEntity
  8
0
100
AcDbSpline
210
0.0
220
0.0
230
1.0
 70
     8
 71
     3
 72
     8
 73
     4
 74
     0
 42
0.000000001
 43
0.00000001
 40
9.0
 40
9.0
 40
9.0
 40
9.0
 40
10.0
 40
10.0
 40
10.0
 40
10.0
 10
15.22002652342211
 20
14.08367839116812
 30
0.0
 10
14.4993952440066
 20
14.90127274624418
 30
0.0
 10
13.45172622256067
 20
15.46922970915913
 30
0.0
 10
12.26938626269738
 20
15.46922970915913
 30
0.0
  0
SPLINE
  5
160
330
86
100
AcDbEntity
  8
0
100
AcDbSpline
210
0.0
220
0.0
230
1.0
 70
     8
 71
     3
 72
     8
 73
     4
 74
     0
 42
0.000000001
 43
0.00000001
 40
10.0
 40
10.0
 40
10.0
 40
10.0
 40
11.0
 40
11.0
 40
11.0
 40
11.0
 10
12.26938626269738
 20
15.46922970915913
 30
0.0
 10
10.2974493270606
 20
15.46922970915913
 30
0.0
 10
8.698692649722526
 20
13.89010663705348
 30
0.0
 10
8.698692649722526
 20
11.94219783200801
 30
0.0
  0
SPLINE
  5
161
330
86
100
AcDbEntity
  8
0
100
AcDbSpline
210
0.0
220
0.0
230
1.0
 70
     8
 71
     3
 72
     8
 73
     4
 74
     0
 42
0.000000001
 43
0.00000001
 40
11.0
 40
11.0
 40
11.0
 40
11.0
 40
12.0
 40
12.0
 40
12.0
 40
12.0
 10
8.698692649722526
 20
11.94219783200801
 30
0.0
 10
8.698692649722526
 20
9.993934629756218
 30
0.0
 10
10.2974493270606
 20
8.414811557650523
 30
0.0
 10
12.26938626269738
 20
8.414811557650523
 30
0.0
  0
SPLINE
  5
162
330
86
100
AcDbEntity
  8
0
100
AcDbSpline
210
0.0
220
0.0
230
1.0
 70
     8
 71
     3
 72
     8
 73
     4
 74
     0
 42
0.000000001
 43
0.00000001
 40
12.0
 40
12.0
 40
12.0
 40
12.0
 40
13.0
 40
13.0
 40
13.0
 40
13.0
 10
12.26938626269738
 20
8.414811557650523
 30
0.0
 10
13.33966582590916
 20
8.414811557650523
 30
0.0
 10
14.33247415981032
 20
8.880489486809598
 30
0.0
 10
14.98683316163622
 20
9.61742303771775
 30
0.0
  0
SPLINE
  5
163
330
86
100
AcDbEntity
  8
0
100
AcDbSpline
210
0.0
220
0.0
230
1.0
 70
     8
 71
     2
 72
     6
 73
     3
 74
     0
 42
0.000000001
 43
0.00000001
 40
13.0
 40
13.0
 40
13.0
 40
14.0
 40
14.0
 40
14.0
 10
14.98683316163622
 20
9.61742303771775
 30
0.0
 10
15.15226577756578
 20
9.800291996200263
 30
0.0
 10
15.29168563854841
 20
10.02668093162401
 30
0.0
  0
ENDBLK
  5
88
330
86
100
AcDbEntity
  8
0
100
AcDbBlockEnd
  0
BLOCK
  5
165
330
164
100
AcDbEntity
  8
0
100
AcDbBlockBegin
  2
ﾌﾞﾛｯｸ1
 70
     0
 10
0.0
 20
0.0
 30
0.0
  3
ﾌﾞﾛｯｸ1
  1
ﾌﾞﾛｯｸ1
  0
CIRCLE
  5
167
330
164
100
AcDbEntity
  8
9
  6
CONTINUOUS
 62
   179
100
AcDbCircle
 10
4.437888
 20
3.2320596145
 30
0.0
 40
1.109472
  0
CIRCLE
  5
168
330
164
100
AcDbEntity
  8
9
  6
CONTINUOUS
 62
   179
100
AcDbCircle
 10
4.437888
 20
3.2320596145
 30
0.0
 40
2.218944
  0
LINE
  5
169
330
164
100
AcDbEntity
  8
9
  6
CENTER
 62
   179
100
AcDbLine
 10
4.437888
 20
6.1328113459
 30
0.0
 11
4.437888
 21
0.0
 31
0.0
  0
LINE
  5
16A
330
164
100
AcDbEntity
  8
9
  6
CENTER
 62
   179
100
AcDbLine
 10
0.0
 20
3.2320596145
 30
0.0
 11
19.970496
 21
3.2320596145
 31
0.0
  0
LINE
  5
16B
330
164
100
AcDbEntity
  8
9
  6
CONTINUOUS
 62
   179
100
AcDbLine
 10
9.985248
 20
2.1225876145
 30
0.0
 11
17.751552
 21
1.0131156145
 31
0.0
  0
LINE
  5
16C
330
164
100
AcDbEntity
  8
9
  6
CONTINUOUS
 62
   179
100
AcDbLine
 10
17.751552
 20
1.0131156145
 30
0.0
 11
17.751552
 21
3.2320596145
 31
0.0
  0
LINE
  5
16D
330
164
100
AcDbEntity
  8
9
  6
CONTINUOUS
 62
   179
100
AcDbLine
 10
9.985248
 20
4.3415316145
 30
0.0
 11
9.985248
 21
2.1225876145
 31
0.0
  0
LINE
  5
16E
330
164
100
AcDbEntity
  8
9
  6
CONTINUOUS
 62
   179
100
AcDbLine
 10
17.751552
 20
3.2320596145
 30
0.0
 11
17.751552
 21
5.4510036145
 31
0.0
  0
LINE
  5
16F
330
164
100
AcDbEntity
  8
9
  6
CONTINUOUS
 62
   179
100
AcDbLine
 10
17.751552
 20
5.4510036145
 30
0.0
 11
9.985248
 21
4.3415316145
 31
0.0
  0
ENDBLK
  5
166
330
164
100
AcDbEntity
  8
0
100
AcDbBlockEnd
  0
ENDSEC
  0
SECTION
  2
ENTITIES
  0
INSERT
  5
172
330
1F
100
AcDbEntity
  8
0
  6
CONTINUOUS
 62
     7
100
AcDbBlockReference
 66
     1
  2
ﾌﾞﾛｯｸ2
 10
0.0
 20
0.0
 30
0.0
  0
ATTRIB
  5
173
330
172
100
AcDbEntity
  8
SLD-0
 62
     7
100
AcDbText
 10
78.3050930978
 20
15.9259892778
 30
0.0
 40
4.0
  1
J95SC-25GR,J95SC-25NI
 41
0.7
  7
SLDTEXTSTYLE0
 11
78.3050930978
 21
14.5129490301
 31
0.0
100
AcDbAttribute
  2
AUTOATTR0
 70
     0
 74
     1
  0
ATTRIB
  5
174
330
172
100
AcDbEntity
  8
SLD-0
 62
     7
100
AcDbText
 10
78.3050930978
 20
9.8784313554
 30
0.0
 40
4.0
  1

 41
0.7
  7
SLDTEXTSTYLE0
 11
78.3050930978
 21
8.4653911077
 31
0.0
100
AcDbAttribute
  2
AUTOATTR0
 70
     0
 74
     1
  0
ATTRIB
  5
175
330
172
100
AcDbEntity
  8
SLD-0
 62
     7
100
AcDbText
 10
66.9646413579
 20
16.8429035566
 30
0.0
 40
2.38125
  1
Title
 41
0.7
  7
SLDTEXTSTYLE0
 11
66.9646413579
 21
16.0017030342
 31
0.0
100
AcDbAttribute
  2
AUTOATTR0
 70
     0
 74
     1
  0
ATTRIB
  5
176
330
172
100
AcDbEntity
  8
SLD-0
 62
     7
100
AcDbText
 10
66.9646413579
 20
2.4516379051
 30
0.0
 40
2.38125
  1
Date
 41
0.7
  7
SLDTEXTSTYLE0
 11
66.9646413579
 21
1.6104373826
 31
0.0
100
AcDbAttribute
  2
AUTOATTR0
 70
     0
 74
     1
  0
ATTRIB
  5
177
330
172
100
AcDbEntity
  8
SLD-0
 62
     7
100
AcDbText
 10
51.857512217
 20
2.0282473934
 30
0.0
 40
4.0
  1
1:1
 41
0.7
  7
SLDTEXTSTYLE0
 11
51.857512217
 21
0.6152071457
 31
0.0
100
AcDbAttribute
  2
AUTOATTR0
 70
     0
 74
     1
  0
ATTRIB
  5
178
330
172
100
AcDbEntity
  8
SLD-0
 62
     7
100
AcDbText
 10
38.4275608796
 20
2.4516379051
 30
0.0
 40
2.38125
  1
Scale
 41
0.7
  7
SLDTEXTSTYLE0
 11
38.4275608796
 21
1.6104373826
 31
0.0
100
AcDbAttribute
  2
AUTOATTR0
 70
     0
 74
     1
  0
ATTRIB
  5
179
330
172
100
AcDbEntity
  8
SLD-0
 62
     7
100
AcDbText
 10
78.3050930978
 20
2.0282473934
 30
0.0
 40
4.0
  1
2016/04/15
 41
0.7
  7
SLDTEXTSTYLE0
 11
78.3050930978
 21
0.6152071457
 31
0.0
100
AcDbAttribute
  2
AUTOATTR0
 70
     0
 74
     1
  0
SEQEND
  5
17A
330
172
100
AcDbEntity
  8
0
  6
CONTINUOUS
 62
     7
  0
LINE
  5
17B
330
1F
100
AcDbEntity
  8
0
  6
CONTINUOUS
 62
     7
100
AcDbLine
 10
152.5828307186
 20
97.7430225963
 30
0.0
 11
152.7773323853
 21
103.3128215897
 31
0.0
  0
LINE
  5
17C
330
1F
100
AcDbEntity
  8
0
  6
CONTINUOUS
 62
     7
100
AcDbLine
 10
153.0825261321
 20
97.7430225963
 30
0.0
 11
152.5828307186
 21
97.7430225963
 31
0.0
  0
LINE
  5
17D
330
1F
100
AcDbEntity
  8
0
  6
CONTINUOUS
 62
     7
100
AcDbLine
 10
173.4121405942
 20
103.3128215897
 30
0.0
 11
173.6066422609
 21
97.7430225963
 31
0.0
  0
LINE
  5
17E
330
1F
100
AcDbEntity
  8
0
  6
CONTINUOUS
 62
     7
100
AcDbLine
 10
173.6066422609
 20
97.7430225963
 30
0.0
 11
173.1069468474
 21
97.7430225963
 31
0.0
  0
LINE
  5
17F
330
1F
100
AcDbEntity
  8
0
  6
CONTINUOUS
 62
     7
100
AcDbLine
 10
173.1069468474
 20
97.7430225963
 30
0.0
 11
153.0825261321
 21
97.7430225963
 31
0.0
  0
ARC
  5
180
330
1F
100
AcDbEntity
  8
0
  6
CONTINUOUS
 62
     7
100
AcDbCircle
 10
171.4133589401
 20
103.2430225963
 30
0.0
 40
2.000000000000005
100
AcDbArc
 50
2.0
 51
90.0
  0
ARC
  5
181
330
1F
100
AcDbEntity
  8
0
  6
CONTINUOUS
 62
     7
100
AcDbCircle
 10
154.7761140394
 20
103.2430225963
 30
0.0
 40
2.0
100
AcDbArc
 50
90.0
 51
178.0
  0
ELLIPSE
  5
182
330
1F
100
AcDbEntity
  8
0
  6
CONTINUOUS
 62
     7
100
AcDbEllipse
 10
170.2118921023
 20
104.7430225963
 30
0.0
 11
0.4827758901571997
 21
0.499929069024958
 31
0.0
210
0.0
220
0.0
230
1.0
 40
0.0174444382
 41
0.0168443049370372
 42
1.552734046689304
  0
LINE
  5
183
330
1F
100
AcDbEntity
  8
0
  6
CONTINUOUS
 62
     7
100
AcDbLine
 10
170.694452613
 20
105.2430225963
 30
0.0
 11
171.4133589401
 21
105.2430225963
 31
0.0
  0
LINE
  5
184
330
1F
100
AcDbEntity
  8
0
  6
CONTINUOUS
 62
     7
100
AcDbLine
 10
154.7761140394
 20
105.2430225963
 30
0.0
 11
155.4950203665
 21
105.2430225963
 31
0.0
  0
ELLIPSE
  5
185
330
1F
100
AcDbEntity
  8
0
  6
CONTINUOUS
 62
     7
100
AcDbEllipse
 10
155.9775808771
 20
104.7430225963
 30
0.0
 11
-0.4827758901571713
 21
0.499929069024958
 31
0.0
210
0.0
220
0.0
230
1.0
 40
0.0174444382
 41
4.730451260490254
 42
6.266341002244995
  0
LINE
  5
186
330
1F
100
AcDbEntity
  8
0
  6
CONTINUOUS
 62
     7
100
AcDbLine
 10
170.6725041327
 20
105.8796740032
 30
0.0
 11
170.6947364897
 21
105.2430225963
 31
0.0
  0
LINE
  5
187
330
1F
100
AcDbEntity
  8
0
  6
CONTINUOUS
 62
     7
100
AcDbLine
 10
155.4947364897
 20
105.2430225963
 30
0.0
 11
155.5169688468
 21
105.8796740032
 31
0.0
  0
ARC
  5
188
330
1F
100
AcDbEntity
  8
0
  6
CONTINUOUS
 62
     7
100
AcDbCircle
 10
163.0947364897
 20
77.8630225963
 30
0.0
 40
29.38
100
AcDbArc
 50
75.8131073153
 51
104.1868926847
  0
ARC
  5
189
330
1F
100
AcDbEntity
  8
0
  6
CONTINUOUS
 62
     7
100
AcDbCircle
 10
156.0166642603
 20
105.8622242548
 30
0.0
 40
0.5000000000000114
100
AcDbArc
 50
104.1868926847
 51
178.0
  0
ARC
  5
18A
330
1F
100
AcDbEntity
  8
0
  6
CONTINUOUS
 62
     7
100
AcDbCircle
 10
170.1728087192
 20
105.8622242548
 30
0.0
 40
0.5000000000000087
100
AcDbArc
 50
2.0
 51
75.8131073153
  0
LINE
  5
18B
330
1F
100
AcDbEntity
  8
0
  6
PHANTOM
 62
     8
100
AcDbLine
 10
153.2770277988
 20
103.3128215897
 30
0.0
 11
153.0825261321
 21
97.7430225963
 31
0.0
  0
ARC
  5
18C
330
1F
100
AcDbEntity
  8
0
  6
PHANTOM
 62
     8
100
AcDbCircle
 10
153.0271800921
 20
99.728236426
 30
0.0
 40
3.593281880402173
100
AcDbArc
 50
86.0128986004
 51
93.9871013996
  0
LINE
  5
18D
330
1F
100
AcDbEntity
  8
0
  6
PHANTOM
 62
     8
100
AcDbLine
 10
173.1069468474
 20
97.7430225963
 30
0.0
 11
172.9124451807
 21
103.3128215897
 31
0.0
  0
ARC
  5
18E
330
1F
100
AcDbEntity
  8
0
  6
PHANTOM
 62
     8
100
AcDbCircle
 10
173.1622928874
 20
99.728236426
 30
0.0
 40
3.59328188040257
100
AcDbArc
 50
86.0128986004
 51
93.9871013996
  0
LINE
  5
18F
330
1F
100
AcDbEntity
  8
0
  6
PHANTOM
 62
     8
100
AcDbLine
 10
155.9775808771
 20
104.7604723446
 30
0.0
 11
154.7761140394
 21
104.7604723446
 31
0.0
  0
LINE
  5
190
330
1F
100
AcDbEntity
  8
0
  6
PHANTOM
 62
     8
100
AcDbLine
 10
155.9944319033
 20
105.2430225963
 30
0.0
 11
155.9775808771
 21
104.7604723446
 31
0.0
  0
LINE
  5
191
330
1F
100
AcDbEntity
  8
0
  6
PHANTOM
 62
     8
100
AcDbLine
 10
155.9944319033
 20
105.2430225963
 30
0.0
 11
170.1950410762
 21
105.2430225963
 31
0.0
  0
LINE
  5
192
330
1F
100
AcDbEntity
  8
0
  6
PHANTOM
 62
     8
100
AcDbLine
 10
170.2118921023
 20
104.7604723446
 30
0.0
 11
170.1950410762
 21
105.2430225963
 31
0.0
  0
LINE
  5
193
330
1F
100
AcDbEntity
  8
0
  6
PHANTOM
 62
     8
100
AcDbLine
 10
171.4133589401
 20
104.7604723446
 30
0.0
 11
170.2118921023
 21
104.7604723446
 31
0.0
  0
ARC
  5
194
330
1F
100
AcDbEntity
  8
0
  6
PHANTOM
 62
     8
100
AcDbCircle
 10
171.4133589401
 20
103.2604723446
 30
0.0
 40
1.500000000000026
100
AcDbArc
 50
2.0
 51
90.0
  0
ARC
  5
195
330
1F
100
AcDbEntity
  8
0
  6
PHANTOM
 62
     8
100
AcDbCircle
 10
154.7761140394
 20
103.2604723446
 30
0.0
 40
1.5
100
AcDbArc
 50
90.0
 51
178.0
  0
LINE
  5
196
330
1F
100
AcDbEntity
  8
0
  6
PHANTOM
 62
     8
100
AcDbLine
 10
171.4133589401
 20
104.7604723446
 30
0.0
 11
171.4133589401
 21
105.2430225963
 31
0.0
  0
LINE
  5
197
330
1F
100
AcDbEntity
  8
0
  6
PHANTOM
 62
     8
100
AcDbLine
 10
154.7761140394
 20
104.7604723446
 30
0.0
 11
154.7761140394
 21
105.2430225963
 31
0.0
  0
ARC
  5
198
330
1F
100
AcDbEntity
  8
0
  6
PHANTOM
 62
     8
100
AcDbCircle
 10
155.7445841965
 20
101.6584374326
 30
0.0
 40
3.593281880403592
100
AcDbArc
 50
86.0128986004
 51
93.9871013996
  0
ARC
  5
199
330
1F
100
AcDbEntity
  8
0
  6
PHANTOM
 62
     8
100
AcDbCircle
 10
170.444888783
 20
101.6584374326
 30
0.0
 40
3.59328188041197
100
AcDbArc
 50
86.0128986004
 51
93.9871013996
  0
LINE
  5
19A
330
1F
100
AcDbEntity
  8
0
  6
PHANTOM
 62
     8
100
AcDbLine
 10
170.1950410762
 20
105.2430225963
 30
0.0
 11
170.1728087192
 21
105.8796740032
 31
0.0
  0
ARC
  5
19B
330
1F
100
AcDbEntity
  8
0
  6
PHANTOM
 62
     8
100
AcDbCircle
 10
170.422656426
 20
102.2950888395
 30
0.0
 40
3.593281880412325
100
AcDbArc
 50
86.0128986004
 51
93.9871013996
  0
LINE
  5
19C
330
1F
100
AcDbEntity
  8
0
  6
PHANTOM
 62
     8
100
AcDbLine
 10
156.0166642603
 20
105.8796740032
 30
0.0
 11
155.9944319033
 21
105.2430225963
 31
0.0
  0
ARC
  5
19D
330
1F
100
AcDbEntity
  8
0
  6
PHANTOM
 62
     8
100
AcDbCircle
 10
155.7668165535
 20
102.2950888395
 30
0.0
 40
3.593281880402855
100
AcDbArc
 50
86.0128986004
 51
93.9871013996
  0
ARC
  5
19E
330
1F
100
AcDbEntity
  8
0
  6
PHANTOM
 62
     8
100
AcDbCircle
 10
163.0947364897
 20
77.8804723446
 30
0.0
 40
28.88000000000001
100
AcDbArc
 50
75.8131073153
 51
104.1868926847
  0
ARC
  5
19F
330
1F
100
AcDbEntity
  8
0
  6
PHANTOM
 62
     8
100
AcDbCircle
 10
142.465999196
 20
102.5759295569
 30
0.0
 40
13.94758943513241
100
AcDbArc
 50
13.7017894887
 51
15.6864373574
  0
ARC
  5
1A0
330
1F
100
AcDbEntity
  8
0
  6
PHANTOM
 62
     8
100
AcDbCircle
 10
183.7234737835
 20
102.5759295569
 30
0.0
 40
13.94758943510063
100
AcDbArc
 50
164.3135626426
 51
166.2982105113
  0
LINE
  5
1A1
330
1F
100
AcDbEntity
  8
0
  6
CONTINUOUS
 62
     7
100
AcDbLine
 10
123.0270909111
 20
107.2430225963
 30
0.0
 11
63.1324627639
 21
107.2430225963
 31
0.0
  0
ARC
  5
1A2
330
1F
100
AcDbEntity
  8
0
  6
CONTINUOUS
 62
     7
100
AcDbCircle
 10
123.0270909111
 20
106.7430225963
 30
0.0
 40
0.4999999999999939
100
AcDbArc
 50
2.0
 51
89.183730221
  0
ARC
  5
1A3
330
1F
100
AcDbEntity
  8
0
  6
CONTINUOUS
 62
     7
100
AcDbCircle
 10
63.1324627639
 20
106.7430225963
 30
0.0
 40
0.5000000000000081
100
AcDbArc
 50
90.5231893016
 51
178.0
  0
LINE
  5
1A4
330
1F
100
AcDbEntity
  8
0
  6
CONTINUOUS
 62
     7
100
AcDbLine
 10
123.6471809419
 20
103.3128215897
 30
0.0
 11
123.8416826087
 21
97.7430225963
 31
0.0
  0
LINE
  5
1A5
330
1F
100
AcDbEntity
  8
0
  6
CONTINUOUS
 62
     7
100
AcDbLine
 10
123.8416826087
 20
97.7430225963
 30
0.0
 11
123.3419871952
 21
97.7430225963
 31
0.0
  0
LINE
  5
1A6
330
1F
100
AcDbEntity
  8
0
  6
CONTINUOUS
 62
     7
100
AcDbLine
 10
121.8416826087
 20
97.7430225963
 30
0.0
 11
121.6471809419
 21
103.3128215897
 31
0.0
  0
LINE
  5
1A7
330
1F
100
AcDbEntity
  8
0
  6
CONTINUOUS
 62
     7
100
AcDbLine
 10
123.3419871952
 20
97.7430225963
 30
0.0
 11
121.8416826087
 21
97.7430225963
 31
0.0
  0
LINE
  5
1A8
330
1F
100
AcDbEntity
  8
0
  6
CONTINUOUS
 62
     7
100
AcDbLine
 10
121.5797768375
 20
105.2430225963
 30
0.0
 11
123.0969324501
 21
105.2430225963
 31
0.0
  0
LINE
  5
1A9
330
1F
100
AcDbEntity
  8
0
  6
CONTINUOUS
 62
     7
100
AcDbLine
 10
121.6471809419
 20
103.3128215897
 30
0.0
 11
121.5797768375
 21
105.2430225963
 31
0.0
  0
LINE
  5
1AA
330
1F
100
AcDbEntity
  8
0
  6
CONTINUOUS
 62
     7
100
AcDbLine
 10
123.5966278636
 20
104.7604723446
 30
0.0
 11
123.6471809419
 21
103.3128215897
 31
0.0
  0
ARC
  5
1AB
330
1F
100
AcDbEntity
  8
0
  6
CONTINUOUS
 62
     7
100
AcDbCircle
 10
123.0969324501
 20
104.7430225963
 30
0.0
 40
0.5000000000000081
100
AcDbArc
 50
2.0
 51
90.0
  0
LINE
  5
1AC
330
1F
100
AcDbEntity
  8
0
  6
CONTINUOUS
 62
     7
100
AcDbLine
 10
121.8416826087
 20
97.7430225963
 30
0.0
 11
119.2745411156
 21
97.7430225963
 31
0.0
  0
LINE
  5
1AD
330
1F
100
AcDbEntity
  8
0
  6
CONTINUOUS
 62
     7
100
AcDbLine
 10
119.1825288733
 20
103.5011784774
 30
0.0
 11
121.6391059819
 21
103.5440581904
 31
0.0
  0
ARC
  5
1AE
330
1F
100
AcDbEntity
  8
0
  6
CONTINUOUS
 62
     7
100
AcDbCircle
 10
118.7601615952
 20
98.0430225963
 30
0.0
 40
0.3000000000000007
100
AcDbArc
 50
240.0
 51
270.0
  0
LINE
  5
1AF
330
1F
100
AcDbEntity
  8
0
  6
CONTINUOUS
 62
     7
100
AcDbLine
 10
118.6101615952
 20
97.7832149752
 30
0.0
 11
118.3297768375
 21
97.9450951905
 31
0.0
  0
LINE
  5
1B0
330
1F
100
AcDbEntity
  8
0
  6
CONTINUOUS
 62
     7
100
AcDbLine
 10
119.2745411156
 20
97.7430225963
 30
0.0
 11
118.7601615952
 21
97.7430225963
 31
0.0
  0
LINE
  5
1B1
330
1F
100
AcDbEntity
  8
0
  6
CONTINUOUS
 62
     7
100
AcDbLine
 10
118.3297768375
 20
103.0522748675
 30
0.0
 11
119.0377645953
 21
103.46103179
 31
0.0
  0
ARC
  5
1B2
330
1F
100
AcDbEntity
  8
0
  6
CONTINUOUS
 62
     7
100
AcDbCircle
 10
119.1877645953
 20
103.2012241689
 30
0.0
 40
0.2999999999999983
100
AcDbArc
 50
91.0
 51
120.0
  0
LINE
  5
1B3
330
1F
100
AcDbEntity
  8
0
  6
CONTINUOUS
 62
     7
100
AcDbLine
 10
118.1797768375
 20
98.2049028116
 30
0.0
 11
118.1797768375
 21
102.7924672463
 31
0.0
  0
ARC
  5
1B4
330
1F
100
AcDbEntity
  8
0
  6
CONTINUOUS
 62
     7
100
AcDbCircle
 10
118.4797768375
 20
102.7924672463
 30
0.0
 40
0.2999999999999972
100
AcDbArc
 50
120.0
 51
180.0
  0
ARC
  5
1B5
330
1F
100
AcDbEntity
  8
0
  6
CONTINUOUS
 62
     7
100
AcDbCircle
 10
118.4797768375
 20
98.2049028116
 30
0.0
 40
0.3000000000000078
100
AcDbArc
 50
180.0
 51
240.0
  0
LINE
  5
1B6
330
1F
100
AcDbEntity
  8
0
  6
CONTINUOUS
 62
     7
100
AcDbLine
 10
65.5779493186
 20
105.2430225963
 30
0.0
 11
63.0592791443
 21
105.2430225963
 31
0.0
  0
SPLINE
  5
1B7
330
1F
100
AcDbEntity
  8
0
  6
CONTINUOUS
 62
     7
100
AcDbSpline
210
0.0
220
0.0
230
1.0
 70
     8
 71
     3
 72
    12
 73
     8
 74
     0
 42
0.000000001
 43
0.00000001
 40
0.0
 40
0.0
 40
0.0
 40
0.0
 40
0.5000000000000016
 40
0.5000000000000016
 40
0.7500000000000008
 40
0.7500000000000008
 40
1.0
 40
1.0
 40
1.0
 40
1.0
 10
62.59102066010011
 20
105.5650035480631
 30
0.0
 10
62.58933546698868
 20
105.5167459312939
 30
0.0
 10
62.62850052854486
 20
105.465012361137
 30
0.0
 10
62.74662462642816
 20
105.3830420412598
 30
0.0
 10
62.79634763031513
 20
105.3549101023783
 30
0.0
 10
62.91386263127111
 20
105.2989176340875
 30
0.0
 10
62.98183922000716
 20
105.2708857794795
 30
0.0
 10
63.05927914434201
 20
105.2430225962914
 30
0.0
  0
LINE
  5
1B8
330
1F
100
AcDbEntity
  8
0
  6
CONTINUOUS
 62
     7
100
AcDbLine
 10
62.5910206601
 20
105.5650035481
 30
0.0
 11
62.6201081712
 21
106.3979608833
 31
0.0
  0
LINE
  5
1B9
330
1F
100
AcDbEntity
  8
0
  6
CONTINUOUS
 62
     7
100
AcDbLine
 10
65.5779493186
 20
105.2430225963
 30
0.0
 11
121.5797768375
 21
105.2430225963
 31
0.0
  0
LINE
  5
1BA
330
1F
100
AcDbEntity
  8
0
  6
CONTINUOUS
 62
     7
100
AcDbLine
 10
123.5797768375
 20
105.2430225963
 30
0.0
 11
123.5966278636
 21
104.7604723446
 31
0.0
  0
LINE
  5
1BB
330
1F
100
AcDbEntity
  8
0
  6
CONTINUOUS
 62
     7
100
AcDbLine
 10
123.5575444805
 20
105.8796740032
 30
0.0
 11
123.5797768375
 21
105.2430225963
 31
0.0
  0
LINE
  5
1BC
330
1F
100
AcDbEntity
  8
0
  6
CONTINUOUS
 62
     7
100
AcDbLine
 10
123.5267863246
 20
106.7604723445
 30
0.0
 11
123.5575444805
 21
105.8796740032
 31
0.0
  0
LINE
  5
1BD
330
1F
100
AcDbEntity
  8
0
  6
CONTINUOUS
 62
     7
100
AcDbLine
 10
62.6201081712
 20
106.3979608833
 30
0.0
 11
62.6327673504
 21
106.7604723446
 31
0.0
  0
LINE
  5
1BE
330
1F
100
AcDbEntity
  8
0
  6
CONTINUOUS
 62
     7
100
AcDbLine
 10
83.0797768375
 20
103.5502022733
 30
0.0
 11
83.0797768375
 21
104.2430225963
 31
0.0
  0
LINE
  5
1BF
330
1F
100
AcDbEntity
  8
0
  6
CONTINUOUS
 62
     7
100
AcDbLine
 10
87.0797768375
 20
104.2430225963
 30
0.0
 11
83.0797768375
 21
104.2430225963
 31
0.0
  0
LINE
  5
1C0
330
1F
100
AcDbEntity
  8
0
  6
CONTINUOUS
 62
     7
100
AcDbLine
 10
87.0797768375
 20
103.5502022733
 30
0.0
 11
87.0797768375
 21
104.2430225963
 31
0.0
  0
LINE
  5
1C1
330
1F
100
AcDbEntity
  8
0
  6
CONTINUOUS
 62
     7
100
AcDbLine
 10
83.0797768375
 20
103.0502022733
 30
0.0
 11
83.0797768375
 21
102.5855070761
 31
0.0
  0
LINE
  5
1C2
330
1F
100
AcDbEntity
  8
0
  6
CONTINUOUS
 62
     7
100
AcDbLine
 10
87.0797768375
 20
103.0502022733
 30
0.0
 11
87.0797768375
 21
102.5855070761
 31
0.0
  0
LINE
  5
1C3
330
1F
100
AcDbEntity
  8
0
  6
CONTINUOUS
 62
     7
100
AcDbLine
 10
83.0797768375
 20
103.0502022733
 30
0.0
 11
83.0797768375
 21
103.5502022733
 31
0.0
  0
LINE
  5
1C4
330
1F
100
AcDbEntity
  8
0
  6
CONTINUOUS
 62
     7
100
AcDbLine
 10
87.0797768375
 20
103.0502022733
 30
0.0
 11
87.0797768375
 21
103.5502022733
 31
0.0
  0
LINE
  5
1C5
330
1F
100
AcDbEntity
  8
0
  6
CONTINUOUS
 62
     7
100
AcDbLine
 10
87.0797768375
 20
105.2430225963
 30
0.0
 11
87.0797768375
 21
104.9430225963
 31
0.0
  0
LINE
  5
1C6
330
1F
100
AcDbEntity
  8
0
  6
CONTINUOUS
 62
     7
100
AcDbLine
 10
83.0797768375
 20
105.2430225963
 30
0.0
 11
83.0797768375
 21
104.9430225963
 31
0.0
  0
LINE
  5
1C7
330
1F
100
AcDbEntity
  8
0
  6
CONTINUOUS
 62
     7
100
AcDbLine
 10
87.0797768375
 20
101.7430225963
 30
0.0
 11
83.0797768375
 21
101.7430225963
 31
0.0
  0
LINE
  5
1C8
330
1F
100
AcDbEntity
  8
0
  6
CONTINUOUS
 62
     7
100
AcDbLine
 10
87.0797768375
 20
102.5855070761
 30
0.0
 11
87.0797768375
 21
101.7430225963
 31
0.0
  0
LINE
  5
1C9
330
1F
100
AcDbEntity
  8
0
  6
CONTINUOUS
 62
     7
100
AcDbLine
 10
83.0797768375
 20
102.5855070761
 30
0.0
 11
83.0797768375
 21
101.7430225963
 31
0.0
  0
LINE
  5
1CA
330
1F
100
AcDbEntity
  8
0
  6
CONTINUOUS
 62
     7
100
AcDbLine
 10
70.4047768375
 20
103.9430225963
 30
0.0
 11
70.4047768375
 21
105.2430225963
 31
0.0
  0
LINE
  5
1CB
330
1F
100
AcDbEntity
  8
0
  6
CONTINUOUS
 62
     7
100
AcDbLine
 10
66.5547768375
 20
103.9430225963
 30
0.0
 11
70.4047768375
 21
103.9430225963
 31
0.0
  0
LINE
  5
1CC
330
1F
100
AcDbEntity
  8
0
  6
CONTINUOUS
 62
     7
100
AcDbLine
 10
66.5547768375
 20
103.9430225963
 30
0.0
 11
66.5547768375
 21
105.2430225963
 31
0.0
  0
LINE
  5
1CD
330
1F
100
AcDbEntity
  8
0
  6
CONTINUOUS
 62
     7
100
AcDbLine
 10
70.2547768375
 20
103.6430225963
 30
0.0
 11
66.7047768375
 21
103.6430225963
 31
0.0
  0
LINE
  5
1CE
330
1F
100
AcDbEntity
  8
0
  6
CONTINUOUS
 62
     7
100
AcDbLine
 10
66.7047768375
 20
103.6430225963
 30
0.0
 11
66.5547768375
 21
103.9430225963
 31
0.0
  0
LINE
  5
1CF
330
1F
100
AcDbEntity
  8
0
  6
CONTINUOUS
 62
     7
100
AcDbLine
 10
70.4047768375
 20
103.9430225963
 30
0.0
 11
70.2547768375
 21
103.6430225963
 31
0.0
  0
LINE
  5
1D0
330
1F
100
AcDbEntity
  8
0
  6
CONTINUOUS
 62
     7
100
AcDbLine
 10
87.0797768375
 20
104.9430225963
 30
0.0
 11
87.0797768375
 21
104.2430225963
 31
0.0
  0
LINE
  5
1D1
330
1F
100
AcDbEntity
  8
0
  6
CONTINUOUS
 62
     7
100
AcDbLine
 10
83.0797768375
 20
104.9430225963
 30
0.0
 11
83.0797768375
 21
104.2430225963
 31
0.0
  0
LINE
  5
1D2
330
1F
100
AcDbEntity
  8
0
  6
CONTINUOUS
 62
     7
100
AcDbLine
 10
121.6042213761
 20
104.5430225963
 30
0.0
 11
119.5797768375
 21
105.2430225963
 31
0.0
  0
LINE
  5
1D3
330
1F
100
AcDbEntity
  8
0
  6
PHANTOM
 62
     8
100
AcDbLine
 10
123.3419871952
 20
97.7430225963
 30
0.0
 11
123.1474855284
 21
103.3128215897
 31
0.0
  0
ARC
  5
1D4
330
1F
100
AcDbEntity
  8
0
  6
PHANTOM
 62
     8
100
AcDbCircle
 10
123.3973332352
 20
99.728236426
 30
0.0
 40
3.593281880403407
100
AcDbArc
 50
86.0128986004
 51
93.9871013996
  0
LINE
  5
1D5
330
1F
100
AcDbEntity
  8
0
  6
PHANTOM
 62
     8
100
AcDbLine
 10
123.1474855284
 20
103.3128215897
 30
0.0
 11
121.6471809419
 21
103.3128215897
 31
0.0
  0
LINE
  5
1D6
330
1F
100
AcDbEntity
  8
0
  6
PHANTOM
 62
     8
100
AcDbLine
 10
123.1474855284
 20
103.3128215897
 30
0.0
 11
123.0969324501
 21
105.2430225963
 31
0.0
  0
LINE
  5
1D7
330
1F
100
AcDbEntity
  8
0
  6
PHANTOM
 62
     8
100
AcDbLine
 10
119.1825288733
 20
103.2012241689
 30
0.0
 11
118.4745411156
 21
102.7924672463
 31
0.0
  0
LINE
  5
1D8
330
1F
100
AcDbEntity
  8
0
  6
PHANTOM
 62
     8
100
AcDbLine
 10
121.6495742363
 20
103.2442866059
 30
0.0
 11
119.1825288733
 21
103.2012241689
 31
0.0
  0
LINE
  5
1D9
330
1F
100
AcDbEntity
  8
0
  6
PHANTOM
 62
     8
100
AcDbLine
 10
118.4745411156
 20
98.2049028116
 30
0.0
 11
119.2745411156
 21
97.7430225963
 31
0.0
  0
LINE
  5
1DA
330
1F
100
AcDbEntity
  8
0
  6
PHANTOM
 62
     8
100
AcDbLine
 10
118.4745411156
 20
102.7924672463
 30
0.0
 11
118.4745411156
 21
98.2049028116
 31
0.0
  0
ARC
  5
1DB
330
1F
100
AcDbEntity
  8
0
  6
PHANTOM
 62
     8
100
AcDbCircle
 10
123.4807914341
 20
103.3512013232
 30
0.0
 40
4.300878304289947
100
AcDbArc
 50
178.0016173803
 51
181.9983826197
  0
ARC
  5
1DC
330
1F
100
AcDbEntity
  8
0
  6
PHANTOM
 62
     8
100
AcDbCircle
 10
122.6874720318
 20
95.6872312827
 30
0.0
 40
4.907897394272514
100
AcDbArc
 50
149.1372200911
 51
152.6098539086
  0
ARC
  5
1DD
330
1F
100
AcDbEntity
  8
0
  6
PHANTOM
 62
     8
100
AcDbCircle
 10
122.6874720318
 20
105.3101387753
 30
0.0
 40
4.907897394287625
100
AcDbArc
 50
207.3901460914
 51
210.8627799089
  0
ARC
  5
1DE
330
1F
100
AcDbEntity
  8
0
  6
PHANTOM
 62
     8
100
AcDbCircle
 10
123.3954597896
 20
105.7188956978
 30
0.0
 40
4.907897394246007
100
AcDbArc
 50
207.3901460914
 51
210.8627799089
  0
LINE
  5
1DF
330
1F
100
AcDbEntity
  8
0
  6
PHANTOM
 62
     8
100
AcDbLine
 10
118.4745411156
 20
98.2049028116
 30
0.0
 11
118.1797768375
 21
98.2049028116
 31
0.0
  0
LINE
  5
1E0
330
1F
100
AcDbEntity
  8
0
  6
PHANTOM
 62
     8
100
AcDbLine
 10
118.4745411156
 20
102.7924672463
 30
0.0
 11
118.1797768375
 21
102.7924672463
 31
0.0
  0
SPLINE
  5
1E1
330
1F
100
AcDbEntity
  8
0
  6
PHANTOM
 62
     8
100
AcDbSpline
210
0.0
220
0.0
230
1.0
 70
     8
 71
     3
 72
    20
 73
    16
 74
     0
 42
0.000000001
 43
0.00000001
 40
0.0
 40
0.0
 40
0.0
 40
0.0
 40
0.2499999999999998
 40
0.2499999999999998
 40
0.3749999999999998
 40
0.3749999999999998
 40
0.4999999999999999
 40
0.4999999999999999
 40
0.6249999999999999
 40
0.6249999999999999
 40
0.7499999999999999
 40
0.7499999999999999
 40
0.875
 40
0.875
 40
1.0
 40
1.0
 40
1.0
 40
1.0
 10
65.6001816755857
 20
105.8796740031629
 30
0.0
 10
65.20095564904521
 20
105.8819923667256
 30
0.0
 10
64.80507995156684
 20
105.901242885743
 30
0.0
 10
64.2634279080873
 20
105.9499791813655
 30
0.0
 10
64.0882470047546
 20
105.9697951986306
 30
0.0
 10
63.76351179967695
 20
106.014190427255
 30
0.0
 10
63.61414245916951
 20
106.0386206916913
 30
0.0
 10
63.34074206859704
 20
106.0910047075559
 30
0.0
 10
63.21617517924902
 20
106.1191966548998
 30
0.0
 10
63.00313978000548
 20
106.1759606210837
 30
0.0
 10
62.91313537436401
 20
106.2047741825792
 30
0.0
 10
62.76644624057197
 20
106.2625950265553
 30
0.0
 10
62.71071629490574
 20
106.2913789956421
 30
0.0
 10
62.63751030495589
 20
106.3462795713561
 30
0.0
 10
62.61922588597829
 20
106.372695540215
 30
0.0
 10
62.62010817120001
 20
106.397960883292
 30
0.0
  0
LINE
  5
1E2
330
1F
100
AcDbEntity
  8
0
  6
PHANTOM
 62
     8
100
AcDbLine
 10
65.6001816756
 20
105.8796740032
 30
0.0
 11
65.5779493186
 21
105.2430225963
 31
0.0
  0
SPLINE
  5
1E3
330
1F
100
AcDbEntity
  8
0
  6
PHANTOM
 62
     8
100
AcDbSpline
210
0.0
220
0.0
230
1.0
 70
     8
 71
     3
 72
    20
 73
    16
 74
     0
 42
0.000000001
 43
0.00000001
 40
0.0
 40
0.0
 40
0.0
 40
0.0
 40
0.125
 40
0.125
 40
0.2500000000000001
 40
0.2500000000000001
 40
0.3750000000000001
 40
0.3750000000000001
 40
0.5000000000000001
 40
0.5000000000000001
 40
0.6250000000000001
 40
0.6250000000000001
 40
0.7500000000000002
 40
0.7500000000000002
 40
1.0
 40
1.0
 40
1.0
 40
1.0
 10
63.1198035847096
 20
106.874234966981
 30
0.0
 10
63.11889136577313
 20
106.8476601745547
 30
0.0
 10
63.13360736533656
 20
106.8200605014685
 30
0.0
 10
63.19298125345873
 20
106.7630237251802
 30
0.0
 10
63.23823626488136
 20
106.7333043983899
 30
0.0
 10
63.3579275455957
 20
106.6737240606042
 30
0.0
 10
63.43154491487451
 20
106.6441247294813
 30
0.0
 10
63.60631813130073
 20
106.5859665065023
 30
0.0
 10
63.70878589671383
 20
106.557142413526
 30
0.0
 10
63.93482299424458
 20
106.5036490437147
 30
0.0
 10
64.05867384085055
 20
106.4787733477348
 30
0.0
 10
64.32889349127385
 20
106.4337734712453
 30
0.0
 10
64.47543075291584
 20
106.4137635577351
 30
0.0
 10
64.9294656302041
 20
106.3651849729602
 30
0.0
 10
65.26324266363216
 20
106.3469749760464
 30
0.0
 10
65.6001816755858
 20
106.3469749760464
 30
0.0
  0
LINE
  5
1E4
330
1F
100
AcDbEntity
  8
0
  6
PHANTOM
 62
     8
100
AcDbLine
 10
65.6001816756
 20
106.346974976
 30
0.0
 11
65.6001816756
 21
105.8796740032
 31
0.0
  0
ARC
  5
1E5
330
1F
100
AcDbEntity
  8
0
  6
PHANTOM
 62
     8
100
AcDbCircle
 10
63.1163234595
 20
106.3776149324
 30
0.0
 40
0.4966322281512045
100
AcDbArc
 50
89.5984994356
 51
177.652058432
  0
LINE
  5
1E6
330
1F
100
AcDbEntity
  8
0
  6
PHANTOM
 62
     8
100
AcDbLine
 10
123.057849067
 20
105.8796740032
 30
0.0
 11
65.6001816756
 21
105.8796740032
 31
0.0
  0
LINE
  5
1E7
330
1F
100
AcDbEntity
  8
0
  6
PHANTOM
 62
     8
100
AcDbLine
 10
123.080081424
 20
105.2430225963
 30
0.0
 11
123.057849067
 21
105.8796740032
 31
0.0
  0
ARC
  5
1E8
330
1F
100
AcDbEntity
  8
0
  6
PHANTOM
 62
     8
100
AcDbCircle
 10
123.3299291307
 20
101.6584374326
 30
0.0
 40
3.593281880402996
100
AcDbArc
 50
86.0128986004
 51
93.9871013996
  0
ARC
  5
1E9
330
1F
100
AcDbEntity
  8
0
  6
PHANTOM
 62
     8
100
AcDbCircle
 10
123.3076967737
 20
102.2950888395
 30
0.0
 40
3.593281880403265
100
AcDbArc
 50
86.0128986004
 51
93.9871013996
  0
LINE
  5
1EA
330
1F
100
AcDbEntity
  8
0
  6
PHANTOM
 62
     8
100
AcDbLine
 10
65.6001816756
 20
106.346974976
 30
0.0
 11
123.057849067
 21
106.346974976
 31
0.0
  0
LINE
  5
1EB
330
1F
100
AcDbEntity
  8
0
  6
PHANTOM
 62
     8
100
AcDbLine
 10
123.057849067
 20
106.346974976
 30
0.0
 11
123.057849067
 21
105.8796740032
 31
0.0
  0
ARC
  5
1EC
330
1F
100
AcDbEntity
  8
0
  6
PHANTOM
 62
     8
100
AcDbCircle
 10
123.0662217151
 20
105.8551097923
 30
0.0
 40
0.4919364392038046
100
AcDbArc
 50
2.8621810213
 51
90.975208436
  0
LINE
  5
1ED
330
1F
100
AcDbEntity
  8
0
  6
PHANTOM
 62
     8
100
AcDbLine
 10
63.1324627639
 20
107.2430225963
 30
0.0
 11
63.1198035847
 21
106.874234967
 31
0.0
  0
LINE
  5
1EE
330
1F
100
AcDbEntity
  8
0
  6
PHANTOM
 62
     8
100
AcDbLine
 10
123.057849067
 20
106.346974976
 30
0.0
 11
123.0270909111
 21
107.2430225963
 31
0.0
  0
LINE
  5
1EF
330
1F
100
AcDbEntity
  8
0
  6
PHANTOM
 62
     8
100
AcDbLine
 10
87.0797768375
 20
103.5502022733
 30
0.0
 11
83.0797768375
 21
103.5502022733
 31
0.0
  0
LINE
  5
1F0
330
1F
100
AcDbEntity
  8
0
  6
PHANTOM
 62
     8
100
AcDbLine
 10
87.0797768375
 20
102.5855070761
 30
0.0
 11
83.0797768375
 21
102.5855070761
 31
0.0
  0
LINE
  5
1F1
330
1F
100
AcDbEntity
  8
0
  6
PHANTOM
 62
     8
100
AcDbLine
 10
87.0797768375
 20
103.0502022733
 30
0.0
 11
83.0797768375
 21
103.0502022733
 31
0.0
  0
LINE
  5
1F2
330
1F
100
AcDbEntity
  8
0
  6
PHANTOM
 62
     8
100
AcDbLine
 10
87.0797768375
 20
104.9430225963
 30
0.0
 11
83.0797768375
 21
104.9430225963
 31
0.0
  0
ELLIPSE
  5
1F3
330
1F
100
AcDbEntity
  8
0
  6
CONTINUOUS
 62
     7
100
AcDbEllipse
 10
163.0947364897
 20
193.3019462757
 30
0.0
 11
28.06255025164876
 21
0.0
 31
0.0
210
0.0
220
0.0
230
1.0
 40
0.0349207695
 41
4.548066494152914
 42
4.876711466616488
  0
ELLIPSE
  5
1F4
330
1F
100
AcDbEntity
  8
0
  6
CONTINUOUS
 62
     7
100
AcDbEllipse
 10
158.4965651226
 20
189.3445963328
 30
0.0
 11
-2.123905633797563
 21
2.123905633797591
 31
-4.440892098500626E-16
210
-1.045454192463394E-16
220
1.045454192463408E-16
230
1.0
 40
0.998782766
 41
6.071423850792028
 42
7.067974482991419
  0
SPLINE
  5
1F5
330
1F
100
AcDbEntity
  8
0
  6
CONTINUOUS
 62
     7
100
AcDbSpline
210
0.0
220
0.0
230
1.0
 70
     8
 71
     3
 72
    12
 73
     8
 74
     0
 42
0.000000001
 43
0.00000001
 40
0.0
 40
0.0
 40
0.0
 40
0.0
 40
0.5000000000000016
 40
0.5000000000000016
 40
0.7500000000000008
 40
0.7500000000000008
 40
1.0
 40
1.0
 40
1.0
 40
1.0
 10
158.5041527934
 20
192.3351811431007
 30
0.0
 10
158.2131245526312
 20
192.3368663362121
 30
0.0
 10
157.9295358958479
 20
192.2977012746559
 30
0.0
 10
157.5148403144883
 20
192.1795771767726
 30
0.0
 10
157.3780902109065
 20
192.1298541728856
 30
0.0
 10
157.1153023450484
 20
192.0123391719297
 30
0.0
 10
156.9883679402917
 20
191.9443625831936
 30
0.0
 10
156.8659669200542
 20
191.8669226588588
 30
0.0
  0
SPLINE
  5
1F6
330
1F
100
AcDbEntity
  8
0
  6
CONTINUOUS
 62
     7
100
AcDbSpline
210
0.0
220
0.0
230
1.0
 70
     8
 71
     3
 72
    12
 73
     8
 74
     0
 42
0.000000001
 43
0.00000001
 40
0.0
 40
0.0
 40
0.0
 40
0.0
 40
0.4999999999999977
 40
0.4999999999999977
 40
0.7499999999999988
 40
0.7499999999999988
 40
1.0
 40
1.0
 40
1.0
 40
1.0
 10
169.3235060594361
 20
191.8669226588588
 30
0.0
 10
169.0786945476561
 20
192.0218084997756
 30
0.0
 10
168.817994978201
 20
192.1381949875394
 30
0.0
 10
168.4035200591698
 20
192.257067640706
 30
0.0
 10
168.2609608156021
 20
192.2871771741971
 30
0.0
 10
167.9750434646667
 20
192.3264973215034
 30
0.0
 10
167.8308273634767
 20
192.3360236994531
 30
0.0
 10
167.6853201860903
 20
192.3351811431007
 30
0.0
  0
ELLIPSE
  5
1F7
330
1F
100
AcDbEntity
  8
0
  6
CONTINUOUS
 62
     7
100
AcDbEllipse
 10
167.6929078568
 20
189.3445963328
 30
0.0
 11
-2.123905633797563
 21
-2.123905633797563
 31
-4.440892098500626E-16
210
-1.045454192463408E-16
220
-1.045454192463408E-16
230
1.0
 40
0.998782766
 41
2.356803477777967
 42
3.353354109977378
  0
LINE
  5
1F8
330
1F
100
AcDbEntity
  8
0
  6
CONTINUOUS
 62
     7
100
AcDbLine
 10
170.6947364897
 20
189.3482524846
 30
0.0
 11
170.6947364897
 21
133.3464249657
 31
0.0
  0
LINE
  5
1F9
330
1F
100
AcDbEntity
  8
0
  6
CONTINUOUS
 62
     7
100
AcDbLine
 10
170.6947364897
 20
133.3464249657
 30
0.0
 11
170.6947364897
 21
131.8461203792
 31
0.0
  0
LINE
  5
1FA
330
1F
100
AcDbEntity
  8
0
  6
CONTINUOUS
 62
     7
100
AcDbLine
 10
155.4947364897
 20
133.3464249657
 30
0.0
 11
155.4947364897
 21
131.8461203792
 31
0.0
  0
LINE
  5
1FB
330
1F
100
AcDbEntity
  8
0
  6
CONTINUOUS
 62
     7
100
AcDbLine
 10
155.4947364897
 20
189.3482524846
 30
0.0
 11
155.4947364897
 21
133.3464249657
 31
0.0
  0
ELLIPSE
  5
1FC
330
1F
100
AcDbEntity
  8
0
  6
CONTINUOUS
 62
     7
100
AcDbEllipse
 10
170.1944317176
 20
131.8467297378
 30
0.0
 11
-0.3539842722995843
 21
0.3539842722995843
 31
0.0
210
0.0
220
0.0
230
1.0
 40
0.998782766
 41
3.892693219532941
 42
3.926381829401517
  0
ELLIPSE
  5
1FD
330
1F
100
AcDbEntity
  8
0
  6
CONTINUOUS
 62
     7
100
AcDbEllipse
 10
170.2118921023
 20
131.8292693531
 30
0.0
 11
0.192672666163844
 21
0.4651529637513079
 31
0.0
210
0.0
220
0.0
230
1.0
 40
0.9518332917
 41
3.552049521601327
 42
5.087939263356289
  0
ELLIPSE
  5
1FE
330
1F
100
AcDbEntity
  8
0
  6
CONTINUOUS
 62
     7
100
AcDbEllipse
 10
155.9775808771
 20
131.8292693531
 30
0.0
 11
-0.192672666163844
 21
0.4651529637513079
 31
0.0
210
0.0
220
0.0
230
1.0
 40
0.9518332917
 41
1.195246043823292
 42
2.731135785578294
  0
ELLIPSE
  5
1FF
330
1F
100
AcDbEntity
  8
0
  6
CONTINUOUS
 62
     7
100
AcDbEllipse
 10
155.9950412619
 20
131.8467297378
 30
0.0
 11
-0.3539842722995843
 21
-0.3539842722996128
 31
0.0
210
0.0
220
0.0
230
1.0
 40
0.998782766
 41
5.498396131367732
 42
5.532084741236366
  0
ELLIPSE
  5
200
330
1F
100
AcDbEntity
  8
0
  6
CONTINUOUS
 62
     7
100
AcDbEllipse
 10
171.4133589401
 20
133.2765834267
 30
0.0
 11
2.0
 21
0.0
 31
0.0
210
0.0
220
0.0
230
1.0
 40
0.0349207695
 41
0.0349065850394893
 42
1.570796326794897
  0
ELLIPSE
  5
201
330
1F
100
AcDbEntity
  8
0
  6
CONTINUOUS
 62
     7
100
AcDbEllipse
 10
154.7761140394
 20
133.2765834267
 30
0.0
 11
2.0
 21
0.0
 31
0.0
210
0.0
220
0.0
230
1.0
 40
0.0349207695
 41
1.570796326794897
 42
3.106686068549877
  0
LINE
  5
202
330
1F
100
AcDbEntity
  8
0
  6
CONTINUOUS
 62
     7
100
AcDbLine
 10
155.4947364897
 20
133.3464249657
 30
0.0
 11
154.7761140394
 21
133.3464249657
 31
0.0
  0
LINE
  5
203
330
1F
100
AcDbEntity
  8
0
  6
CONTINUOUS
 62
     7
100
AcDbLine
 10
171.4133589401
 20
133.3464249657
 30
0.0
 11
170.6947364897
 21
133.3464249657
 31
0.0
  0
LINE
  5
204
330
1F
100
AcDbEntity
  8
0
  6
CONTINUOUS
 62
     7
100
AcDbLine
 10
173.1069468474
 20
131.0845191945
 30
0.0
 11
153.0825261321
 21
131.0845191945
 31
0.0
  0
LINE
  5
205
330
1F
100
AcDbEntity
  8
0
  6
CONTINUOUS
 62
     7
100
AcDbLine
 10
171.5528923709
 20
135.7436729299
 30
0.0
 11
171.5947415135
 21
133.3461371525
 31
0.0
  0
LINE
  5
206
330
1F
100
AcDbEntity
  8
0
  6
CONTINUOUS
 62
     7
100
AcDbLine
 10
154.5947314659
 20
133.3461371525
 30
0.0
 11
154.6365806086
 21
135.7436729299
 31
0.0
  0
LINE
  5
207
330
1F
100
AcDbEntity
  8
0
  6
CONTINUOUS
 62
     7
100
AcDbLine
 10
171.5405343986
 20
136.4516606876
 30
0.0
 11
171.5528923709
 21
135.7436729299
 31
0.0
  0
LINE
  5
208
330
1F
100
AcDbEntity
  8
0
  6
CONTINUOUS
 62
     7
100
AcDbLine
 10
154.6365806086
 20
135.7436729299
 30
0.0
 11
154.6489385809
 21
136.4516606876
 31
0.0
  0
ELLIPSE
  5
209
330
1F
100
AcDbEntity
  8
0
  6
CONTINUOUS
 62
     7
100
AcDbEllipse
 10
153.0831354907
 20
131.5848239667
 30
0.0
 11
-0.3539842722996128
 21
-0.3539842722995843
 31
0.0
210
0.0
220
0.0
230
1.0
 40
0.998782766
 41
5.49839613136776
 42
7.067974482991393
  0
ELLIPSE
  5
20A
330
1F
100
AcDbEntity
  8
0
  6
CONTINUOUS
 62
     7
100
AcDbEllipse
 10
173.1063374888
 20
131.5848239667
 30
0.0
 11
0.3539842722995843
 21
-0.3539842722995559
 31
0.0
210
0.0
220
0.0
230
1.0
 40
0.998782766
 41
5.498396131367715
 42
7.067974482991446
  0
LINE
  5
20B
330
1F
100
AcDbEntity
  8
0
  6
CONTINUOUS
 62
     7
100
AcDbLine
 10
173.6066422609
 20
131.584214608
 30
0.0
 11
173.6066422609
 21
133.0845191945
 31
0.0
  0
LINE
  5
20C
330
1F
100
AcDbEntity
  8
0
  6
CONTINUOUS
 62
     7
100
AcDbLine
 10
173.6066422609
 20
133.0845191945
 30
0.0
 11
173.4121405942
 21
133.2790208613
 31
0.0
  0
LINE
  5
20D
330
1F
100
AcDbEntity
  8
0
  6
CONTINUOUS
 62
     7
100
AcDbLine
 10
152.5828307186
 20
131.584214608
 30
0.0
 11
152.5828307186
 21
133.0845191945
 31
0.0
  0
LINE
  5
20E
330
1F
100
AcDbEntity
  8
0
  6
CONTINUOUS
 62
     7
100
AcDbLine
 10
152.5828307186
 20
133.0845191945
 30
0.0
 11
152.7773323853
 21
133.2790208613
 31
0.0
  0
ARC
  5
20F
330
1F
100
AcDbEntity
  8
0
  6
CONTINUOUS
 62
     7
100
AcDbCircle
 10
171.2405800901
 20
136.4464249657
 30
0.0
 40
0.300000000000027
100
AcDbArc
 50
1.0
 51
90.0
  0
ARC
  5
210
330
1F
100
AcDbEntity
  8
0
  6
CONTINUOUS
 62
     7
100
AcDbCircle
 10
154.9488928894
 20
136.4464249657
 30
0.0
 40
0.3000000000000114
100
AcDbArc
 50
90.0
 51
179.0
  0
LINE
  5
211
330
1F
100
AcDbEntity
  8
0
  6
CONTINUOUS
 62
     7
100
AcDbLine
 10
154.9488928894
 20
136.7464249657
 30
0.0
 11
155.4947364897
 21
136.7464249657
 31
0.0
  0
LINE
  5
212
330
1F
100
AcDbEntity
  8
0
  6
CONTINUOUS
 62
     7
100
AcDbLine
 10
170.6947364897
 20
136.7464249657
 30
0.0
 11
171.2405800901
 21
136.7464249657
 31
0.0
  0
ELLIPSE
  5
213
330
1F
100
AcDbEntity
  8
0
  6
PHANTOM
 62
     8
100
AcDbEllipse
 10
163.0947364897
 20
192.8022508622
 30
0.0
 11
29.37999999999999
 21
0.0
 31
0.0
210
0.0
220
0.0
230
1.0
 40
0.0343264746
 41
4.553778234433798
 42
4.870999726335603
  0
ARC
  5
214
330
1F
100
AcDbEntity
  8
0
  6
PHANTOM
 62
     8
100
AcDbCircle
 10
159.371111265
 20
191.9175858572
 30
0.0
 40
0.9235616045814836
100
AcDbArc
 50
155.1235762297
 51
186.9146146863
  0
ELLIPSE
  5
215
330
1F
100
AcDbEntity
  8
0
  6
PHANTOM
 62
     8
100
AcDbEllipse
 10
163.0947364897
 20
193.3019462757
 30
0.0
 11
28.87999999999999
 21
0.0
 31
0.0
210
0.0
220
0.0
230
1.0
 40
0.0349207695
 41
4.553778234433798
 42
4.870999726335603
  0
ARC
  5
216
330
1F
100
AcDbEntity
  8
0
  6
PHANTOM
 62
     8
100
AcDbCircle
 10
166.8183617145
 20
191.9175858572
 30
0.0
 40
0.9235616045812535
100
AcDbArc
 50
353.0853853137
 51
24.8764237703
  0
SPLINE
  5
217
330
1F
100
AcDbEntity
  8
0
  6
PHANTOM
 62
     8
100
AcDbSpline
210
0.0
220
0.0
230
1.0
 70
     8
 71
     3
 72
    20
 73
    16
 74
     0
 42
0.000000001
 43
0.00000001
 40
0.0
 40
0.0
 40
0.0
 40
0.0
 40
0.1249999999999999
 40
0.1249999999999999
 40
0.2499999999999998
 40
0.2499999999999998
 40
0.3749999999999998
 40
0.3749999999999998
 40
0.4999999999999997
 40
0.4999999999999997
 40
0.7499999999999996
 40
0.7499999999999996
 40
0.8749999999999998
 40
0.8749999999999998
 40
1.0
 40
1.0
 40
1.0
 40
1.0
 10
170.2953515209663
 20
189.3260201276151
 30
0.0
 10
170.2953515209663
 20
189.4944013902482
 30
0.0
 10
170.2780797876013
 20
189.6596744696326
 30
0.0
 10
170.2104833252096
 20
189.9842805494993
 30
0.0
 10
170.1592065828687
 20
190.145401726599
 30
0.0
 10
170.0267981329474
 20
190.4495940694947
 30
0.0
 10
169.9460195606651
 20
190.5932610422778
 30
0.0
 10
169.7557962757513
 20
190.8641183558777
 30
0.0
 10
169.6464605376568
 20
190.9904154338601
 30
0.0
 10
169.2898422966036
 20
191.3289415076144
 30
0.0
 10
169.005588025557
 20
191.5082352588945
 30
0.0
 10
168.549042302099
 20
191.6868979910745
 30
0.0
 10
168.3892349152766
 20
191.7325726947216
 30
0.0
 10
168.0652731966962
 20
191.7926086837226
 30
0.0
 10
167.9012739616319
 20
191.8073100429481
 30
0.0
 10
167.7352059468955
 20
191.8063982184912
 30
0.0
  0
LINE
  5
218
330
1F
100
AcDbEntity
  8
0
  6
PHANTOM
 62
     8
100
AcDbLine
 10
170.295351521
 20
131.8683527362
 30
0.0
 11
170.295351521
 21
189.3260201276
 31
0.0
  0
ELLIPSE
  5
219
330
1F
100
AcDbEntity
  8
0
  6
PHANTOM
 62
     8
100
AcDbEllipse
 10
163.0947364897
 20
130.8905990692
 30
0.0
 11
29.37999999999999
 21
0.0
 31
0.0
210
0.0
220
0.0
230
1.0
 40
0.0343264746
 41
1.323188338819405
 42
1.818404314770389
  0
LINE
  5
21A
330
1F
100
AcDbEntity
  8
0
  6
PHANTOM
 62
     8
100
AcDbLine
 10
155.8941214585
 20
189.3260201276
 30
0.0
 11
155.8941214585
 21
131.8683527362
 31
0.0
  0
SPLINE
  5
21B
330
1F
100
AcDbEntity
  8
0
  6
PHANTOM
 62
     8
100
AcDbSpline
210
0.0
220
0.0
230
1.0
 70
     8
 71
     3
 72
    20
 73
    16
 74
     0
 42
0.000000001
 43
0.00000001
 40
0.0
 40
0.0
 40
0.0
 40
0.0
 40
0.125
 40
0.125
 40
0.2500000000000001
 40
0.2500000000000001
 40
0.3750000000000001
 40
0.3750000000000001
 40
0.5000000000000001
 40
0.5000000000000001
 40
0.6250000000000001
 40
0.6250000000000001
 40
0.7500000000000002
 40
0.7500000000000002
 40
1.0
 40
1.0
 40
1.0
 40
1.0
 10
158.4542670325948
 20
191.8063982184912
 30
0.0
 10
158.2881271724131
 20
191.8073104374276
 30
0.0
 10
158.1247240880952
 20
191.7925944378642
 30
0.0
 10
157.8031391633568
 20
191.733220549742
 30
0.0
 10
157.6435332623196
 20
191.6879655383194
 30
0.0
 10
157.3369357730201
 20
191.5682742576051
 30
0.0
 10
157.1911312928178
 20
191.4946568883263
 30
0.0
 10
156.9143734378545
 20
191.3198836719
 30
0.0
 10
156.7823030592006
 20
191.2174159064869
 30
0.0
 10
156.5438705469838
 20
190.9913788089562
 30
0.0
 10
156.4364491917686
 20
190.8675279623502
 30
0.0
 10
156.2459281808165
 20
190.5973083119269
 30
0.0
 10
156.1633431937517
 20
190.4507710502849
 30
0.0
 10
155.965246343963
 20
189.9967361729967
 30
0.0
 10
155.894121458524
 20
189.6629591395686
 30
0.0
 10
155.894121458524
 20
189.326020127615
 30
0.0
  0
ELLIPSE
  5
21C
330
1F
100
AcDbEntity
  8
0
  6
PHANTOM
 62
     8
100
AcDbEllipse
 10
163.0947364897
 20
130.3909036557
 30
0.0
 11
28.87999999999999
 21
0.0
 31
0.0
210
0.0
220
0.0
230
1.0
 40
0.0349207695
 41
1.323188338819398
 42
1.818404314770394
  0
ARC
  5
21D
330
1F
100
AcDbEntity
  8
0
  6
PHANTOM
 62
     8
100
AcDbCircle
 10
156.5393713953
 20
131.7617170022
 30
0.0
 40
0.6540020341378747
100
AcDbArc
 50
170.6159639413
 51
216.9420395391
  0
ARC
  5
21E
330
1F
100
AcDbEntity
  8
0
  6
PHANTOM
 62
     8
100
AcDbCircle
 10
169.6501015842
 20
131.7617170022
 30
0.0
 40
0.6540020341379595
100
AcDbArc
 50
323.0579604609
 51
9.3840360587
  0
LINE
  5
21F
330
1F
100
AcDbEntity
  8
0
  6
PHANTOM
 62
     8
100
AcDbLine
 10
155.8941214585
 20
189.3260201276
 30
0.0
 11
155.5169688468
 21
189.3260201276
 31
0.0
  0
SPLINE
  5
220
330
1F
100
AcDbEntity
  8
0
  6
PHANTOM
 62
     8
100
AcDbSpline
210
0.0
220
0.0
230
1.0
 70
     8
 71
     3
 72
    20
 73
    16
 74
     0
 42
0.000000001
 43
0.00000001
 40
0.0
 40
0.0
 40
0.0
 40
0.0
 40
0.2499999999999998
 40
0.2499999999999998
 40
0.3749999999999998
 40
0.3749999999999998
 40
0.4999999999999999
 40
0.4999999999999999
 40
0.6249999999999999
 40
0.6249999999999999
 40
0.7499999999999999
 40
0.7499999999999999
 40
0.875
 40
0.875
 40
1.0
 40
1.0
 40
1.0
 40
1.0
 10
155.5169688467711
 20
189.3260201276151
 30
0.0
 10
155.5170498058107
 20
189.7252461541555
 30
0.0
 10
155.5986325659817
 20
190.1211218516339
 30
0.0
 10
155.8277291095154
 20
190.6627738951135
 30
0.0
 10
155.9233287486192
 20
190.8379547984462
 30
0.0
 10
156.1451902754416
 20
191.1626900035238
 30
0.0
 10
156.2706499413961
 20
191.3120593440312
 30
0.0
 10
156.5500503746624
 20
191.5854597346037
 30
0.0
 10
156.7054552889814
 20
191.7100266239518
 30
0.0
 10
157.0321822664798
 20
191.9230620231953
 30
0.0
 10
157.2046954053537
 20
192.0130664288368
 30
0.0
 10
157.5682972088506
 20
192.1597555626288
 30
0.0
 10
157.7582159562941
 20
192.215485508295
 30
0.0
 10
158.1408173192051
 20
192.2886914982449
 30
0.0
 10
158.3353389398818
 20
192.3069759172225
 30
0.0
 10
158.5332403045
 20
192.3060936320007
 30
0.0
  0
SPLINE
  5
221
330
1F
100
AcDbEntity
  8
0
  6
PHANTOM
 62
     8
100
AcDbSpline
210
0.0
220
0.0
230
1.0
 70
     8
 71
     3
 72
    20
 73
    16
 74
     0
 42
0.000000001
 43
0.00000001
 40
0.0
 40
0.0
 40
0.0
 40
0.0
 40
0.1250000000000006
 40
0.1250000000000006
 40
0.2500000000000011
 40
0.2500000000000011
 40
0.5000000000000027
 40
0.5000000000000027
 40
0.625000000000002
 40
0.625000000000002
 40
0.7500000000000013
 40
0.7500000000000013
 40
0.8750000000000007
 40
0.8750000000000007
 40
1.0
 40
1.0
 40
1.0
 40
1.0
 10
167.6562326749903
 20
192.3060936320007
 30
0.0
 10
167.8540306693754
 20
192.3069754563766
 30
0.0
 10
168.0492910452064
 20
192.2887113627845
 30
0.0
 10
168.4348561914957
 20
192.2146538530751
 30
0.0
 10
168.6248008853447
 20
192.1584647118092
 30
0.0
 10
169.1662334448414
 20
191.9395144714321
 30
0.0
 10
169.5017442723528
 20
191.7205271328877
 30
0.0
 10
169.9198420556286
 20
191.3108881143205
 30
0.0
 10
170.0475878705353
 20
191.1584673474139
 30
0.0
 10
170.2688288223269
 20
190.8333934827866
 30
0.0
 10
170.3624882616072
 20
190.661433177175
 30
0.0
 10
170.5156562339431
 20
190.2984549639893
 30
0.0
 10
170.5746935224188
 20
190.1070080051218
 30
0.0
 10
170.6525823890357
 20
189.7215640110651
 30
0.0
 10
170.6724636757855
 20
189.5255217641392
 30
0.0
 10
170.6725041327192
 20
189.3260201276151
 30
0.0
  0
LINE
  5
222
330
1F
100
AcDbEntity
  8
0
  6
PHANTOM
 62
     8
100
AcDbLine
 10
170.6725041327
 20
189.3260201276
 30
0.0
 11
170.295351521
 21
189.3260201276
 31
0.0
  0
LINE
  5
223
330
1F
100
AcDbEntity
  8
0
  6
PHANTOM
 62
     8
100
AcDbLine
 10
158.5041527934
 20
192.3351811431
 30
0.0
 11
158.5332403045
 21
192.306093632
 31
0.0
  0
LINE
  5
224
330
1F
100
AcDbEntity
  8
0
  6
PHANTOM
 62
     8
100
AcDbLine
 10
167.656232675
 20
192.306093632
 30
0.0
 11
167.6853201861
 21
192.3351811431
 31
0.0
  0
LINE
  5
225
330
1F
100
AcDbEntity
  8
0
  6
PHANTOM
 62
     8
100
AcDbLine
 10
170.1950410762
 20
131.3464249657
 30
0.0
 11
170.1728087192
 21
131.3686573227
 31
0.0
  0
LINE
  5
226
330
1F
100
AcDbEntity
  8
0
  6
PHANTOM
 62
     8
100
AcDbLine
 10
155.9944319033
 20
131.3464249657
 30
0.0
 11
170.1950410762
 21
131.3464249657
 31
0.0
  0
LINE
  5
227
330
1F
100
AcDbEntity
  8
0
  6
PHANTOM
 62
     8
100
AcDbLine
 10
156.0166642603
 20
131.3686573227
 30
0.0
 11
155.9944319033
 21
131.3464249657
 31
0.0
  0
LINE
  5
228
330
1F
100
AcDbEntity
  8
0
  6
PHANTOM
 62
     8
100
AcDbLine
 10
155.5169688468
 20
189.3260201276
 30
0.0
 11
155.4947364897
 21
189.3482524846
 31
0.0
  0
LINE
  5
229
330
1F
100
AcDbEntity
  8
0
  6
PHANTOM
 62
     8
100
AcDbLine
 10
170.6947364897
 20
189.3482524846
 30
0.0
 11
170.6725041327
 21
189.3260201276
 31
0.0
  0
LINE
  5
22A
330
1F
100
AcDbEntity
  8
0
  6
PHANTOM
 62
     8
100
AcDbLine
 10
170.6725041327
 20
131.8683527362
 30
0.0
 11
170.295351521
 21
131.8683527362
 31
0.0
  0
ARC
  5
22B
330
1F
100
AcDbEntity
  8
0
  6
PHANTOM
 62
     8
100
AcDbCircle
 10
170.1720952396
 20
131.8690662158
 30
0.0
 40
0.5004094017337813
100
AcDbArc
 50
270.0816918764
 51
359.9183081237
  0
ARC
  5
22C
330
1F
100
AcDbEntity
  8
0
  6
PHANTOM
 62
     8
100
AcDbCircle
 10
156.0173777399
 20
131.8690662158
 30
0.0
 40
0.5004094017336961
100
AcDbArc
 50
180.0816918763
 51
269.9183081237
  0
LINE
  5
22D
330
1F
100
AcDbEntity
  8
0
  6
PHANTOM
 62
     8
100
AcDbLine
 10
155.8941214585
 20
131.8683527362
 30
0.0
 11
155.5169688468
 21
131.8683527362
 31
0.0
  0
LINE
  5
22E
330
1F
100
AcDbEntity
  8
0
  6
PHANTOM
 62
     8
100
AcDbLine
 10
170.6725041327
 20
189.3260201276
 30
0.0
 11
170.6725041327
 21
131.8683527362
 31
0.0
  0
LINE
  5
22F
330
1F
100
AcDbEntity
  8
0
  6
PHANTOM
 62
     8
100
AcDbLine
 10
155.5169688468
 20
131.8683527362
 30
0.0
 11
155.5169688468
 21
189.3260201276
 31
0.0
  0
LINE
  5
230
330
1F
100
AcDbEntity
  8
0
  6
PHANTOM
 62
     8
100
AcDbLine
 10
170.6725041327
 20
131.8683527362
 30
0.0
 11
170.6947364897
 21
131.8461203792
 31
0.0
  0
ARC
  5
231
330
1F
100
AcDbEntity
  8
0
  6
PHANTOM
 62
     8
100
AcDbCircle
 10
170.1943275966
 20
131.8468338588
 30
0.0
 40
0.5004094017337245
100
AcDbArc
 50
270.0816918763
 51
359.9183081237
  0
ARC
  5
232
330
1F
100
AcDbEntity
  8
0
  6
PHANTOM
 62
     8
100
AcDbCircle
 10
155.9951453828
 20
131.8468338588
 30
0.0
 40
0.500409401733753
100
AcDbArc
 50
180.0816918764
 51
269.9183081237
  0
LINE
  5
233
330
1F
100
AcDbEntity
  8
0
  6
PHANTOM
 62
     8
100
AcDbLine
 10
155.4947364897
 20
131.8461203792
 30
0.0
 11
155.5169688468
 21
131.8683527362
 31
0.0
  0
LINE
  5
234
330
1F
100
AcDbEntity
  8
0
  6
PHANTOM
 62
     8
100
AcDbLine
 10
170.2118921023
 20
131.3295739396
 30
0.0
 11
170.1950410762
 21
131.3464249657
 31
0.0
  0
LINE
  5
235
330
1F
100
AcDbEntity
  8
0
  6
PHANTOM
 62
     8
100
AcDbLine
 10
155.9944319033
 20
131.3464249657
 30
0.0
 11
155.9775808771
 21
131.3295739396
 31
0.0
  0
LINE
  5
236
330
1F
100
AcDbEntity
  8
0
  6
PHANTOM
 62
     8
100
AcDbLine
 10
173.4121405942
 20
133.2790208613
 30
0.0
 11
173.4121405942
 21
131.7787162748
 31
0.0
  0
ELLIPSE
  5
237
330
1F
100
AcDbEntity
  8
0
  6
PHANTOM
 62
     8
100
AcDbEllipse
 10
171.4133589401
 20
131.7768881989
 30
0.0
 11
2.0
 21
0.0
 31
0.0
210
0.0
220
0.0
230
1.0
 40
0.0261905771
 41
0.0349065850396201
 42
1.570796326794897
  0
LINE
  5
238
330
1F
100
AcDbEntity
  8
0
  6
PHANTOM
 62
     8
100
AcDbLine
 10
171.4133589401
 20
131.8292693531
 30
0.0
 11
171.4133589401
 21
133.3464249657
 31
0.0
  0
LINE
  5
239
330
1F
100
AcDbEntity
  8
0
  6
PHANTOM
 62
     8
100
AcDbLine
 10
154.7761140394
 20
133.3464249657
 30
0.0
 11
154.7761140394
 21
131.8292693531
 31
0.0
  0
ELLIPSE
  5
23A
330
1F
100
AcDbEntity
  8
0
  6
PHANTOM
 62
     8
100
AcDbEllipse
 10
154.7761140394
 20
131.7768881989
 30
0.0
 11
2.0
 21
0.0
 31
0.0
210
0.0
220
0.0
230
1.0
 40
0.0261905771
 41
1.570796326794897
 42
3.106686068550178
  0
LINE
  5
23B
330
1F
100
AcDbEntity
  8
0
  6
PHANTOM
 62
     8
100
AcDbLine
 10
152.7773323853
 20
131.7787162748
 30
0.0
 11
152.7773323853
 21
133.2790208613
 31
0.0
  0
LINE
  5
23C
330
1F
100
AcDbEntity
  8
0
  6
PHANTOM
 62
     8
100
AcDbLine
 10
154.7761140394
 20
131.8292693531
 30
0.0
 11
155.4950203665
 21
131.8292693531
 31
0.0
  0
LINE
  5
23D
330
1F
100
AcDbEntity
  8
0
  6
PHANTOM
 62
     8
100
AcDbLine
 10
170.694452613
 20
131.8292693531
 30
0.0
 11
171.4133589401
 21
131.8292693531
 31
0.0
  0
LINE
  5
23E
330
1F
100
AcDbEntity
  8
0
  6
PHANTOM
 62
     8
100
AcDbLine
 10
171.4133589401
 20
131.3295739396
 30
0.0
 11
171.4133589401
 21
131.8292693531
 31
0.0
  0
LINE
  5
23F
330
1F
100
AcDbEntity
  8
0
  6
PHANTOM
 62
     8
100
AcDbLine
 10
171.4133589401
 20
131.3295739396
 30
0.0
 11
170.2118921023
 21
131.3295739396
 31
0.0
  0
LINE
  5
240
330
1F
100
AcDbEntity
  8
0
  6
PHANTOM
 62
     8
100
AcDbLine
 10
155.9775808771
 20
131.3295739396
 30
0.0
 11
154.7761140394
 21
131.3295739396
 31
0.0
  0
LINE
  5
241
330
1F
100
AcDbEntity
  8
0
  6
PHANTOM
 62
     8
100
AcDbLine
 10
154.7761140394
 20
131.3295739396
 30
0.0
 11
154.7761140394
 21
131.8292693531
 31
0.0
  0
ELLIPSE
  5
242
330
1F
100
AcDbEntity
  8
0
  6
PHANTOM
 62
     8
100
AcDbEllipse
 10
154.7761140394
 20
131.2771927854
 30
0.0
 11
1.5
 21
0.0
 31
0.0
210
0.0
220
0.0
230
1.0
 40
0.0349207695
 41
1.570796326794897
 42
3.106686068550156
  0
ARC
  5
243
330
1F
100
AcDbEntity
  8
0
  6
PHANTOM
 62
     8
100
AcDbCircle
 10
153.2777412784
 20
131.7794297544
 30
0.0
 40
0.5004094017336677
100
AcDbArc
 50
180.0816918763
 51
269.9183081237
  0
ELLIPSE
  5
244
330
1F
100
AcDbEntity
  8
0
  6
PHANTOM
 62
     8
100
AcDbEllipse
 10
171.4133589401
 20
131.2771927854
 30
0.0
 11
1.5
 21
0.0
 31
0.0
210
0.0
220
0.0
230
1.0
 40
0.0349207695
 41
0.0349065850396385
 42
1.570796326794897
  0
ARC
  5
245
330
1F
100
AcDbEntity
  8
0
  6
PHANTOM
 62
     8
100
AcDbCircle
 10
172.9117317011
 20
131.7794297544
 30
0.0
 40
0.5004094017337245
100
AcDbArc
 50
270.0816918763
 51
359.9183081237
  0
LINE
  5
246
330
1F
100
AcDbEntity
  8
0
  6
PHANTOM
 62
     8
100
AcDbLine
 10
173.1069468474
 20
131.0845191945
 30
0.0
 11
172.9124451807
 21
131.2790208613
 31
0.0
  0
LINE
  5
247
330
1F
100
AcDbEntity
  8
0
  6
PHANTOM
 62
     8
100
AcDbLine
 10
153.2770277988
 20
131.2790208613
 30
0.0
 11
153.0825261321
 21
131.0845191945
 31
0.0
  0
LINE
  5
248
330
1F
100
AcDbEntity
  8
0
  6
PHANTOM
 62
     8
100
AcDbLine
 10
171.2947821812
 20
133.3464249657
 30
0.0
 11
171.2529380623
 21
135.7436729299
 31
0.0
  0
ARC
  5
249
330
1F
100
AcDbEntity
  8
0
  6
PHANTOM
 62
     8
100
AcDbCircle
 10
171.4029152166
 20
131.445410369
 30
0.0
 40
4.300878304347863
100
AcDbArc
 50
88.0016173803
 51
91.9983826197
  0
ARC
  5
24A
330
1F
100
AcDbEntity
  8
0
  6
PHANTOM
 62
     8
100
AcDbCircle
 10
154.7865577629
 20
131.445410369
 30
0.0
 40
4.300878304349655
100
AcDbArc
 50
88.0016173803
 51
91.9983826197
  0
LINE
  5
24B
330
1F
100
AcDbEntity
  8
0
  6
PHANTOM
 62
     8
100
AcDbLine
 10
154.9365349172
 20
135.7436729299
 30
0.0
 11
154.8946907983
 21
133.3464249657
 31
0.0
  0
LINE
  5
24C
330
1F
100
AcDbEntity
  8
0
  6
PHANTOM
 62
     8
100
AcDbLine
 10
171.2529380623
 20
135.7436729299
 30
0.0
 11
170.6947364897
 21
135.7436729299
 31
0.0
  0
LINE
  5
24D
330
1F
100
AcDbEntity
  8
0
  6
PHANTOM
 62
     8
100
AcDbLine
 10
155.4947364897
 20
135.7436729299
 30
0.0
 11
154.9365349172
 21
135.7436729299
 31
0.0
  0
LWPOLYLINE
  5
24E
330
1F
100
AcDbEntity
  8
0
  6
PHANTOM
 62
     8
100
AcDbPolyline
 90
        9
 70
   128
 43
0.0
 10
171.2529380623
 20
135.8884372079
 10
171.311137526
 20
135.8863487394
 10
171.3671251189
 20
135.8786388929
 10
171.4187730327
 20
135.8656006811
 10
171.4641183881
 20
135.8477296214
 10
171.501437835
 20
135.8257049034
 10
171.5293130476
 20
135.8003635765
 10
171.5466846286
 20
135.7726687378
 10
171.5528923709
 20
135.7436729299
  0
LINE
  5
24F
330
1F
100
AcDbEntity
  8
0
  6
PHANTOM
 62
     8
100
AcDbLine
 10
171.2529380623
 20
135.8884372079
 30
0.0
 11
171.2529380623
 21
135.7436729299
 31
0.0
  0
LWPOLYLINE
  5
250
330
1F
100
AcDbEntity
  8
0
  6
PHANTOM
 62
     8
100
AcDbPolyline
 90
        9
 70
   128
 43
0.0
 10
154.6365806086
 20
135.7436729299
 10
154.6427883509
 20
135.7726687378
 10
154.6601599319
 20
135.8003635765
 10
154.6880351445
 20
135.8257049034
 10
154.7253545914
 20
135.8477296214
 10
154.7706999468
 20
135.8656006811
 10
154.8223478605
 20
135.8786388929
 10
154.8783354535
 20
135.8863487394
 10
154.9365349172
 20
135.8884372079
  0
LINE
  5
251
330
1F
100
AcDbEntity
  8
0
  6
PHANTOM
 62
     8
100
AcDbLine
 10
154.9365349172
 20
135.7436729299
 30
0.0
 11
154.9365349172
 21
135.8884372079
 31
0.0
  0
LINE
  5
252
330
1F
100
AcDbEntity
  8
0
  6
PHANTOM
 62
     8
100
AcDbLine
 10
154.9365349172
 20
135.8884372079
 30
0.0
 11
155.4947364897
 21
135.8884372079
 31
0.0
  0
LINE
  5
253
330
1F
100
AcDbEntity
  8
0
  6
PHANTOM
 62
     8
100
AcDbLine
 10
170.6947364897
 20
135.8884372079
 30
0.0
 11
171.2529380623
 21
135.8884372079
 31
0.0
  0
LINE
  5
254
330
1F
100
AcDbEntity
  8
0
  6
PHANTOM
 62
     8
100
AcDbLine
 10
171.2529380623
 20
135.8884372079
 30
0.0
 11
171.2405800901
 21
136.5964249657
 31
0.0
  0
LWPOLYLINE
  5
255
330
1F
100
AcDbEntity
  8
0
  6
PHANTOM
 62
     8
100
AcDbPolyline
 90
        9
 70
   128
 43
0.0
 10
171.2405800901
 20
136.5964249657
 10
171.2987795537
 20
136.5943364972
 10
171.3547671467
 20
136.5866266507
 10
171.4064150604
 20
136.5735884389
 10
171.4517604158
 20
136.5557173792
 10
171.4890798627
 20
136.5336926612
 10
171.5169550753
 20
136.5083513343
 10
171.5343266563
 20
136.4806564956
 10
171.5405343986
 20
136.4516606876
  0
LWPOLYLINE
  5
256
330
1F
100
AcDbEntity
  8
0
  6
PHANTOM
 62
     8
100
AcDbPolyline
 90
        9
 70
   128
 43
0.0
 10
154.6489385809
 20
136.4516606876
 10
154.6551463232
 20
136.4806564956
 10
154.6725179042
 20
136.5083513343
 10
154.7003931168
 20
136.5336926612
 10
154.7377125637
 20
136.5557173792
 10
154.7830579191
 20
136.5735884389
 10
154.8347058328
 20
136.5866266507
 10
154.8906934258
 20
136.5943364972
 10
154.9488928894
 20
136.5964249657
  0
LINE
  5
257
330
1F
100
AcDbEntity
  8
0
  6
PHANTOM
 62
     8
100
AcDbLine
 10
154.9488928894
 20
136.5964249657
 30
0.0
 11
154.9365349172
 21
135.8884372079
 31
0.0
  0
LINE
  5
258
330
1F
100
AcDbEntity
  8
0
  6
PHANTOM
 62
     8
100
AcDbLine
 10
171.2405800901
 20
136.5964249657
 30
0.0
 11
170.6947364897
 21
136.5964249657
 31
0.0
  0
LINE
  5
259
330
1F
100
AcDbEntity
  8
0
  6
PHANTOM
 62
     8
100
AcDbLine
 10
155.4947364897
 20
136.5964249657
 30
0.0
 11
154.9488928894
 21
136.5964249657
 31
0.0
  0
LINE
  5
25A
330
1F
100
AcDbEntity
  8
0
  6
PHANTOM
 62
     8
100
AcDbLine
 10
152.5828307186
 20
131.584214608
 30
0.0
 11
152.7773323853
 21
131.7787162748
 31
0.0
  0
LINE
  5
25B
330
1F
100
AcDbEntity
  8
0
  6
PHANTOM
 62
     8
100
AcDbLine
 10
173.4121405942
 20
131.7787162748
 30
0.0
 11
173.6066422609
 21
131.584214608
 31
0.0
  0
LINE
  5
25C
330
1F
100
AcDbEntity
  8
0
  6
PHANTOM
 62
     8
100
AcDbLine
 10
171.2405800901
 20
136.7464249657
 30
0.0
 11
171.2405800901
 21
136.5964249657
 31
0.0
  0
LINE
  5
25D
330
1F
100
AcDbEntity
  8
0
  6
PHANTOM
 62
     8
100
AcDbLine
 10
154.9488928894
 20
136.5964249657
 30
0.0
 11
154.9488928894
 21
136.7464249657
 31
0.0
  0
ELLIPSE
  5
25E
330
1F
100
AcDbEntity
  8
0
  6
CONTINUOUS
 62
     7
100
AcDbEllipse
 10
171.2454742242
 20
75.3899753943
 30
0.0
 11
0.2945324273535447
 21
0.2894362102591259
 31
0.0
210
0.0
220
0.0
230
1.0
 40
0.2679138489
 41
4.454952749569407
 42
4.978551525167612
  0
ELLIPSE
  5
25F
330
1F
100
AcDbEntity
  8
0
  6
CONTINUOUS
 62
     7
100
AcDbEllipse
 10
171.254544142
 20
75.9095906365
 30
0.0
 11
0.01047264020607486
 21
0.5999771555783155
 31
0.0
210
0.0
220
0.0
230
1.0
 40
0.4999428824
 41
3.673917743195097
 42
4.712388980384725
  0
LINE
  5
260
330
1F
100
AcDbEntity
  8
0
  6
CONTINUOUS
 62
     7
100
AcDbLine
 10
171.5544984505
 20
75.9043549146
 30
0.0
 11
171.5405343986
 21
75.1043549146
 31
0.0
  0
LINE
  5
261
330
1F
100
AcDbEntity
  8
0
  6
CONTINUOUS
 62
     7
100
AcDbLine
 10
154.6489385809
 20
75.1043549146
 30
0.0
 11
154.6349745289
 21
75.9043549146
 31
0.0
  0
ELLIPSE
  5
262
330
1F
100
AcDbEntity
  8
0
  6
CONTINUOUS
 62
     7
100
AcDbEllipse
 10
154.9349288375
 20
75.9095906365
 30
0.0
 11
0.01047264020607486
 21
-0.5999771555783298
 31
0.0
210
0.0
220
0.0
230
1.0
 40
0.4999428824
 41
4.712388980384668
 42
5.750860217574441
  0
ELLIPSE
  5
263
330
1F
100
AcDbEntity
  8
0
  6
CONTINUOUS
 62
     7
100
AcDbEllipse
 10
154.9439987553
 20
75.3899753943
 30
0.0
 11
0.2945324273535164
 21
-0.289436210259126
 31
0.0
210
0.0
220
0.0
230
1.0
 40
0.2679138489
 41
4.446226435601793
 42
4.969825211200021
  0
ELLIPSE
  5
264
330
1F
100
AcDbEntity
  8
0
  6
CONTINUOUS
 62
     7
100
AcDbEllipse
 10
173.1063374888
 20
79.9711916356
 30
0.0
 11
0.3539842722995843
 21
0.3539842722995843
 31
0.0
210
0.0
220
0.0
230
1.0
 40
0.998782766
 41
5.498396131367747
 42
7.067974482991439
  0
LINE
  5
265
330
1F
100
AcDbEntity
  8
0
  6
CONTINUOUS
 62
     7
100
AcDbLine
 10
173.6066422609
 20
79.9718009942
 30
0.0
 11
173.6066422609
 21
78.4714964077
 31
0.0
  0
LINE
  5
266
330
1F
100
AcDbEntity
  8
0
  6
CONTINUOUS
 62
     7
100
AcDbLine
 10
173.6066422609
 20
78.4714964077
 30
0.0
 11
171.599308072
 21
78.4714964077
 31
0.0
  0
LINE
  5
267
330
1F
100
AcDbEntity
  8
0
  6
CONTINUOUS
 62
     7
100
AcDbLine
 10
154.5901649075
 20
78.4714964077
 30
0.0
 11
152.5828307186
 21
78.4714964077
 31
0.0
  0
LINE
  5
268
330
1F
100
AcDbEntity
  8
0
  6
CONTINUOUS
 62
     7
100
AcDbLine
 10
152.5828307186
 20
79.9718009942
 30
0.0
 11
152.5828307186
 21
78.4714964077
 31
0.0
  0
ELLIPSE
  5
269
330
1F
100
AcDbEntity
  8
0
  6
CONTINUOUS
 62
     7
100
AcDbEllipse
 10
153.0831354907
 20
79.9711916356
 30
0.0
 11
-0.3539842722996127
 21
0.3539842722995984
 31
0.0
210
0.0
220
0.0
230
1.0
 40
0.998782766
 41
5.498396131367783
 42
7.06797448299142
  0
LINE
  5
26A
330
1F
100
AcDbEntity
  8
0
  6
CONTINUOUS
 62
     7
100
AcDbLine
 10
173.1069468474
 20
80.4714964077
 30
0.0
 11
153.0825261321
 21
80.4714964077
 31
0.0
  0
LINE
  5
26B
330
1F
100
AcDbEntity
  8
0
  6
CONTINUOUS
 62
     7
100
AcDbLine
 10
171.599308072
 20
78.4714964077
 30
0.0
 11
171.5544984505
 21
75.9043549146
 31
0.0
  0
LINE
  5
26C
330
1F
100
AcDbEntity
  8
0
  6
CONTINUOUS
 62
     7
100
AcDbLine
 10
154.5901649075
 20
78.4714964077
 30
0.0
 11
154.6349745289
 21
75.9043549146
 31
0.0
  0
ELLIPSE
  5
26D
330
1F
100
AcDbEntity
  8
0
  6
CONTINUOUS
 62
     7
100
AcDbEllipse
 10
154.7761140394
 20
78.2794321755
 30
0.0
 11
2.0
 21
0.0
 31
0.0
210
0.0
220
0.0
230
1.0
 40
0.0349207695
 41
3.176499238630116
 42
4.621572910003441
  0
LINE
  5
26E
330
1F
100
AcDbEntity
  8
0
  6
CONTINUOUS
 62
     7
100
AcDbLine
 10
173.6066422609
 20
78.4714964077
 30
0.0
 11
173.4121405942
 21
78.276994741
 31
0.0
  0
ELLIPSE
  5
26F
330
1F
100
AcDbEntity
  8
0
  6
CONTINUOUS
 62
     7
100
AcDbEllipse
 10
171.4133589401
 20
78.2794321755
 30
0.0
 11
2.0
 21
0.0
 31
0.0
210
0.0
220
0.0
230
1.0
 40
0.0349207695
 41
4.803205050765946
 42
6.248278722139863
  0
LINE
  5
270
330
1F
100
AcDbEntity
  8
0
  6
CONTINUOUS
 62
     7
100
AcDbLine
 10
152.5828307186
 20
78.4714964077
 30
0.0
 11
152.7773323853
 21
78.276994741
 31
0.0
  0
ARC
  5
271
330
1F
100
AcDbEntity
  8
0
  6
CONTINUOUS
 62
     7
100
AcDbCircle
 10
171.2405800901
 20
75.1095906365
 30
0.0
 40
0.3000000000000264
100
AcDbArc
 50
270.0
 51
359.0
  0
ARC
  5
272
330
1F
100
AcDbEntity
  8
0
  6
CONTINUOUS
 62
     7
100
AcDbCircle
 10
154.9488928894
 20
75.1095906365
 30
0.0
 40
0.299999999999998
100
AcDbArc
 50
181.0
 51
270.0
  0
LINE
  5
273
330
1F
100
AcDbEntity
  8
0
  6
CONTINUOUS
 62
     7
100
AcDbLine
 10
171.2405800901
 20
74.8095906365
 30
0.0
 11
154.9488928894
 21
74.8095906365
 31
0.0
  0
LINE
  5
274
330
1F
100
AcDbEntity
  8
0
  6
CONTINUOUS
 62
     7
100
AcDbLine
 10
165.9447364897
 20
43.7095906365
 30
0.0
 11
165.9447364897
 21
39.7095906365
 31
0.0
  0
LINE
  5
275
330
1F
100
AcDbEntity
  8
0
  6
CONTINUOUS
 62
     7
100
AcDbLine
 10
166.4447364897
 20
43.7095906365
 30
0.0
 11
165.9447364897
 21
43.7095906365
 31
0.0
  0
LINE
  5
276
330
1F
100
AcDbEntity
  8
0
  6
CONTINUOUS
 62
     7
100
AcDbLine
 10
166.4447364897
 20
43.7095906365
 30
0.0
 11
166.4447364897
 21
39.7095906365
 31
0.0
  0
LINE
  5
277
330
1F
100
AcDbEntity
  8
0
  6
CONTINUOUS
 62
     7
100
AcDbLine
 10
166.4447364897
 20
39.7095906365
 30
0.0
 11
165.9447364897
 21
39.7095906365
 31
0.0
  0
LINE
  5
278
330
1F
100
AcDbEntity
  8
0
  6
CONTINUOUS
 62
     7
100
AcDbLine
 10
159.7447364897
 20
43.7095906365
 30
0.0
 11
159.7447364897
 21
39.7095906365
 31
0.0
  0
LINE
  5
279
330
1F
100
AcDbEntity
  8
0
  6
CONTINUOUS
 62
     7
100
AcDbLine
 10
159.7447364897
 20
43.7095906365
 30
0.0
 11
160.2447364897
 21
43.7095906365
 31
0.0
  0
LINE
  5
27A
330
1F
100
AcDbEntity
  8
0
  6
CONTINUOUS
 62
     7
100
AcDbLine
 10
159.7447364897
 20
39.7095906365
 30
0.0
 11
160.2447364897
 21
39.7095906365
 31
0.0
  0
LINE
  5
27B
330
1F
100
AcDbEntity
  8
0
  6
CONTINUOUS
 62
     7
100
AcDbLine
 10
160.2447364897
 20
43.7095906365
 30
0.0
 11
160.2447364897
 21
39.7095906365
 31
0.0
  0
LINE
  5
27C
330
1F
100
AcDbEntity
  8
0
  6
CONTINUOUS
 62
     7
100
AcDbLine
 10
159.1435388441
 20
43.7095906365
 30
0.0
 11
159.7447364897
 21
43.7095906365
 31
0.0
  0
LINE
  5
27D
330
1F
100
AcDbEntity
  8
0
  6
CONTINUOUS
 62
     7
100
AcDbLine
 10
159.1435388441
 20
39.7095906365
 30
0.0
 11
159.7447364897
 21
39.7095906365
 31
0.0
  0
LINE
  5
27E
330
1F
100
AcDbEntity
  8
0
  6
CONTINUOUS
 62
     7
100
AcDbLine
 10
167.0459341354
 20
43.7095906365
 30
0.0
 11
166.4447364897
 21
43.7095906365
 31
0.0
  0
LINE
  5
27F
330
1F
100
AcDbEntity
  8
0
  6
CONTINUOUS
 62
     7
100
AcDbLine
 10
167.0459341354
 20
39.7095906365
 30
0.0
 11
166.4447364897
 21
39.7095906365
 31
0.0
  0
LINE
  5
280
330
1F
100
AcDbEntity
  8
0
  6
CONTINUOUS
 62
     7
100
AcDbLine
 10
167.1947364897
 20
43.7095906365
 30
0.0
 11
167.1947364897
 21
39.7095906365
 31
0.0
  0
LINE
  5
281
330
1F
100
AcDbEntity
  8
0
  6
CONTINUOUS
 62
     7
100
AcDbLine
 10
167.1947364897
 20
43.7095906365
 30
0.0
 11
167.0459341354
 21
43.7095906365
 31
0.0
  0
LINE
  5
282
330
1F
100
AcDbEntity
  8
0
  6
CONTINUOUS
 62
     7
100
AcDbLine
 10
167.1947364897
 20
39.7095906365
 30
0.0
 11
167.0459341354
 21
39.7095906365
 31
0.0
  0
LINE
  5
283
330
1F
100
AcDbEntity
  8
0
  6
CONTINUOUS
 62
     7
100
AcDbLine
 10
158.9947364897
 20
43.7095906365
 30
0.0
 11
158.9947364897
 21
39.7095906365
 31
0.0
  0
LINE
  5
284
330
1F
100
AcDbEntity
  8
0
  6
CONTINUOUS
 62
     7
100
AcDbLine
 10
158.9947364897
 20
43.7095906365
 30
0.0
 11
159.1435388441
 21
43.7095906365
 31
0.0
  0
LINE
  5
285
330
1F
100
AcDbEntity
  8
0
  6
CONTINUOUS
 62
     7
100
AcDbLine
 10
158.9947364897
 20
39.7095906365
 30
0.0
 11
159.1435388441
 21
39.7095906365
 31
0.0
  0
ARC
  5
286
330
1F
100
AcDbEntity
  8
0
  6
CONTINUOUS
 62
     7
100
AcDbCircle
 10
163.0947364897
 20
25.1095906365
 30
0.0
 40
3.55
100
AcDbArc
 50
150.0
 51
210.0
  0
ARC
  5
287
330
1F
100
AcDbEntity
  8
0
  6
CONTINUOUS
 62
     7
100
AcDbCircle
 10
163.0947364897
 20
25.1095906365
 30
0.0
 40
3.850000000000006
100
AcDbArc
 50
150.0
 51
210.0
  0
LINE
  5
288
330
1F
100
AcDbEntity
  8
0
  6
CONTINUOUS
 62
     7
100
AcDbLine
 10
159.7605386852
 20
27.0345906365
 30
0.0
 11
160.0203463063
 21
26.8845906365
 31
0.0
  0
LINE
  5
289
330
1F
100
AcDbEntity
  8
0
  6
CONTINUOUS
 62
     7
100
AcDbLine
 10
160.0203463063
 20
23.3345906365
 30
0.0
 11
159.7605386852
 21
23.1845906365
 31
0.0
  0
ARC
  5
28A
330
1F
100
AcDbEntity
  8
0
  6
CONTINUOUS
 62
     7
100
AcDbCircle
 10
163.0947364897
 20
25.1095906365
 30
0.0
 40
3.850000000000006
100
AcDbArc
 50
330.0
 51
30.0
  0
ARC
  5
28B
330
1F
100
AcDbEntity
  8
0
  6
CONTINUOUS
 62
     7
100
AcDbCircle
 10
163.0947364897
 20
25.1095906365
 30
0.0
 40
3.550000000000025
100
AcDbArc
 50
330.0
 51
30.0
  0
LINE
  5
28C
330
1F
100
AcDbEntity
  8
0
  6
CONTINUOUS
 62
     7
100
AcDbLine
 10
166.1691266732
 20
26.8845906365
 30
0.0
 11
166.4289342943
 21
27.0345906365
 31
0.0
  0
LINE
  5
28D
330
1F
100
AcDbEntity
  8
0
  6
CONTINUOUS
 62
     7
100
AcDbLine
 10
166.4289342943
 20
23.1845906365
 30
0.0
 11
166.1691266732
 21
23.3345906365
 31
0.0
  0
ARC
  5
28E
330
1F
100
AcDbEntity
  8
0
  6
CONTINUOUS
 62
     7
100
AcDbCircle
 10
163.0947364897
 20
25.1095906365
 30
0.0
 40
3.050000000000008
100
AcDbArc
 50
330.0
 51
30.0
  0
LINE
  5
28F
330
1F
100
AcDbEntity
  8
0
  6
CONTINUOUS
 62
     7
100
AcDbLine
 10
166.1691266732
 20
26.8845906365
 30
0.0
 11
165.7361139713
 21
26.6345906365
 31
0.0
  0
LINE
  5
290
330
1F
100
AcDbEntity
  8
0
  6
CONTINUOUS
 62
     7
100
AcDbLine
 10
165.7361139713
 20
23.5845906365
 30
0.0
 11
166.1691266732
 21
23.3345906365
 31
0.0
  0
ARC
  5
291
330
1F
100
AcDbEntity
  8
0
  6
CONTINUOUS
 62
     7
100
AcDbCircle
 10
163.0947364897
 20
25.1095906365
 30
0.0
 40
3.050000000000008
100
AcDbArc
 50
150.0
 51
210.0
  0
LINE
  5
292
330
1F
100
AcDbEntity
  8
0
  6
CONTINUOUS
 62
     7
100
AcDbLine
 10
160.0203463063
 20
26.8845906365
 30
0.0
 11
160.4533590082
 21
26.6345906365
 31
0.0
  0
LINE
  5
293
330
1F
100
AcDbEntity
  8
0
  6
CONTINUOUS
 62
     7
100
AcDbLine
 10
160.4533590082
 20
23.5845906365
 30
0.0
 11
160.0203463063
 21
23.3345906365
 31
0.0
  0
SPLINE
  5
294
330
1F
100
AcDbEntity
  8
0
  6
CONTINUOUS
 62
     7
100
AcDbSpline
210
0.0
220
0.0
230
1.0
 70
     8
 71
     3
 72
    12
 73
     8
 74
     0
 42
0.000000001
 43
0.00000001
 40
0.0
 40
0.0
 40
0.0
 40
0.0
 40
0.4999999999999977
 40
0.4999999999999977
 40
0.7499999999999988
 40
0.7499999999999988
 40
1.0
 40
1.0
 40
1.0
 40
1.0
 10
169.3235060594361
 20
19.68909294337102
 30
0.0
 10
169.0786945476561
 20
19.53420710245423
 30
0.0
 10
168.817994978201
 20
19.41782061469045
 30
0.0
 10
168.4035200591698
 20
19.2989479615239
 30
0.0
 10
168.2609608156021
 20
19.26883842803276
 30
0.0
 10
167.9750434646667
 20
19.22951828072646
 30
0.0
 10
167.8308273634767
 20
19.21999190277682
 30
0.0
 10
167.6853201860903
 20
19.22083445912922
 30
0.0
  0
ELLIPSE
  5
295
330
1F
100
AcDbEntity
  8
0
  6
CONTINUOUS
 62
     7
100
AcDbEllipse
 10
163.0947364897
 20
18.2540693265
 30
0.0
 11
28.06255025164876
 21
0.0
 31
0.0
210
0.0
220
0.0
230
1.0
 40
0.0349207695
 41
1.406473840563115
 42
1.735118813026678
  0
LINE
  5
296
330
1F
100
AcDbEntity
  8
0
  6
CONTINUOUS
 62
     7
100
AcDbLine
 10
156.8659669201
 20
20.0095906365
 30
0.0
 11
156.8659669201
 21
19.6890929434
 31
0.0
  0
LINE
  5
297
330
1F
100
AcDbEntity
  8
0
  6
CONTINUOUS
 62
     7
100
AcDbLine
 10
169.3235060594
 20
20.0095906365
 30
0.0
 11
169.3235060594
 21
19.6890929434
 31
0.0
  0
SPLINE
  5
298
330
1F
100
AcDbEntity
  8
0
  6
CONTINUOUS
 62
     7
100
AcDbSpline
210
0.0
220
0.0
230
1.0
 70
     8
 71
     3
 72
    12
 73
     8
 74
     0
 42
0.000000001
 43
0.00000001
 40
0.0
 40
0.0
 40
0.0
 40
0.0
 40
0.5000000000000016
 40
0.5000000000000016
 40
0.7500000000000008
 40
0.7500000000000008
 40
1.0
 40
1.0
 40
1.0
 40
1.0
 10
158.5041527934
 20
19.22083445912922
 30
0.0
 10
158.2131245526312
 20
19.21914926601779
 30
0.0
 10
157.9295358958479
 20
19.25831432757397
 30
0.0
 10
157.5148403144883
 20
19.37643842545726
 30
0.0
 10
157.3780902109065
 20
19.42616142934424
 30
0.0
 10
157.1153023450484
 20
19.54367643030021
 30
0.0
 10
156.9883679402917
 20
19.61165301903626
 30
0.0
 10
156.8659669200542
 20
19.68909294337112
 30
0.0
  0
LINE
  5
299
330
1F
100
AcDbEntity
  8
0
  6
CONTINUOUS
 62
     7
100
AcDbLine
 10
155.4947364897
 20
22.2077631176
 30
0.0
 11
155.4947364897
 21
74.8095906365
 31
0.0
  0
LINE
  5
29A
330
1F
100
AcDbEntity
  8
0
  6
CONTINUOUS
 62
     7
100
AcDbLine
 10
170.6947364897
 20
22.2077631176
 30
0.0
 11
170.6947364897
 21
74.8095906365
 31
0.0
  0
LINE
  5
29B
330
1F
100
AcDbEntity
  8
0
  6
CONTINUOUS
 62
     7
100
AcDbLine
 10
156.8659669201
 20
20.0095906365
 30
0.0
 11
169.3235060594
 21
20.0095906365
 31
0.0
  0
ELLIPSE
  5
29C
330
1F
100
AcDbEntity
  8
0
  6
CONTINUOUS
 62
     7
100
AcDbEllipse
 10
167.6929078568
 20
22.2114192694
 30
0.0
 11
-2.123905633797563
 21
2.12390563379757
 31
4.440892098500626E-16
210
2.092182498252597E-16
220
1.274113325781314E-19
230
1.0
 40
0.998782766
 41
2.929831197202223
 42
3.926381829401639
  0
ELLIPSE
  5
29D
330
1F
100
AcDbEntity
  8
0
  6
CONTINUOUS
 62
     7
100
AcDbEllipse
 10
158.4965651226
 20
22.2114192694
 30
0.0
 11
-2.123905633797563
 21
-2.123905633797573
 31
0.0
210
1.046728305789182E-16
220
-1.046728305789177E-16
230
1.0
 40
0.998782766
 41
5.49839613136777
 42
6.494946763567162
  0
LWPOLYLINE
  5
29E
330
1F
100
AcDbEntity
  8
0
  6
PHANTOM
 62
     8
100
AcDbPolyline
 90
        9
 70
   128
 43
0.0
 10
171.2405800901
 20
74.9595906365
 10
171.2987795537
 20
74.9616791051
 10
171.3547671467
 20
74.9693889516
 10
171.4064150604
 20
74.9824271633
 10
171.4517604158
 20
75.000298223
 10
171.4890798627
 20
75.022322941
 10
171.5169550753
 20
75.047664268
 10
171.5343266563
 20
75.0753591066
 10
171.5405343986
 20
75.1043549146
  0
LINE
  5
29F
330
1F
100
AcDbEntity
  8
0
  6
PHANTOM
 62
     8
100
AcDbLine
 10
171.2405800901
 20
74.9595906365
 30
0.0
 11
171.2454742242
 21
75.2399753943
 31
0.0
  0
LINE
  5
2A0
330
1F
100
AcDbEntity
  8
0
  6
PHANTOM
 62
     8
100
AcDbLine
 10
154.9439987553
 20
75.2399753943
 30
0.0
 11
154.9488928894
 21
74.9595906365
 31
0.0
  0
LWPOLYLINE
  5
2A1
330
1F
100
AcDbEntity
  8
0
  6
PHANTOM
 62
     8
100
AcDbPolyline
 90
        9
 70
   128
 43
0.0
 10
154.6489385809
 20
75.1043549146
 10
154.6551463232
 20
75.0753591066
 10
154.6725179042
 20
75.047664268
 10
154.7003931168
 20
75.022322941
 10
154.7377125637
 20
75.000298223
 10
154.7830579191
 20
74.9824271633
 10
154.8347058328
 20
74.9693889516
 10
154.8906934258
 20
74.9616791051
 10
154.9488928894
 20
74.9595906365
  0
LINE
  5
2A2
330
1F
100
AcDbEntity
  8
0
  6
PHANTOM
 62
     8
100
AcDbLine
 10
154.7917141386
 20
75.3899753943
 30
0.0
 11
171.3977588409
 21
75.3899753943
 31
0.0
  0
LINE
  5
2A3
330
1F
100
AcDbEntity
  8
0
  6
PHANTOM
 62
     8
100
AcDbLine
 10
171.2454742242
 20
75.2399753943
 30
0.0
 11
154.9439987553
 21
75.2399753943
 31
0.0
  0
LINE
  5
2A4
330
1F
100
AcDbEntity
  8
0
  6
PHANTOM
 62
     8
100
AcDbLine
 10
154.9488928894
 20
74.9595906365
 30
0.0
 11
171.2405800901
 21
74.9595906365
 31
0.0
  0
LINE
  5
2A5
330
1F
100
AcDbEntity
  8
0
  6
PHANTOM
 62
     8
100
AcDbLine
 10
171.2405800901
 20
74.9595906365
 30
0.0
 11
171.2405800901
 21
74.8095906365
 31
0.0
  0
LINE
  5
2A6
330
1F
100
AcDbEntity
  8
0
  6
PHANTOM
 62
     8
100
AcDbLine
 10
154.9488928894
 20
74.8095906365
 30
0.0
 11
154.9488928894
 21
74.9595906365
 31
0.0
  0
LINE
  5
2A7
330
1F
100
AcDbEntity
  8
0
  6
PHANTOM
 62
     8
100
AcDbLine
 10
159.1435388441
 20
43.7095906365
 30
0.0
 11
159.1435388441
 21
39.7095906365
 31
0.0
  0
LINE
  5
2A8
330
1F
100
AcDbEntity
  8
0
  6
PHANTOM
 62
     8
100
AcDbLine
 10
167.0459341354
 20
43.7095906365
 30
0.0
 11
167.0459341354
 21
39.7095906365
 31
0.0
  0
LINE
  5
2A9
330
1F
100
AcDbEntity
  8
0
  6
CONTINUOUS
 62
     7
100
AcDbLine
 10
261.5049819892
 20
107.2430225963
 30
0.0
 11
201.610353842
 21
107.2430225963
 31
0.0
  0
ARC
  5
2AA
330
1F
100
AcDbEntity
  8
0
  6
CONTINUOUS
 62
     7
100
AcDbCircle
 10
201.610353842
 20
106.7430225963
 30
0.0
 40
0.5000000000000081
100
AcDbArc
 50
90.5671969468
 51
178.0
  0
ARC
  5
2AB
330
1F
100
AcDbEntity
  8
0
  6
CONTINUOUS
 62
     7
100
AcDbCircle
 10
261.5049819892
 20
106.7430225963
 30
0.0
 40
0.4999999999999896
100
AcDbArc
 50
2.0
 51
89.2442157541
  0
LINE
  5
2AC
330
1F
100
AcDbEntity
  8
0
  6
CONTINUOUS
 62
     7
100
AcDbLine
 10
200.7957621444
 20
97.7430225963
 30
0.0
 11
200.9902638112
 21
103.3128215897
 31
0.0
  0
LINE
  5
2AD
330
1F
100
AcDbEntity
  8
0
  6
CONTINUOUS
 62
     7
100
AcDbLine
 10
201.2954575579
 20
97.7430225963
 30
0.0
 11
200.7957621444
 21
97.7430225963
 31
0.0
  0
LINE
  5
2AE
330
1F
100
AcDbEntity
  8
0
  6
CONTINUOUS
 62
     7
100
AcDbLine
 10
202.7957621444
 20
97.7430225963
 30
0.0
 11
202.9902638112
 21
103.3128215897
 31
0.0
  0
LINE
  5
2AF
330
1F
100
AcDbEntity
  8
0
  6
CONTINUOUS
 62
     7
100
AcDbLine
 10
201.2954575579
 20
97.7430225963
 30
0.0
 11
202.7957621444
 21
97.7430225963
 31
0.0
  0
LINE
  5
2B0
330
1F
100
AcDbEntity
  8
0
  6
CONTINUOUS
 62
     7
100
AcDbLine
 10
201.540512303
 20
105.2430225963
 30
0.0
 11
203.0576679156
 21
105.2430225963
 31
0.0
  0
LINE
  5
2B1
330
1F
100
AcDbEntity
  8
0
  6
CONTINUOUS
 62
     7
100
AcDbLine
 10
203.0576679156
 20
105.2430225963
 30
0.0
 11
202.9902638112
 21
103.3128215897
 31
0.0
  0
LINE
  5
2B2
330
1F
100
AcDbEntity
  8
0
  6
CONTINUOUS
 62
     7
100
AcDbLine
 10
200.9902638112
 20
103.3128215897
 30
0.0
 11
201.0408168895
 21
104.7604723446
 31
0.0
  0
ARC
  5
2B3
330
1F
100
AcDbEntity
  8
0
  6
CONTINUOUS
 62
     7
100
AcDbCircle
 10
201.540512303
 20
104.7430225963
 30
0.0
 40
0.5000000000000081
100
AcDbArc
 50
90.0
 51
178.0
  0
LINE
  5
2B4
330
1F
100
AcDbEntity
  8
0
  6
CONTINUOUS
 62
     7
100
AcDbLine
 10
202.7957621444
 20
97.7430225963
 30
0.0
 11
205.3629036375
 21
97.7430225963
 31
0.0
  0
LINE
  5
2B5
330
1F
100
AcDbEntity
  8
0
  6
CONTINUOUS
 62
     7
100
AcDbLine
 10
202.9983387712
 20
103.5440581904
 30
0.0
 11
205.4549158798
 21
103.5011784774
 31
0.0
  0
LINE
  5
2B6
330
1F
100
AcDbEntity
  8
0
  6
CONTINUOUS
 62
     7
100
AcDbLine
 10
206.3076679156
 20
97.9450951905
 30
0.0
 11
206.0272831579
 21
97.7832149752
 31
0.0
  0
ARC
  5
2B7
330
1F
100
AcDbEntity
  8
0
  6
CONTINUOUS
 62
     7
100
AcDbCircle
 10
205.8772831579
 20
98.0430225963
 30
0.0
 40
0.3000000000000078
100
AcDbArc
 50
270.0
 51
300.0
  0
LINE
  5
2B8
330
1F
100
AcDbEntity
  8
0
  6
CONTINUOUS
 62
     7
100
AcDbLine
 10
205.8772831579
 20
97.7430225963
 30
0.0
 11
205.3629036375
 21
97.7430225963
 31
0.0
  0
LINE
  5
2B9
330
1F
100
AcDbEntity
  8
0
  6
CONTINUOUS
 62
     7
100
AcDbLine
 10
205.5996801578
 20
103.46103179
 30
0.0
 11
206.3076679156
 21
103.0522748675
 31
0.0
  0
ARC
  5
2BA
330
1F
100
AcDbEntity
  8
0
  6
CONTINUOUS
 62
     7
100
AcDbCircle
 10
205.4496801578
 20
103.2012241689
 30
0.0
 40
0.2999999999999985
100
AcDbArc
 50
60.0
 51
89.0
  0
ARC
  5
2BB
330
1F
100
AcDbEntity
  8
0
  6
CONTINUOUS
 62
     7
100
AcDbCircle
 10
206.1576679156
 20
98.2049028116
 30
0.0
 40
0.3000000000000114
100
AcDbArc
 50
300.0
 51
0.0
  0
ARC
  5
2BC
330
1F
100
AcDbEntity
  8
0
  6
CONTINUOUS
 62
     7
100
AcDbCircle
 10
206.1576679156
 20
102.7924672463
 30
0.0
 40
0.3000000000000114
100
AcDbArc
 50
0.0
 51
60.0
  0
LINE
  5
2BD
330
1F
100
AcDbEntity
  8
0
  6
CONTINUOUS
 62
     7
100
AcDbLine
 10
206.4576679156
 20
102.7924672463
 30
0.0
 11
206.4576679156
 21
98.2049028116
 31
0.0
  0
LINE
  5
2BE
330
1F
100
AcDbEntity
  8
0
  6
CONTINUOUS
 62
     7
100
AcDbLine
 10
262.0173365819
 20
106.3979608833
 30
0.0
 11
262.046424093
 21
105.5650035481
 31
0.0
  0
SPLINE
  5
2BF
330
1F
100
AcDbEntity
  8
0
  6
CONTINUOUS
 62
     7
100
AcDbSpline
210
0.0
220
0.0
230
1.0
 70
     8
 71
     3
 72
    12
 73
     8
 74
     0
 42
0.000000001
 43
0.00000001
 40
0.0
 40
0.0
 40
0.0
 40
0.0
 40
0.4999999999999977
 40
0.4999999999999977
 40
0.7499999999999988
 40
0.7499999999999988
 40
1.0
 40
1.0
 40
1.0
 40
1.0
 10
261.5781656087738
 20
105.2430225962914
 30
0.0
 10
261.7330514496906
 20
105.2987511187011
 30
0.0
 10
261.8494379374544
 20
105.3546489272284
 30
0.0
 10
261.9683105906209
 20
105.4366581953176
 30
0.0
 10
261.998420124112
 20
105.4637637825222
 30
0.0
 10
262.0377402714183
 20
105.5157838891614
 30
0.0
 10
262.047266649368
 20
105.5408758909501
 30
0.0
 10
262.0464240930156
 20
105.5650035480631
 30
0.0
  0
LINE
  5
2C0
330
1F
100
AcDbEntity
  8
0
  6
CONTINUOUS
 62
     7
100
AcDbLine
 10
261.5781656088
 20
105.2430225963
 30
0.0
 11
259.0594954346
 21
105.2430225963
 31
0.0
  0
LINE
  5
2C1
330
1F
100
AcDbEntity
  8
0
  6
CONTINUOUS
 62
     7
100
AcDbLine
 10
259.0594954346
 20
105.2430225963
 30
0.0
 11
203.0576679156
 21
105.2430225963
 31
0.0
  0
LINE
  5
2C2
330
1F
100
AcDbEntity
  8
0
  6
CONTINUOUS
 62
     7
100
AcDbLine
 10
201.0408168895
 20
104.7604723446
 30
0.0
 11
201.0576679156
 21
105.2430225963
 31
0.0
  0
LINE
  5
2C3
330
1F
100
AcDbEntity
  8
0
  6
CONTINUOUS
 62
     7
100
AcDbLine
 10
201.0576679156
 20
105.2430225963
 30
0.0
 11
201.0799002726
 21
105.8796740032
 31
0.0
  0
LINE
  5
2C4
330
1F
100
AcDbEntity
  8
0
  6
CONTINUOUS
 62
     7
100
AcDbLine
 10
201.0799002726
 20
105.8796740032
 30
0.0
 11
201.1106584285
 21
106.7604723446
 31
0.0
  0
LINE
  5
2C5
330
1F
100
AcDbEntity
  8
0
  6
CONTINUOUS
 62
     7
100
AcDbLine
 10
262.0046774027
 20
106.7604723442
 30
0.0
 11
262.0173365819
 21
106.3979608833
 31
0.0
  0
LINE
  5
2C6
330
1F
100
AcDbEntity
  8
0
  6
CONTINUOUS
 62
     7
100
AcDbLine
 10
241.5576679156
 20
104.2430225963
 30
0.0
 11
241.5576679156
 21
103.5502022733
 31
0.0
  0
LINE
  5
2C7
330
1F
100
AcDbEntity
  8
0
  6
CONTINUOUS
 62
     7
100
AcDbLine
 10
237.5576679156
 20
104.2430225963
 30
0.0
 11
237.5576679156
 21
103.5502022733
 31
0.0
  0
LINE
  5
2C8
330
1F
100
AcDbEntity
  8
0
  6
CONTINUOUS
 62
     7
100
AcDbLine
 10
237.5576679156
 20
104.2430225963
 30
0.0
 11
241.5576679156
 21
104.2430225963
 31
0.0
  0
LINE
  5
2C9
330
1F
100
AcDbEntity
  8
0
  6
CONTINUOUS
 62
     7
100
AcDbLine
 10
237.5576679156
 20
103.0502022733
 30
0.0
 11
237.5576679156
 21
102.5855070761
 31
0.0
  0
LINE
  5
2CA
330
1F
100
AcDbEntity
  8
0
  6
CONTINUOUS
 62
     7
100
AcDbLine
 10
241.5576679156
 20
103.0502022733
 30
0.0
 11
241.5576679156
 21
102.5855070761
 31
0.0
  0
LINE
  5
2CB
330
1F
100
AcDbEntity
  8
0
  6
CONTINUOUS
 62
     7
100
AcDbLine
 10
241.5576679156
 20
103.5502022733
 30
0.0
 11
241.5576679156
 21
103.0502022733
 31
0.0
  0
LINE
  5
2CC
330
1F
100
AcDbEntity
  8
0
  6
CONTINUOUS
 62
     7
100
AcDbLine
 10
237.5576679156
 20
103.5502022733
 30
0.0
 11
237.5576679156
 21
103.0502022733
 31
0.0
  0
LINE
  5
2CD
330
1F
100
AcDbEntity
  8
0
  6
CONTINUOUS
 62
     7
100
AcDbLine
 10
237.5576679156
 20
105.2430225963
 30
0.0
 11
237.5576679156
 21
104.9430225963
 31
0.0
  0
LINE
  5
2CE
330
1F
100
AcDbEntity
  8
0
  6
CONTINUOUS
 62
     7
100
AcDbLine
 10
241.5576679156
 20
105.2430225963
 30
0.0
 11
241.5576679156
 21
104.9430225963
 31
0.0
  0
LINE
  5
2CF
330
1F
100
AcDbEntity
  8
0
  6
CONTINUOUS
 62
     7
100
AcDbLine
 10
237.5576679156
 20
101.7430225963
 30
0.0
 11
241.5576679156
 21
101.7430225963
 31
0.0
  0
LINE
  5
2D0
330
1F
100
AcDbEntity
  8
0
  6
CONTINUOUS
 62
     7
100
AcDbLine
 10
237.5576679156
 20
102.5855070761
 30
0.0
 11
237.5576679156
 21
101.7430225963
 31
0.0
  0
LINE
  5
2D1
330
1F
100
AcDbEntity
  8
0
  6
CONTINUOUS
 62
     7
100
AcDbLine
 10
241.5576679156
 20
102.5855070761
 30
0.0
 11
241.5576679156
 21
101.7430225963
 31
0.0
  0
LINE
  5
2D2
330
1F
100
AcDbEntity
  8
0
  6
CONTINUOUS
 62
     7
100
AcDbLine
 10
258.0826679156
 20
103.9430225963
 30
0.0
 11
258.0826679156
 21
105.2430225963
 31
0.0
  0
LINE
  5
2D3
330
1F
100
AcDbEntity
  8
0
  6
CONTINUOUS
 62
     7
100
AcDbLine
 10
254.2326679156
 20
103.9430225963
 30
0.0
 11
258.0826679156
 21
103.9430225963
 31
0.0
  0
LINE
  5
2D4
330
1F
100
AcDbEntity
  8
0
  6
CONTINUOUS
 62
     7
100
AcDbLine
 10
254.2326679156
 20
103.9430225963
 30
0.0
 11
254.2326679156
 21
105.2430225963
 31
0.0
  0
LINE
  5
2D5
330
1F
100
AcDbEntity
  8
0
  6
CONTINUOUS
 62
     7
100
AcDbLine
 10
258.0826679156
 20
103.9430225963
 30
0.0
 11
257.9326679156
 21
103.6430225963
 31
0.0
  0
LINE
  5
2D6
330
1F
100
AcDbEntity
  8
0
  6
CONTINUOUS
 62
     7
100
AcDbLine
 10
257.9326679156
 20
103.6430225963
 30
0.0
 11
254.3826679156
 21
103.6430225963
 31
0.0
  0
LINE
  5
2D7
330
1F
100
AcDbEntity
  8
0
  6
CONTINUOUS
 62
     7
100
AcDbLine
 10
254.3826679156
 20
103.6430225963
 30
0.0
 11
254.2326679156
 21
103.9430225963
 31
0.0
  0
LINE
  5
2D8
330
1F
100
AcDbEntity
  8
0
  6
CONTINUOUS
 62
     7
100
AcDbLine
 10
237.5576679156
 20
104.9430225963
 30
0.0
 11
237.5576679156
 21
104.2430225963
 31
0.0
  0
LINE
  5
2D9
330
1F
100
AcDbEntity
  8
0
  6
CONTINUOUS
 62
     7
100
AcDbLine
 10
241.5576679156
 20
104.9430225963
 30
0.0
 11
241.5576679156
 21
104.2430225963
 31
0.0
  0
LINE
  5
2DA
330
1F
100
AcDbEntity
  8
0
  6
CONTINUOUS
 62
     7
100
AcDbLine
 10
203.033223377
 20
104.5430225963
 30
0.0
 11
205.0576679156
 21
105.2430225963
 31
0.0
  0
ARC
  5
2DB
330
1F
100
AcDbEntity
  8
0
  6
PHANTOM
 62
     8
100
AcDbCircle
 10
201.2401115179
 20
99.728236426
 30
0.0
 40
3.593281880403266
100
AcDbArc
 50
86.0128986004
 51
93.9871013996
  0
LINE
  5
2DC
330
1F
100
AcDbEntity
  8
0
  6
PHANTOM
 62
     8
100
AcDbLine
 10
201.4899592247
 20
103.3128215897
 30
0.0
 11
201.2954575579
 21
97.7430225963
 31
0.0
  0
LINE
  5
2DD
330
1F
100
AcDbEntity
  8
0
  6
PHANTOM
 62
     8
100
AcDbLine
 10
202.9902638112
 20
103.3128215897
 30
0.0
 11
201.4899592247
 21
103.3128215897
 31
0.0
  0
LINE
  5
2DE
330
1F
100
AcDbEntity
  8
0
  6
PHANTOM
 62
     8
100
AcDbLine
 10
201.540512303
 20
105.2430225963
 30
0.0
 11
201.4899592247
 21
103.3128215897
 31
0.0
  0
LINE
  5
2DF
330
1F
100
AcDbEntity
  8
0
  6
PHANTOM
 62
     8
100
AcDbLine
 10
205.4549158798
 20
103.2012241689
 30
0.0
 11
202.9878705168
 21
103.2442866059
 31
0.0
  0
LINE
  5
2E0
330
1F
100
AcDbEntity
  8
0
  6
PHANTOM
 62
     8
100
AcDbLine
 10
206.1629036375
 20
102.7924672463
 30
0.0
 11
205.4549158798
 21
103.2012241689
 31
0.0
  0
LINE
  5
2E1
330
1F
100
AcDbEntity
  8
0
  6
PHANTOM
 62
     8
100
AcDbLine
 10
206.1629036375
 20
98.2049028116
 30
0.0
 11
206.1629036375
 21
102.7924672463
 31
0.0
  0
LINE
  5
2E2
330
1F
100
AcDbEntity
  8
0
  6
PHANTOM
 62
     8
100
AcDbLine
 10
205.3629036375
 20
97.7430225963
 30
0.0
 11
206.1629036375
 21
98.2049028116
 31
0.0
  0
ARC
  5
2E3
330
1F
100
AcDbEntity
  8
0
  6
PHANTOM
 62
     8
100
AcDbCircle
 10
201.156653319
 20
103.3512013232
 30
0.0
 40
4.300878304298752
100
AcDbArc
 50
358.0016173803
 51
1.9983826197
  0
ARC
  5
2E4
330
1F
100
AcDbEntity
  8
0
  6
PHANTOM
 62
     8
100
AcDbCircle
 10
201.9499727213
 20
95.6872312827
 30
0.0
 40
4.907897394278898
100
AcDbArc
 50
27.3901460914
 51
30.8627799089
  0
ARC
  5
2E5
330
1F
100
AcDbEntity
  8
0
  6
PHANTOM
 62
     8
100
AcDbCircle
 10
201.9499727213
 20
105.3101387753
 30
0.0
 40
4.9078973943033
100
AcDbArc
 50
329.1372200911
 51
332.6098539085
  0
ARC
  5
2E6
330
1F
100
AcDbEntity
  8
0
  6
PHANTOM
 62
     8
100
AcDbCircle
 10
201.2419849636
 20
105.7188956978
 30
0.0
 40
4.907897394245307
100
AcDbArc
 50
329.1372200911
 51
332.6098539086
  0
LINE
  5
2E7
330
1F
100
AcDbEntity
  8
0
  6
PHANTOM
 62
     8
100
AcDbLine
 10
206.4576679156
 20
98.2049028116
 30
0.0
 11
206.1629036375
 21
98.2049028116
 31
0.0
  0
LINE
  5
2E8
330
1F
100
AcDbEntity
  8
0
  6
PHANTOM
 62
     8
100
AcDbLine
 10
206.4576679156
 20
102.7924672463
 30
0.0
 11
206.1629036375
 21
102.7924672463
 31
0.0
  0
LINE
  5
2E9
330
1F
100
AcDbEntity
  8
0
  6
PHANTOM
 62
     8
100
AcDbLine
 10
259.0594954346
 20
105.2430225963
 30
0.0
 11
259.0372630775
 21
105.8796740032
 31
0.0
  0
SPLINE
  5
2EA
330
1F
100
AcDbEntity
  8
0
  6
PHANTOM
 62
     8
100
AcDbSpline
210
0.0
220
0.0
230
1.0
 70
     8
 71
     3
 72
    20
 73
    16
 74
     0
 42
0.000000001
 43
0.00000001
 40
0.0
 40
0.0
 40
0.0
 40
0.0
 40
0.1250000000000006
 40
0.1250000000000006
 40
0.2500000000000011
 40
0.2500000000000011
 40
0.5000000000000027
 40
0.5000000000000027
 40
0.625000000000002
 40
0.625000000000002
 40
0.7500000000000013
 40
0.7500000000000013
 40
0.8750000000000007
 40
0.8750000000000007
 40
1.0
 40
1.0
 40
1.0
 40
1.0
 10
262.0173365819157
 20
106.397960883292
 30
0.0
 10
262.0182184062916
 20
106.3727087371144
 30
0.0
 10
261.9999543126995
 20
106.3461994809449
 30
0.0
 10
261.9258968029901
 20
106.2908513353789
 30
0.0
 10
261.8697076617241
 20
106.2620300806743
 30
0.0
 10
261.6507574213471
 20
106.1758953489396
 30
0.0
 10
261.4317700828026
 20
106.1168294175102
 30
0.0
 10
261.0221310642355
 20
106.0384237061606
 30
0.0
 10
260.8697102973289
 20
106.0135411645194
 30
0.0
 10
260.5446364327016
 20
105.9692455586191
 30
0.0
 10
260.37267612709
 20
105.9498251742024
 30
0.0
 10
260.0096979139042
 20
105.9172326050277
 30
0.0
 10
259.8182509550367
 20
105.9041502742483
 30
0.0
 10
259.43280696098
 20
105.8860591397813
 30
0.0
 10
259.2367647140542
 20
105.8808325381633
 30
0.0
 10
259.03726307753
 20
105.8796740031629
 30
0.0
  0
SPLINE
  5
2EB
330
1F
100
AcDbEntity
  8
0
  6
PHANTOM
 62
     8
100
AcDbSpline
210
0.0
220
0.0
230
1.0
 70
     8
 71
     3
 72
    20
 73
    16
 74
     0
 42
0.000000001
 43
0.00000001
 40
0.0
 40
0.0
 40
0.0
 40
0.0
 40
0.1249999999999999
 40
0.1249999999999999
 40
0.2499999999999998
 40
0.2499999999999998
 40
0.3749999999999998
 40
0.3749999999999998
 40
0.4999999999999997
 40
0.4999999999999997
 40
0.7499999999999996
 40
0.7499999999999996
 40
0.8749999999999998
 40
0.8749999999999998
 40
1.0
 40
1.0
 40
1.0
 40
1.0
 10
259.03726307753
 20
106.3469749760464
 30
0.0
 10
259.2056443401631
 20
106.3469749760464
 30
0.0
 10
259.3709174195476
 20
106.3513569331639
 30
0.0
 10
259.6955234994143
 20
106.3683161607833
 30
0.0
 10
259.856644676514
 20
106.3811275288771
 30
0.0
 10
260.1608370194097
 20
106.4136017150667
 30
0.0
 10
260.3045039921928
 20
106.4331796064826
 30
0.0
 10
260.5753613057927
 20
106.4781275905441
 30
0.0
 10
260.701658383775
 20
106.5034512641319
 30
0.0
 10
261.0401844575293
 20
106.5834758161206
 30
0.0
 10
261.2194782088094
 20
106.6439602514241
 30
0.0
 10
261.3981409409894
 20
106.7327122837835
 30
0.0
 10
261.4438156446366
 20
106.7624992378182
 30
0.0
 10
261.5038516336376
 20
106.8199773494583
 30
0.0
 10
261.5185529928631
 20
106.8476716665458
 30
0.0
 10
261.5176411684062
 20
106.874234966981
 30
0.0
  0
ARC
  5
2EC
330
1F
100
AcDbEntity
  8
0
  6
PHANTOM
 62
     8
100
AcDbCircle
 10
261.5211212936
 20
106.3776149324
 30
0.0
 40
0.4966322281512393
100
AcDbArc
 50
2.347941568
 51
90.4015005644
  0
LINE
  5
2ED
330
1F
100
AcDbEntity
  8
0
  6
PHANTOM
 62
     8
100
AcDbLine
 10
259.0372630775
 20
105.8796740032
 30
0.0
 11
259.0372630775
 21
106.346974976
 31
0.0
  0
LINE
  5
2EE
330
1F
100
AcDbEntity
  8
0
  6
PHANTOM
 62
     8
100
AcDbLine
 10
201.5795956861
 20
105.8796740032
 30
0.0
 11
201.5573633291
 21
105.2430225963
 31
0.0
  0
LINE
  5
2EF
330
1F
100
AcDbEntity
  8
0
  6
PHANTOM
 62
     8
100
AcDbLine
 10
259.0372630775
 20
105.8796740032
 30
0.0
 11
201.5795956861
 21
105.8796740032
 31
0.0
  0
ARC
  5
2F0
330
1F
100
AcDbEntity
  8
0
  6
PHANTOM
 62
     8
100
AcDbCircle
 10
201.3075156224
 20
101.6584374326
 30
0.0
 40
3.59328188041197
100
AcDbArc
 50
86.0128986004
 51
93.9871013996
  0
ARC
  5
2F1
330
1F
100
AcDbEntity
  8
0
  6
PHANTOM
 62
     8
100
AcDbCircle
 10
201.3297479794
 20
102.2950888395
 30
0.0
 40
3.593281880412027
100
AcDbArc
 50
86.0128986004
 51
93.9871013996
  0
LINE
  5
2F2
330
1F
100
AcDbEntity
  8
0
  6
PHANTOM
 62
     8
100
AcDbLine
 10
201.5795956861
 20
105.8796740032
 30
0.0
 11
201.5795956861
 21
106.346974976
 31
0.0
  0
LINE
  5
2F3
330
1F
100
AcDbEntity
  8
0
  6
PHANTOM
 62
     8
100
AcDbLine
 10
201.5795956861
 20
106.346974976
 30
0.0
 11
259.0372630775
 21
106.346974976
 31
0.0
  0
ARC
  5
2F4
330
1F
100
AcDbEntity
  8
0
  6
PHANTOM
 62
     8
100
AcDbCircle
 10
201.571223038
 20
105.8551097923
 30
0.0
 40
0.4919364392038607
100
AcDbArc
 50
89.024791564
 51
177.1378189787
  0
LINE
  5
2F5
330
1F
100
AcDbEntity
  8
0
  6
PHANTOM
 62
     8
100
AcDbLine
 10
261.5176411684
 20
106.874234967
 30
0.0
 11
261.5049819892
 21
107.2430225963
 31
0.0
  0
LINE
  5
2F6
330
1F
100
AcDbEntity
  8
0
  6
PHANTOM
 62
     8
100
AcDbLine
 10
201.610353842
 20
107.2430225963
 30
0.0
 11
201.5795956861
 21
106.346974976
 31
0.0
  0
LINE
  5
2F7
330
1F
100
AcDbEntity
  8
0
  6
PHANTOM
 62
     8
100
AcDbLine
 10
237.5576679156
 20
103.5502022733
 30
0.0
 11
241.5576679156
 21
103.5502022733
 31
0.0
  0
LINE
  5
2F8
330
1F
100
AcDbEntity
  8
0
  6
PHANTOM
 62
     8
100
AcDbLine
 10
237.5576679156
 20
102.5855070761
 30
0.0
 11
241.5576679156
 21
102.5855070761
 31
0.0
  0
LINE
  5
2F9
330
1F
100
AcDbEntity
  8
0
  6
PHANTOM
 62
     8
100
AcDbLine
 10
237.5576679156
 20
103.0502022733
 30
0.0
 11
241.5576679156
 21
103.0502022733
 31
0.0
  0
LINE
  5
2FA
330
1F
100
AcDbEntity
  8
0
  6
PHANTOM
 62
     8
100
AcDbLine
 10
237.5576679156
 20
104.9430225963
 30
0.0
 11
241.5576679156
 21
104.9430225963
 31
0.0
  0
LINE
  5
2FB
330
1F
100
AcDbEntity
  8
0
  6
CONTINUOUS
 62
     7
100
AcDbLine
 10
302.410013449
 20
103.9430225963
 30
0.0
 11
302.410013449
 21
105.2430225963
 31
0.0
  0
LINE
  5
2FC
330
1F
100
AcDbEntity
  8
0
  6
CONTINUOUS
 62
     7
100
AcDbLine
 10
302.110013449
 20
103.6430225963
 30
0.0
 11
302.410013449
 21
103.9430225963
 31
0.0
  0
LINE
  5
2FD
330
1F
100
AcDbEntity
  8
0
  6
CONTINUOUS
 62
     7
100
AcDbLine
 10
294.710013449
 20
105.2430225963
 30
0.0
 11
294.710013449
 21
103.9430225963
 31
0.0
  0
LINE
  5
2FE
330
1F
100
AcDbEntity
  8
0
  6
CONTINUOUS
 62
     7
100
AcDbLine
 10
294.710013449
 20
103.9430225963
 30
0.0
 11
295.010013449
 21
103.6430225963
 31
0.0
  0
LINE
  5
2FF
330
1F
100
AcDbEntity
  8
0
  6
CONTINUOUS
 62
     7
100
AcDbLine
 10
306.137781092
 20
105.8796740032
 30
0.0
 11
306.160013449
 21
105.2430225963
 31
0.0
  0
LINE
  5
300
330
1F
100
AcDbEntity
  8
0
  6
CONTINUOUS
 62
     7
100
AcDbLine
 10
306.160013449
 20
105.2430225963
 30
0.0
 11
304.7887830187
 21
105.2430225963
 31
0.0
  0
SPLINE
  5
301
330
1F
100
AcDbEntity
  8
0
  6
CONTINUOUS
 62
     7
100
AcDbSpline
210
0.0
220
0.0
230
1.0
 70
     8
 71
     3
 72
    12
 73
     8
 74
     0
 42
0.000000001
 43
0.00000001
 40
0.0
 40
0.0
 40
0.0
 40
0.0
 40
0.5000000000000016
 40
0.5000000000000016
 40
0.7500000000000008
 40
0.7500000000000008
 40
1.0
 40
1.0
 40
1.0
 40
1.0
 10
303.1505971453316
 20
105.5650035480631
 30
0.0
 10
303.4416253861005
 20
105.5167459312939
 30
0.0
 10
303.7252140428838
 20
105.465012361137
 30
0.0
 10
304.1399096242433
 20
105.3830420412598
 30
0.0
 10
304.2766597278251
 20
105.3549101023783
 30
0.0
 10
304.5394475936833
 20
105.2989176340875
 30
0.0
 10
304.66638199844
 20
105.2708857794795
 30
0.0
 10
304.7887830186775
 20
105.2430225962914
 30
0.0
  0
LINE
  5
302
330
1F
100
AcDbEntity
  8
0
  6
CONTINUOUS
 62
     7
100
AcDbLine
 10
290.960013449
 20
105.2430225963
 30
0.0
 11
290.982245806
 21
105.8796740032
 31
0.0
  0
LINE
  5
303
330
1F
100
AcDbEntity
  8
0
  6
CONTINUOUS
 62
     7
100
AcDbLine
 10
292.3312438793
 20
105.2430225963
 30
0.0
 11
290.960013449
 21
105.2430225963
 31
0.0
  0
SPLINE
  5
304
330
1F
100
AcDbEntity
  8
0
  6
CONTINUOUS
 62
     7
100
AcDbSpline
210
0.0
220
0.0
230
1.0
 70
     8
 71
     3
 72
    12
 73
     8
 74
     0
 42
0.000000001
 43
0.00000001
 40
0.0
 40
0.0
 40
0.0
 40
0.0
 40
0.4999999999999977
 40
0.4999999999999977
 40
0.7499999999999988
 40
0.7499999999999988
 40
1.0
 40
1.0
 40
1.0
 40
1.0
 10
292.3312438792955
 20
105.2430225962914
 30
0.0
 10
292.5760553910756
 20
105.2987511187011
 30
0.0
 10
292.8367549605307
 20
105.3546489272284
 30
0.0
 10
293.2512298795619
 20
105.4366581953176
 30
0.0
 10
293.3937891231296
 20
105.4637637825222
 30
0.0
 10
293.6797064740649
 20
105.5157838891614
 30
0.0
 10
293.823922575255
 20
105.5408758909501
 30
0.0
 10
293.9694297526414
 20
105.5650035480631
 30
0.0
  0
SPLINE
  5
305
330
1F
100
AcDbEntity
  8
0
  6
CONTINUOUS
 62
     7
100
AcDbSpline
210
0.0
220
0.0
230
1.0
 70
     8
 71
     3
 72
    20
 73
    16
 74
     0
 42
0.000000001
 43
0.00000001
 40
0.0
 40
0.0
 40
0.0
 40
0.0
 40
0.125
 40
0.125
 40
0.2500000000000001
 40
0.2500000000000001
 40
0.3750000000000001
 40
0.3750000000000001
 40
0.5000000000000001
 40
0.5000000000000001
 40
0.6250000000000001
 40
0.6250000000000001
 40
0.7500000000000002
 40
0.7500000000000002
 40
1.0
 40
1.0
 40
1.0
 40
1.0
 10
303.2004829061369
 20
106.874234966981
 30
0.0
 10
303.3666227663185
 20
106.8476601745547
 30
0.0
 10
303.5300258506365
 20
106.8200605014685
 30
0.0
 10
303.8516107753749
 20
106.7630237251802
 30
0.0
 10
304.0112166764121
 20
106.7333043983899
 30
0.0
 10
304.3178141657116
 20
106.6737240606042
 30
0.0
 10
304.4636186459139
 20
106.6441247294813
 30
0.0
 10
304.7403765008772
 20
106.5859665065023
 30
0.0
 10
304.8724468795311
 20
106.557142413526
 30
0.0
 10
305.1108793917479
 20
106.5036490437147
 30
0.0
 10
305.2183007469631
 20
106.4787733477348
 30
0.0
 10
305.4088217579152
 20
106.4337734712453
 30
0.0
 10
305.4914067449801
 20
106.4137635577351
 30
0.0
 10
305.6895035947687
 20
106.3651849729602
 30
0.0
 10
305.7606284802077
 20
106.3469749760464
 30
0.0
 10
305.7606284802076
 20
106.3469749760464
 30
0.0
  0
ARC
  5
306
330
1F
100
AcDbEntity
  8
0
  6
CONTINUOUS
 62
     7
100
AcDbCircle
 10
305.6380856785
 20
105.8622242548
 30
0.0
 40
0.4999999999999906
100
AcDbArc
 50
2.0
 51
75.8131073153
  0
SPLINE
  5
307
330
1F
100
AcDbEntity
  8
0
  6
CONTINUOUS
 62
     7
100
AcDbSpline
210
0.0
220
0.0
230
1.0
 70
     8
 71
     3
 72
    20
 73
    16
 74
     0
 42
0.000000001
 43
0.00000001
 40
0.0
 40
0.0
 40
0.0
 40
0.0
 40
0.1249999999999999
 40
0.1249999999999999
 40
0.2499999999999998
 40
0.2499999999999998
 40
0.3749999999999998
 40
0.3749999999999998
 40
0.4999999999999997
 40
0.4999999999999997
 40
0.7499999999999996
 40
0.7499999999999996
 40
0.8749999999999998
 40
0.8749999999999998
 40
1.0
 40
1.0
 40
1.0
 40
1.0
 10
291.3593984177654
 20
106.3469749760464
 30
0.0
 10
291.3593984177654
 20
106.3469749760464
 30
0.0
 10
291.3766701511303
 20
106.3513569331639
 30
0.0
 10
291.4442666135221
 20
106.3683161607833
 30
0.0
 10
291.495543355863
 20
106.3811275288771
 30
0.0
 10
291.6279518057843
 20
106.4136017150667
 30
0.0
 10
291.7087303780665
 20
106.4331796064826
 30
0.0
 10
291.8989536629804
 20
106.4781275905441
 30
0.0
 10
292.0082894010749
 20
106.5034512641319
 30
0.0
 10
292.3649076421281
 20
106.5834758161206
 30
0.0
 10
292.6491619131746
 20
106.6439602514241
 30
0.0
 10
293.1057076366327
 20
106.7327122837835
 30
0.0
 10
293.2655150234551
 20
106.7624992378182
 30
0.0
 10
293.5894767420355
 20
106.8199773494583
 30
0.0
 10
293.7534759770998
 20
106.8476716665458
 30
0.0
 10
293.9195439918361
 20
106.874234966981
 30
0.0
  0
ARC
  5
308
330
1F
100
AcDbEntity
  8
0
  6
CONTINUOUS
 62
     7
100
AcDbCircle
 10
291.4819412195
 20
105.8622242548
 30
0.0
 40
0.4999999999999906
100
AcDbArc
 50
104.1868926847
 51
178.0
  0
ARC
  5
309
330
1F
100
AcDbEntity
  8
0
  6
CONTINUOUS
 62
     7
100
AcDbCircle
 10
298.560013449
 20
77.8804723446
 30
0.0
 40
28.06255025164875
100
AcDbArc
 50
80.5850150598
 51
99.4149849402
  0
ARC
  5
30A
330
1F
100
AcDbEntity
  8
0
  6
CONTINUOUS
 62
     7
100
AcDbCircle
 10
298.560013449
 20
77.8630225963
 30
0.0
 40
29.37999999999999
100
AcDbArc
 50
80.9122736716
 51
99.0877263284
  0
LINE
  5
30B
330
1F
100
AcDbEntity
  8
0
  6
CONTINUOUS
 62
     7
100
AcDbLine
 10
304.7887830187
 20
105.2430225963
 30
0.0
 11
292.3312438793
 21
105.2430225963
 31
0.0
  0
LINE
  5
30C
330
1F
100
AcDbEntity
  8
0
  6
CONTINUOUS
 62
     7
100
AcDbLine
 10
301.8942112536
 20
103.9430225963
 30
0.0
 11
302.410013449
 21
103.9430225963
 31
0.0
  0
LINE
  5
30D
330
1F
100
AcDbEntity
  8
0
  6
CONTINUOUS
 62
     7
100
AcDbLine
 10
301.8942112536
 20
103.9430225963
 30
0.0
 11
301.8942112536
 21
105.2430225963
 31
0.0
  0
LINE
  5
30E
330
1F
100
AcDbEntity
  8
0
  6
CONTINUOUS
 62
     7
100
AcDbLine
 10
302.110013449
 20
103.6430225963
 30
0.0
 11
301.6344036324
 21
103.6430225963
 31
0.0
  0
LINE
  5
30F
330
1F
100
AcDbEntity
  8
0
  6
CONTINUOUS
 62
     7
100
AcDbLine
 10
301.6344036324
 20
103.6430225963
 30
0.0
 11
301.8942112536
 21
103.9430225963
 31
0.0
  0
LINE
  5
310
330
1F
100
AcDbEntity
  8
0
  6
CONTINUOUS
 62
     7
100
AcDbLine
 10
301.2013909305
 20
103.6430225963
 30
0.0
 11
301.2013909305
 21
105.2430225963
 31
0.0
  0
LINE
  5
311
330
1F
100
AcDbEntity
  8
0
  6
CONTINUOUS
 62
     7
100
AcDbLine
 10
301.2013909305
 20
103.6430225963
 30
0.0
 11
301.6344036324
 21
103.6430225963
 31
0.0
  0
LINE
  5
312
330
1F
100
AcDbEntity
  8
0
  6
CONTINUOUS
 62
     7
100
AcDbLine
 10
295.2258156444
 20
103.9430225963
 30
0.0
 11
295.2258156444
 21
105.2430225963
 31
0.0
  0
LINE
  5
313
330
1F
100
AcDbEntity
  8
0
  6
CONTINUOUS
 62
     7
100
AcDbLine
 10
294.710013449
 20
103.9430225963
 30
0.0
 11
295.2258156444
 21
103.9430225963
 31
0.0
  0
LINE
  5
314
330
1F
100
AcDbEntity
  8
0
  6
CONTINUOUS
 62
     7
100
AcDbLine
 10
295.2258156444
 20
103.9430225963
 30
0.0
 11
295.4856232656
 21
103.6430225963
 31
0.0
  0
LINE
  5
315
330
1F
100
AcDbEntity
  8
0
  6
CONTINUOUS
 62
     7
100
AcDbLine
 10
295.4856232656
 20
103.6430225963
 30
0.0
 11
295.010013449
 21
103.6430225963
 31
0.0
  0
LINE
  5
316
330
1F
100
AcDbEntity
  8
0
  6
CONTINUOUS
 62
     7
100
AcDbLine
 10
295.9186359674
 20
103.6430225963
 30
0.0
 11
295.9186359674
 21
105.2430225963
 31
0.0
  0
LINE
  5
317
330
1F
100
AcDbEntity
  8
0
  6
CONTINUOUS
 62
     7
100
AcDbLine
 10
295.9186359674
 20
103.6430225963
 30
0.0
 11
295.4856232656
 21
103.6430225963
 31
0.0
  0
LINE
  5
318
330
1F
100
AcDbEntity
  8
0
  6
CONTINUOUS
 62
     7
100
AcDbLine
 10
302.660013449
 20
103.0502022733
 30
0.0
 11
302.660013449
 21
103.5502022733
 31
0.0
  0
LINE
  5
319
330
1F
100
AcDbEntity
  8
0
  6
CONTINUOUS
 62
     7
100
AcDbLine
 10
301.910013449
 20
101.7430225963
 30
0.0
 11
301.410013449
 21
101.7430225963
 31
0.0
  0
LINE
  5
31A
330
1F
100
AcDbEntity
  8
0
  6
CONTINUOUS
 62
     7
100
AcDbLine
 10
301.410013449
 20
101.7430225963
 30
0.0
 11
301.410013449
 21
103.6430225963
 31
0.0
  0
LINE
  5
31B
330
1F
100
AcDbEntity
  8
0
  6
CONTINUOUS
 62
     7
100
AcDbLine
 10
302.5112110947
 20
102.5855070761
 30
0.0
 11
301.910013449
 21
101.7430225963
 31
0.0
  0
ARC
  5
31C
330
1F
100
AcDbEntity
  8
0
  6
CONTINUOUS
 62
     7
100
AcDbCircle
 10
301.860013449
 20
103.5502022733
 30
0.0
 40
0.8000000000000682
100
AcDbArc
 50
0.0
 51
46.5674634422
  0
ARC
  5
31D
330
1F
100
AcDbEntity
  8
0
  6
CONTINUOUS
 62
     7
100
AcDbCircle
 10
302.560013449
 20
104.9430225963
 30
0.0
 40
0.3000000000000296
100
AcDbArc
 50
90.0
 51
120.0
  0
ARC
  5
31E
330
1F
100
AcDbEntity
  8
0
  6
CONTINUOUS
 62
     7
100
AcDbCircle
 10
301.860013449
 20
103.0502022733
 30
0.0
 40
0.8000000000000682
100
AcDbArc
 50
324.4883135432
 51
0.0
  0
ARC
  5
31F
330
1F
100
AcDbEntity
  8
0
  6
CONTINUOUS
 62
     7
100
AcDbCircle
 10
295.260013449
 20
103.5502022733
 30
0.0
 40
0.8000000000000197
100
AcDbArc
 50
133.4325365578
 51
180.0
  0
ARC
  5
320
330
1F
100
AcDbEntity
  8
0
  6
CONTINUOUS
 62
     7
100
AcDbCircle
 10
294.560013449
 20
104.9430225963
 30
0.0
 40
0.3000000000000114
100
AcDbArc
 50
60.0
 51
90.0
  0
LINE
  5
321
330
1F
100
AcDbEntity
  8
0
  6
CONTINUOUS
 62
     7
100
AcDbLine
 10
295.210013449
 20
101.7430225963
 30
0.0
 11
295.710013449
 21
101.7430225963
 31
0.0
  0
LINE
  5
322
330
1F
100
AcDbEntity
  8
0
  6
CONTINUOUS
 62
     7
100
AcDbLine
 10
294.6088158033
 20
102.5855070761
 30
0.0
 11
295.210013449
 21
101.7430225963
 31
0.0
  0
ARC
  5
323
330
1F
100
AcDbEntity
  8
0
  6
CONTINUOUS
 62
     7
100
AcDbCircle
 10
295.260013449
 20
103.0502022733
 30
0.0
 40
0.8000000000000169
100
AcDbArc
 50
180.0
 51
215.5116864568
  0
LINE
  5
324
330
1F
100
AcDbEntity
  8
0
  6
CONTINUOUS
 62
     7
100
AcDbLine
 10
294.460013449
 20
103.5502022733
 30
0.0
 11
294.460013449
 21
103.0502022733
 31
0.0
  0
LINE
  5
325
330
1F
100
AcDbEntity
  8
0
  6
CONTINUOUS
 62
     7
100
AcDbLine
 10
295.710013449
 20
101.7430225963
 30
0.0
 11
295.710013449
 21
103.6430225963
 31
0.0
  0
ELLIPSE
  5
326
330
1F
100
AcDbEntity
  8
0
  6
CONTINUOUS
 62
     7
100
AcDbEllipse
 10
291.7902388877
 20
101.8127971576
 30
0.0
 11
0.2121966567509048
 21
-0.2121966567508764
 31
0.0
210
0.0
220
0.0
230
1.0
 40
0.9996954599
 41
2.356346783439656
 42
3.926838523739669
  0
LINE
  5
327
330
1F
100
AcDbEntity
  8
0
  6
CONTINUOUS
 62
     7
100
AcDbLine
 10
291.4901931893
 20
99.4731566451
 30
0.0
 11
291.4901931893
 21
101.8128885475
 31
0.0
  0
ELLIPSE
  5
328
330
1F
100
AcDbEntity
  8
0
  6
CONTINUOUS
 62
     7
100
AcDbEllipse
 10
291.7902388877
 20
99.473248035
 30
0.0
 11
0.2121966567509048
 21
0.2121966567508764
 31
0.0
210
0.0
220
0.0
230
1.0
 40
0.9996954599
 41
2.356346783440002
 42
3.926838523739827
  0
LINE
  5
329
330
1F
100
AcDbEntity
  8
0
  6
CONTINUOUS
 62
     7
100
AcDbLine
 10
297.5798794002
 20
99.1732023366
 30
0.0
 11
291.7901474978
 21
99.1732023366
 31
0.0
  0
ELLIPSE
  5
32A
330
1F
100
AcDbEntity
  8
0
  6
CONTINUOUS
 62
     7
100
AcDbEllipse
 10
297.5797880103
 20
99.473248035
 30
0.0
 11
-0.212196656750848
 21
0.2121966567508764
 31
0.0
210
0.0
220
0.0
230
1.0
 40
0.9996954599
 41
2.356346783439856
 42
3.926838523739783
  0
LINE
  5
32B
330
1F
100
AcDbEntity
  8
0
  6
CONTINUOUS
 62
     7
100
AcDbLine
 10
297.8798337087
 20
101.8128885475
 30
0.0
 11
297.8798337087
 21
99.4731566451
 31
0.0
  0
ELLIPSE
  5
32C
330
1F
100
AcDbEntity
  8
0
  6
CONTINUOUS
 62
     7
100
AcDbEllipse
 10
297.5797880103
 20
101.8127971576
 30
0.0
 11
-0.212196656750848
 21
-0.2121966567508764
 31
0.0
210
0.0
220
0.0
230
1.0
 40
0.9996954599
 41
2.356346783439915
 42
3.926838523739693
  0
LINE
  5
32D
330
1F
100
AcDbEntity
  8
0
  6
CONTINUOUS
 62
     7
100
AcDbLine
 10
291.7901474978
 20
102.112842856
 30
0.0
 11
294.9461093952
 21
102.112842856
 31
0.0
  0
LINE
  5
32E
330
1F
100
AcDbEntity
  8
0
  6
CONTINUOUS
 62
     7
100
AcDbLine
 10
295.710013449
 20
102.112842856
 30
0.0
 11
297.5798794002
 21
102.112842856
 31
0.0
  0
ELLIPSE
  5
32F
330
1F
100
AcDbEntity
  8
0
  6
CONTINUOUS
 62
     7
100
AcDbEllipse
 10
299.5402388877
 20
101.8127971576
 30
0.0
 11
0.212196656750848
 21
-0.2121966567508764
 31
0.0
210
0.0
220
0.0
230
1.0
 40
0.9996954599
 41
2.356346783440113
 42
3.926838523739669
  0
LINE
  5
330
330
1F
100
AcDbEntity
  8
0
  6
CONTINUOUS
 62
     7
100
AcDbLine
 10
299.2401931893
 20
99.4731566451
 30
0.0
 11
299.2401931893
 21
101.8128885475
 31
0.0
  0
ELLIPSE
  5
331
330
1F
100
AcDbEntity
  8
0
  6
CONTINUOUS
 62
     7
100
AcDbEllipse
 10
299.5402388877
 20
99.473248035
 30
0.0
 11
0.212196656750848
 21
0.2121966567508764
 31
0.0
210
0.0
220
0.0
230
1.0
 40
0.9996954599
 41
2.3563467834398
 42
3.926838523739571
  0
LINE
  5
332
330
1F
100
AcDbEntity
  8
0
  6
CONTINUOUS
 62
     7
100
AcDbLine
 10
305.3298794002
 20
99.1732023366
 30
0.0
 11
299.5401474978
 21
99.1732023366
 31
0.0
  0
ELLIPSE
  5
333
330
1F
100
AcDbEntity
  8
0
  6
CONTINUOUS
 62
     7
100
AcDbEllipse
 10
305.3297880103
 20
99.473248035
 30
0.0
 11
-0.2121966567509048
 21
0.2121966567508764
 31
0.0
210
0.0
220
0.0
230
1.0
 40
0.9996954599
 41
2.356346783439656
 42
3.926838523739716
  0
LINE
  5
334
330
1F
100
AcDbEntity
  8
0
  6
CONTINUOUS
 62
     7
100
AcDbLine
 10
305.6298337087
 20
101.8128885475
 30
0.0
 11
305.6298337087
 21
99.4731566451
 31
0.0
  0
ELLIPSE
  5
335
330
1F
100
AcDbEntity
  8
0
  6
CONTINUOUS
 62
     7
100
AcDbEllipse
 10
305.3297880103
 20
101.8127971576
 30
0.0
 11
-0.2121966567509048
 21
-0.2121966567508764
 31
0.0
210
0.0
220
0.0
230
1.0
 40
0.9996954599
 41
2.356346783439982
 42
3.926838523739894
  0
LINE
  5
336
330
1F
100
AcDbEntity
  8
0
  6
CONTINUOUS
 62
     7
100
AcDbLine
 10
299.5401474978
 20
102.112842856
 30
0.0
 11
301.410013449
 21
102.112842856
 31
0.0
  0
LINE
  5
337
330
1F
100
AcDbEntity
  8
0
  6
CONTINUOUS
 62
     7
100
AcDbLine
 10
302.1739175028
 20
102.112842856
 30
0.0
 11
305.3298794002
 21
102.112842856
 31
0.0
  0
LINE
  5
338
330
1F
100
AcDbEntity
  8
0
  6
CONTINUOUS
 62
     7
100
AcDbLine
 10
307.0058113578
 20
98.2049028116
 30
0.0
 11
307.0197754098
 21
97.7430225963
 31
0.0
  0
LINE
  5
339
330
1F
100
AcDbEntity
  8
0
  6
CONTINUOUS
 62
     7
100
AcDbLine
 10
307.0197754098
 20
97.7430225963
 30
0.0
 11
306.8630358001
 21
97.7430225963
 31
0.0
  0
ELLIPSE
  5
33A
330
1F
100
AcDbEntity
  8
0
  6
CONTINUOUS
 62
     7
100
AcDbEllipse
 10
306.7107511834
 20
98.0430225963
 30
0.0
 11
0.2657349703956697
 21
-0.2578224074512292
 31
0.0
210
0.0
220
0.0
230
1.0
 40
0.5772183919
 41
5.222900942004941
 42
5.746499717654972
  0
ELLIPSE
  5
33B
330
1F
100
AcDbEntity
  8
0
  6
CONTINUOUS
 62
     7
100
AcDbEllipse
 10
290.4092757145
 20
98.0430225963
 30
0.0
 11
0.2657349703956698
 21
0.257822407451215
 31
0.0
210
0.0
220
0.0
230
1.0
 40
0.5772183919
 41
3.678278243114259
 42
4.201877018764475
  0
LINE
  5
33C
330
1F
100
AcDbEntity
  8
0
  6
CONTINUOUS
 62
     7
100
AcDbLine
 10
290.2569910978
 20
97.7430225963
 30
0.0
 11
290.1002514882
 21
97.7430225963
 31
0.0
  0
LINE
  5
33D
330
1F
100
AcDbEntity
  8
0
  6
CONTINUOUS
 62
     7
100
AcDbLine
 10
290.1002514882
 20
97.7430225963
 30
0.0
 11
290.1142155401
 21
98.2049028116
 31
0.0
  0
LINE
  5
33E
330
1F
100
AcDbEntity
  8
0
  6
CONTINUOUS
 62
     7
100
AcDbLine
 10
290.1142155401
 20
102.7924672463
 30
0.0
 11
290.1018575678
 21
103.2012241689
 31
0.0
  0
LINE
  5
33F
330
1F
100
AcDbEntity
  8
0
  6
CONTINUOUS
 62
     7
100
AcDbLine
 10
307.0645850312
 20
97.7430225963
 30
0.0
 11
307.0612317671
 21
103.2442866059
 31
0.0
  0
LINE
  5
340
330
1F
100
AcDbEntity
  8
0
  6
CONTINUOUS
 62
     7
100
AcDbLine
 10
307.0645850312
 20
97.7430225963
 30
0.0
 11
307.0197754098
 21
97.7430225963
 31
0.0
  0
LINE
  5
341
330
1F
100
AcDbEntity
  8
0
  6
CONTINUOUS
 62
     7
100
AcDbLine
 10
290.0554418667
 20
97.7430225963
 30
0.0
 11
290.0587951309
 21
103.2442866059
 31
0.0
  0
LINE
  5
342
330
1F
100
AcDbEntity
  8
0
  6
CONTINUOUS
 62
     7
100
AcDbLine
 10
290.0554418667
 20
97.7430225963
 30
0.0
 11
290.1002514882
 21
97.7430225963
 31
0.0
  0
LINE
  5
343
330
1F
100
AcDbEntity
  8
0
  6
CONTINUOUS
 62
     7
100
AcDbLine
 10
306.8630358001
 20
97.7430225963
 30
0.0
 11
290.2569910978
 21
97.7430225963
 31
0.0
  0
ELLIPSE
  5
344
330
1F
100
AcDbEntity
  8
0
  6
CONTINUOUS
 62
     7
100
AcDbEllipse
 10
306.7611861244
 20
103.2441952717
 30
0.0
 11
0.2920338624377905
 21
-0.06892105535844451
 31
0.0
210
0.0
220
0.0
230
1.0
 40
0.9993189899
 41
0.2322197910719543
 42
1.802711531371475
  0
ELLIPSE
  5
345
330
1F
100
AcDbEntity
  8
0
  6
CONTINUOUS
 62
     7
100
AcDbEllipse
 10
290.3588407736
 20
103.2441952717
 30
0.0
 11
0.2920338624377337
 21
0.06892105535844451
 31
0.0
210
0.0
220
0.0
230
1.0
 40
0.9993189899
 41
1.338881122218234
 42
2.909372862517837
  0
LINE
  5
346
330
1F
100
AcDbEntity
  8
0
  6
CONTINUOUS
 62
     7
100
AcDbLine
 10
290.3589321635
 20
103.5440581904
 30
0.0
 11
294.460013449
 21
103.5440581904
 31
0.0
  0
LINE
  5
347
330
1F
100
AcDbEntity
  8
0
  6
CONTINUOUS
 62
     7
100
AcDbLine
 10
295.710013449
 20
103.5440581904
 30
0.0
 11
301.410013449
 21
103.5440581904
 31
0.0
  0
LINE
  5
348
330
1F
100
AcDbEntity
  8
0
  6
CONTINUOUS
 62
     7
100
AcDbLine
 10
302.660013449
 20
103.5440581904
 30
0.0
 11
306.7610947345
 21
103.5440581904
 31
0.0
  0
LINE
  5
349
330
1F
100
AcDbEntity
  8
0
  6
CONTINUOUS
 62
     7
100
AcDbLine
 10
298.360013449
 20
104.5430225963
 30
0.0
 11
298.760013449
 21
104.5430225963
 31
0.0
  0
LINE
  5
34A
330
1F
100
AcDbEntity
  8
0
  6
CONTINUOUS
 62
     7
100
AcDbLine
 10
298.360013449
 20
104.5430225963
 30
0.0
 11
298.360013449
 21
105.2430225963
 31
0.0
  0
LINE
  5
34B
330
1F
100
AcDbEntity
  8
0
  6
CONTINUOUS
 62
     7
100
AcDbLine
 10
298.760013449
 20
104.5430225963
 30
0.0
 11
298.760013449
 21
105.2430225963
 31
0.0
  0
LINE
  5
34C
330
1F
100
AcDbEntity
  8
0
  6
CONTINUOUS
 62
     7
100
AcDbLine
 10
306.160013449
 20
105.2430225963
 30
0.0
 11
306.8786358994
 21
105.2430225963
 31
0.0
  0
ARC
  5
34D
330
1F
100
AcDbEntity
  8
0
  6
CONTINUOUS
 62
     7
100
AcDbCircle
 10
306.8786358994
 20
103.2430225963
 30
0.0
 40
2.0
100
AcDbArc
 50
2.0
 51
90.0
  0
LINE
  5
34E
330
1F
100
AcDbEntity
  8
0
  6
CONTINUOUS
 62
     7
100
AcDbLine
 10
309.0719192202
 20
97.7430225963
 30
0.0
 11
308.8774175534
 21
103.3128215897
 31
0.0
  0
LINE
  5
34F
330
1F
100
AcDbEntity
  8
0
  6
CONTINUOUS
 62
     7
100
AcDbLine
 10
288.0481076778
 20
97.7430225963
 30
0.0
 11
288.2426093446
 21
103.3128215897
 31
0.0
  0
ARC
  5
350
330
1F
100
AcDbEntity
  8
0
  6
CONTINUOUS
 62
     7
100
AcDbCircle
 10
290.2413909986
 20
103.2430225963
 30
0.0
 40
2.0
100
AcDbArc
 50
90.0
 51
178.0
  0
LINE
  5
351
330
1F
100
AcDbEntity
  8
0
  6
CONTINUOUS
 62
     7
100
AcDbLine
 10
290.2413909986
 20
105.2430225963
 30
0.0
 11
290.960013449
 21
105.2430225963
 31
0.0
  0
LINE
  5
352
330
1F
100
AcDbEntity
  8
0
  6
CONTINUOUS
 62
     7
100
AcDbLine
 10
288.0481076778
 20
97.7430225963
 30
0.0
 11
290.0554418667
 21
97.7430225963
 31
0.0
  0
LINE
  5
353
330
1F
100
AcDbEntity
  8
0
  6
CONTINUOUS
 62
     7
100
AcDbLine
 10
307.0645850312
 20
97.7430225963
 30
0.0
 11
309.0719192202
 21
97.7430225963
 31
0.0
  0
SPLINE
  5
354
330
1F
100
AcDbEntity
  8
0
  6
PHANTOM
 62
     8
100
AcDbSpline
210
0.0
220
0.0
230
1.0
 70
     8
 71
     3
 72
    20
 73
    16
 74
     0
 42
0.000000001
 43
0.00000001
 40
0.0
 40
0.0
 40
0.0
 40
0.0
 40
0.2499999999999998
 40
0.2499999999999998
 40
0.3749999999999998
 40
0.3749999999999998
 40
0.4999999999999999
 40
0.4999999999999999
 40
0.6249999999999999
 40
0.6249999999999999
 40
0.7499999999999999
 40
0.7499999999999999
 40
0.875
 40
0.875
 40
1.0
 40
1.0
 40
1.0
 40
1.0
 10
306.1377810919606
 20
105.8796740031629
 30
0.0
 10
306.1377001329209
 20
105.8819923667256
 30
0.0
 10
306.0561173727499
 20
105.901242885743
 30
0.0
 10
305.8270208292163
 20
105.9499791813655
 30
0.0
 10
305.7314211901125
 20
105.9697951986306
 30
0.0
 10
305.5095596632901
 20
106.014190427255
 30
0.0
 10
305.3840999973356
 20
106.0386206916913
 30
0.0
 10
305.1046995640693
 20
106.0910047075559
 30
0.0
 10
304.9492946497503
 20
106.1191966548998
 30
0.0
 10
304.6225676722519
 20
106.1759606210837
 30
0.0
 10
304.450054533378
 20
106.2047741825792
 30
0.0
 10
304.0864527298811
 20
106.2625950265553
 30
0.0
 10
303.8965339824375
 20
106.2913789956421
 30
0.0
 10
303.5139326195266
 20
106.3462795713561
 30
0.0
 10
303.3194109988499
 20
106.372695540215
 30
0.0
 10
303.1215096342317
 20
106.397960883292
 30
0.0
  0
LINE
  5
355
330
1F
100
AcDbEntity
  8
0
  6
PHANTOM
 62
     8
100
AcDbLine
 10
303.1505971453
 20
105.5650035481
 30
0.0
 11
303.1215096342
 21
106.3979608833
 31
0.0
  0
SPLINE
  5
356
330
1F
100
AcDbEntity
  8
0
  6
PHANTOM
 62
     8
100
AcDbSpline
210
0.0
220
0.0
230
1.0
 70
     8
 71
     3
 72
    20
 73
    16
 74
     0
 42
0.000000001
 43
0.00000001
 40
0.0
 40
0.0
 40
0.0
 40
0.0
 40
0.1250000000000006
 40
0.1250000000000006
 40
0.2500000000000011
 40
0.2500000000000011
 40
0.5000000000000027
 40
0.5000000000000027
 40
0.625000000000002
 40
0.625000000000002
 40
0.7500000000000013
 40
0.7500000000000013
 40
0.8750000000000007
 40
0.8750000000000007
 40
1.0
 40
1.0
 40
1.0
 40
1.0
 10
293.9985172637413
 20
106.397960883292
 30
0.0
 10
293.8007192693563
 20
106.3727087371144
 30
0.0
 10
293.6054588935252
 20
106.3461994809449
 30
0.0
 10
293.219893747236
 20
106.2908513353789
 30
0.0
 10
293.029949053387
 20
106.2620300806743
 30
0.0
 10
292.4885164938904
 20
106.1758953489396
 30
0.0
 10
292.1530056663789
 20
106.1168294175102
 30
0.0
 10
291.7349078831031
 20
106.0384237061606
 30
0.0
 10
291.6071620681964
 20
106.0135411645194
 30
0.0
 10
291.3859211164048
 20
105.9692455586191
 30
0.0
 10
291.2922616771244
 20
105.9498251742024
 30
0.0
 10
291.1390937047885
 20
105.9172326050277
 30
0.0
 10
291.0800564163129
 20
105.9041502742483
 30
0.0
 10
291.002167549696
 20
105.8860591397813
 30
0.0
 10
290.9822862629462
 20
105.8808325381633
 30
0.0
 10
290.9822458060124
 20
105.8796740031629
 30
0.0
  0
LINE
  5
357
330
1F
100
AcDbEntity
  8
0
  6
PHANTOM
 62
     8
100
AcDbLine
 10
293.9985172637
 20
106.3979608833
 30
0.0
 11
293.9694297526
 21
105.5650035481
 31
0.0
  0
ARC
  5
358
330
1F
100
AcDbEntity
  8
0
  6
PHANTOM
 62
     8
100
AcDbCircle
 10
324.4880829785
 20
103.0997522048
 30
0.0
 40
21.61963544934996
100
AcDbArc
 50
169.945441065
 51
171.2249107483
  0
ARC
  5
359
330
1F
100
AcDbEntity
  8
0
  6
PHANTOM
 62
     8
100
AcDbCircle
 10
272.6319439198
 20
103.0997522049
 30
0.0
 40
21.61963544899324
100
AcDbArc
 50
8.7750892516
 51
10.054558935
  0
ARC
  5
35A
330
1F
100
AcDbEntity
  8
0
  6
PHANTOM
 62
     8
100
AcDbCircle
 10
298.560013449
 20
77.8804723446
 30
0.0
 40
28.88000000000001
100
AcDbArc
 50
80.9122736716
 51
99.0877263284
  0
ARC
  5
35B
330
1F
100
AcDbEntity
  8
0
  6
PHANTOM
 62
     8
100
AcDbCircle
 10
306.7218864828
 20
98.2296449494
 30
0.0
 40
0.2850008912839319
100
AcDbArc
 50
266.7757862595
 51
355.0196407111
  0
LINE
  5
35C
330
1F
100
AcDbEntity
  8
0
  6
PHANTOM
 62
     8
100
AcDbLine
 10
306.7058570493
 20
98.2049028116
 30
0.0
 11
306.7058570493
 21
97.9450951905
 31
0.0
  0
LINE
  5
35D
330
1F
100
AcDbEntity
  8
0
  6
PHANTOM
 62
     8
100
AcDbLine
 10
307.0058113578
 20
98.2049028116
 30
0.0
 11
306.7058570493
 21
98.2049028116
 31
0.0
  0
LINE
  5
35E
330
1F
100
AcDbEntity
  8
0
  6
PHANTOM
 62
     8
100
AcDbLine
 10
307.0058113578
 20
102.7924672463
 30
0.0
 11
307.0058113578
 21
98.2049028116
 31
0.0
  0
LINE
  5
35F
330
1F
100
AcDbEntity
  8
0
  6
PHANTOM
 62
     8
100
AcDbLine
 10
306.7058570493
 20
98.2049028116
 30
0.0
 11
306.7058570493
 21
102.7924672463
 31
0.0
  0
LINE
  5
360
330
1F
100
AcDbEntity
  8
0
  6
PHANTOM
 62
     8
100
AcDbLine
 10
307.0058113578
 20
102.7924672463
 30
0.0
 11
306.7058570493
 21
102.7924672463
 31
0.0
  0
LINE
  5
361
330
1F
100
AcDbEntity
  8
0
  6
PHANTOM
 62
     8
100
AcDbLine
 10
306.7058570493
 20
103.0522748675
 30
0.0
 11
306.7058570493
 21
102.7924672463
 31
0.0
  0
ARC
  5
362
330
1F
100
AcDbEntity
  8
0
  6
PHANTOM
 62
     8
100
AcDbCircle
 10
306.7218864828
 20
102.7677251086
 30
0.0
 40
0.2850008912839178
100
AcDbArc
 50
4.9803592889
 51
93.2242137405
  0
LINE
  5
363
330
1F
100
AcDbEntity
  8
0
  6
PHANTOM
 62
     8
100
AcDbLine
 10
306.7058570493
 20
97.9450951905
 30
0.0
 11
290.4141698487
 21
97.9450951905
 31
0.0
  0
LINE
  5
364
330
1F
100
AcDbEntity
  8
0
  6
PHANTOM
 62
     8
100
AcDbLine
 10
290.4141698487
 20
97.9450951905
 30
0.0
 11
290.4141698487
 21
98.2049028116
 31
0.0
  0
LINE
  5
365
330
1F
100
AcDbEntity
  8
0
  6
PHANTOM
 62
     8
100
AcDbLine
 10
290.4141698487
 20
98.2049028116
 30
0.0
 11
306.7058570493
 21
98.2049028116
 31
0.0
  0
LINE
  5
366
330
1F
100
AcDbEntity
  8
0
  6
PHANTOM
 62
     8
100
AcDbLine
 10
306.7058570493
 20
102.7924672463
 30
0.0
 11
302.6173592458
 21
102.7924672463
 31
0.0
  0
LINE
  5
367
330
1F
100
AcDbEntity
  8
0
  6
PHANTOM
 62
     8
100
AcDbLine
 10
301.410013449
 20
102.7924672463
 30
0.0
 11
295.710013449
 21
102.7924672463
 31
0.0
  0
LINE
  5
368
330
1F
100
AcDbEntity
  8
0
  6
PHANTOM
 62
     8
100
AcDbLine
 10
294.5026676522
 20
102.7924672463
 30
0.0
 11
290.4141698487
 21
102.7924672463
 31
0.0
  0
LINE
  5
369
330
1F
100
AcDbEntity
  8
0
  6
PHANTOM
 62
     8
100
AcDbLine
 10
290.4141698487
 20
102.7924672463
 30
0.0
 11
290.4141698487
 21
103.0522748675
 31
0.0
  0
LINE
  5
36A
330
1F
100
AcDbEntity
  8
0
  6
PHANTOM
 62
     8
100
AcDbLine
 10
290.4141698487
 20
103.0522748675
 30
0.0
 11
294.460013449
 21
103.0522748675
 31
0.0
  0
LINE
  5
36B
330
1F
100
AcDbEntity
  8
0
  6
PHANTOM
 62
     8
100
AcDbLine
 10
295.710013449
 20
103.0522748675
 30
0.0
 11
301.410013449
 21
103.0522748675
 31
0.0
  0
LINE
  5
36C
330
1F
100
AcDbEntity
  8
0
  6
PHANTOM
 62
     8
100
AcDbLine
 10
302.660013449
 20
103.0522748675
 30
0.0
 11
306.7058570493
 21
103.0522748675
 31
0.0
  0
LINE
  5
36D
330
1F
100
AcDbEntity
  8
0
  6
PHANTOM
 62
     8
100
AcDbLine
 10
290.4141698487
 20
102.7924672463
 30
0.0
 11
290.4141698487
 21
98.2049028116
 31
0.0
  0
LINE
  5
36E
330
1F
100
AcDbEntity
  8
0
  6
PHANTOM
 62
     8
100
AcDbLine
 10
305.3298794002
 20
99.1732023366
 30
0.0
 11
305.2652042701
 21
99.2378774667
 31
0.0
  0
ARC
  5
36F
330
1F
100
AcDbEntity
  8
0
  6
PHANTOM
 62
     8
100
AcDbCircle
 10
305.2650972402
 20
99.5379388051
 30
0.0
 40
0.300061357486549
100
AcDbArc
 50
270.0204370164
 51
359.9795629836
  0
LINE
  5
370
330
1F
100
AcDbEntity
  8
0
  6
PHANTOM
 62
     8
100
AcDbLine
 10
305.5651585786
 20
99.5378317752
 30
0.0
 11
305.6298337087
 21
99.4731566451
 31
0.0
  0
LINE
  5
371
330
1F
100
AcDbEntity
  8
0
  6
PHANTOM
 62
     8
100
AcDbLine
 10
305.6298337087
 20
101.8128885475
 30
0.0
 11
305.5651585786
 21
101.7482134174
 31
0.0
  0
ARC
  5
372
330
1F
100
AcDbEntity
  8
0
  6
PHANTOM
 62
     8
100
AcDbCircle
 10
305.2650972402
 20
101.7481063875
 30
0.0
 40
0.3000613574865633
100
AcDbArc
 50
0.0204370164
 51
89.9795629836
  0
LINE
  5
373
330
1F
100
AcDbEntity
  8
0
  6
PHANTOM
 62
     8
100
AcDbLine
 10
305.2652042701
 20
102.0481677259
 30
0.0
 11
305.3298794002
 21
102.112842856
 31
0.0
  0
LINE
  5
374
330
1F
100
AcDbEntity
  8
0
  6
PHANTOM
 62
     8
100
AcDbLine
 10
305.5651585786
 20
101.7482134174
 30
0.0
 11
305.5651585786
 21
99.5378317752
 31
0.0
  0
LINE
  5
375
330
1F
100
AcDbEntity
  8
0
  6
PHANTOM
 62
     8
100
AcDbLine
 10
299.6048226279
 20
102.0481677259
 30
0.0
 11
301.410013449
 21
102.0481677259
 31
0.0
  0
LINE
  5
376
330
1F
100
AcDbEntity
  8
0
  6
PHANTOM
 62
     8
100
AcDbLine
 10
302.1277652746
 20
102.0481677259
 30
0.0
 11
305.2652042701
 21
102.0481677259
 31
0.0
  0
LINE
  5
377
330
1F
100
AcDbEntity
  8
0
  6
PHANTOM
 62
     8
100
AcDbLine
 10
299.5401474978
 20
102.112842856
 30
0.0
 11
299.6048226279
 21
102.0481677259
 31
0.0
  0
LINE
  5
378
330
1F
100
AcDbEntity
  8
0
  6
PHANTOM
 62
     8
100
AcDbLine
 10
299.6048226279
 20
99.2378774667
 30
0.0
 11
299.5401474978
 21
99.1732023366
 31
0.0
  0
LINE
  5
379
330
1F
100
AcDbEntity
  8
0
  6
PHANTOM
 62
     8
100
AcDbLine
 10
305.2652042701
 20
99.2378774667
 30
0.0
 11
299.6048226279
 21
99.2378774667
 31
0.0
  0
ARC
  5
37A
330
1F
100
AcDbEntity
  8
0
  6
PHANTOM
 62
     8
100
AcDbCircle
 10
299.6049296578
 20
101.7481063875
 30
0.0
 40
0.3000613574864922
100
AcDbArc
 50
90.0204370164
 51
179.9795629836
  0
LINE
  5
37B
330
1F
100
AcDbEntity
  8
0
  6
PHANTOM
 62
     8
100
AcDbLine
 10
299.3048683194
 20
101.7482134174
 30
0.0
 11
299.2401931893
 21
101.8128885475
 31
0.0
  0
LINE
  5
37C
330
1F
100
AcDbEntity
  8
0
  6
PHANTOM
 62
     8
100
AcDbLine
 10
299.2401931893
 20
99.4731566451
 30
0.0
 11
299.3048683194
 21
99.5378317752
 31
0.0
  0
ARC
  5
37D
330
1F
100
AcDbEntity
  8
0
  6
PHANTOM
 62
     8
100
AcDbCircle
 10
299.6049296578
 20
99.5379388051
 30
0.0
 40
0.3000613574865206
100
AcDbArc
 50
180.0204370164
 51
269.9795629836
  0
LINE
  5
37E
330
1F
100
AcDbEntity
  8
0
  6
PHANTOM
 62
     8
100
AcDbLine
 10
299.3048683194
 20
99.5378317752
 30
0.0
 11
299.3048683194
 21
101.7482134174
 31
0.0
  0
LINE
  5
37F
330
1F
100
AcDbEntity
  8
0
  6
PHANTOM
 62
     8
100
AcDbLine
 10
297.8798337087
 20
101.8128885475
 30
0.0
 11
297.8151585786
 21
101.7482134174
 31
0.0
  0
LINE
  5
380
330
1F
100
AcDbEntity
  8
0
  6
PHANTOM
 62
     8
100
AcDbLine
 10
297.8151585786
 20
99.5378317752
 30
0.0
 11
297.8798337087
 21
99.4731566451
 31
0.0
  0
LINE
  5
381
330
1F
100
AcDbEntity
  8
0
  6
PHANTOM
 62
     8
100
AcDbLine
 10
297.8151585786
 20
101.7482134174
 30
0.0
 11
297.8151585786
 21
99.5378317752
 31
0.0
  0
LINE
  5
382
330
1F
100
AcDbEntity
  8
0
  6
PHANTOM
 62
     8
100
AcDbLine
 10
297.5798794002
 20
99.1732023366
 30
0.0
 11
297.5152042701
 21
99.2378774667
 31
0.0
  0
ARC
  5
383
330
1F
100
AcDbEntity
  8
0
  6
PHANTOM
 62
     8
100
AcDbCircle
 10
297.5150972402
 20
99.5379388051
 30
0.0
 40
0.300061357486478
100
AcDbArc
 50
270.0204370164
 51
359.9795629836
  0
ARC
  5
384
330
1F
100
AcDbEntity
  8
0
  6
PHANTOM
 62
     8
100
AcDbCircle
 10
297.5150972402
 20
101.7481063875
 30
0.0
 40
0.3000613574864922
100
AcDbArc
 50
0.0204370164
 51
89.9795629836
  0
LINE
  5
385
330
1F
100
AcDbEntity
  8
0
  6
PHANTOM
 62
     8
100
AcDbLine
 10
297.5152042701
 20
102.0481677259
 30
0.0
 11
297.5798794002
 21
102.112842856
 31
0.0
  0
LINE
  5
386
330
1F
100
AcDbEntity
  8
0
  6
PHANTOM
 62
     8
100
AcDbLine
 10
291.8548226279
 20
102.0481677259
 30
0.0
 11
294.9922616234
 21
102.0481677259
 31
0.0
  0
LINE
  5
387
330
1F
100
AcDbEntity
  8
0
  6
PHANTOM
 62
     8
100
AcDbLine
 10
295.710013449
 20
102.0481677259
 30
0.0
 11
297.5152042701
 21
102.0481677259
 31
0.0
  0
LINE
  5
388
330
1F
100
AcDbEntity
  8
0
  6
PHANTOM
 62
     8
100
AcDbLine
 10
291.7901474978
 20
102.112842856
 30
0.0
 11
291.8548226279
 21
102.0481677259
 31
0.0
  0
LINE
  5
389
330
1F
100
AcDbEntity
  8
0
  6
PHANTOM
 62
     8
100
AcDbLine
 10
291.8548226279
 20
99.2378774667
 30
0.0
 11
291.7901474978
 21
99.1732023366
 31
0.0
  0
LINE
  5
38A
330
1F
100
AcDbEntity
  8
0
  6
PHANTOM
 62
     8
100
AcDbLine
 10
297.5152042701
 20
99.2378774667
 30
0.0
 11
291.8548226279
 21
99.2378774667
 31
0.0
  0
LINE
  5
38B
330
1F
100
AcDbEntity
  8
0
  6
PHANTOM
 62
     8
100
AcDbLine
 10
291.4901931893
 20
99.4731566451
 30
0.0
 11
291.5548683194
 21
99.5378317752
 31
0.0
  0
ARC
  5
38C
330
1F
100
AcDbEntity
  8
0
  6
PHANTOM
 62
     8
100
AcDbCircle
 10
291.8549296578
 20
99.5379388051
 30
0.0
 40
0.3000613574865206
100
AcDbArc
 50
180.0204370164
 51
269.9795629836
  0
LINE
  5
38D
330
1F
100
AcDbEntity
  8
0
  6
PHANTOM
 62
     8
100
AcDbLine
 10
291.5548683194
 20
101.7482134174
 30
0.0
 11
291.4901931893
 21
101.8128885475
 31
0.0
  0
ARC
  5
38E
330
1F
100
AcDbEntity
  8
0
  6
PHANTOM
 62
     8
100
AcDbCircle
 10
291.8549296578
 20
101.7481063875
 30
0.0
 40
0.3000613574865206
100
AcDbArc
 50
90.0204370164
 51
179.9795629836
  0
LINE
  5
38F
330
1F
100
AcDbEntity
  8
0
  6
PHANTOM
 62
     8
100
AcDbLine
 10
291.5548683194
 20
99.5378317752
 30
0.0
 11
291.5548683194
 21
101.7482134174
 31
0.0
  0
ARC
  5
390
330
1F
100
AcDbEntity
  8
0
  6
PHANTOM
 62
     8
100
AcDbCircle
 10
290.3981404151
 20
98.2296449494
 30
0.0
 40
0.2850008912840656
100
AcDbArc
 50
184.9803592889
 51
273.2242137405
  0
LINE
  5
391
330
1F
100
AcDbEntity
  8
0
  6
PHANTOM
 62
     8
100
AcDbLine
 10
290.4141698487
 20
98.2049028116
 30
0.0
 11
290.1142155401
 21
98.2049028116
 31
0.0
  0
LINE
  5
392
330
1F
100
AcDbEntity
  8
0
  6
PHANTOM
 62
     8
100
AcDbLine
 10
290.1142155401
 20
98.2049028116
 30
0.0
 11
290.1142155401
 21
102.7924672463
 31
0.0
  0
LINE
  5
393
330
1F
100
AcDbEntity
  8
0
  6
PHANTOM
 62
     8
100
AcDbLine
 10
290.4141698487
 20
102.7924672463
 30
0.0
 11
290.1142155401
 21
102.7924672463
 31
0.0
  0
ARC
  5
394
330
1F
100
AcDbEntity
  8
0
  6
PHANTOM
 62
     8
100
AcDbCircle
 10
290.3981404151
 20
102.7677251086
 30
0.0
 40
0.2850008912840053
100
AcDbArc
 50
86.7757862595
 51
175.0196407111
  0
LINE
  5
395
330
1F
100
AcDbEntity
  8
0
  6
PHANTOM
 62
     8
100
AcDbLine
 10
307.0181693301
 20
103.2012241689
 30
0.0
 11
307.0058113578
 21
102.7924672463
 31
0.0
  0
LINE
  5
396
330
1F
100
AcDbEntity
  8
0
  6
PHANTOM
 62
     8
100
AcDbLine
 10
306.7058570493
 20
103.0522748675
 30
0.0
 11
306.7182150216
 21
103.46103179
 31
0.0
  0
ARC
  5
397
330
1F
100
AcDbEntity
  8
0
  6
PHANTOM
 62
     8
100
AcDbCircle
 10
306.7342444551
 20
103.1764820311
 30
0.0
 40
0.2850008912838231
100
AcDbArc
 50
4.9803592889
 51
93.2242137405
  0
LINE
  5
398
330
1F
100
AcDbEntity
  8
0
  6
PHANTOM
 62
     8
100
AcDbLine
 10
306.7107511834
 20
97.7832149752
 30
0.0
 11
306.7058570493
 21
97.9450951905
 31
0.0
  0
LINE
  5
399
330
1F
100
AcDbEntity
  8
0
  6
PHANTOM
 62
     8
100
AcDbLine
 10
290.4141698487
 20
97.9450951905
 30
0.0
 11
290.4092757145
 21
97.7832149752
 31
0.0
  0
LINE
  5
39A
330
1F
100
AcDbEntity
  8
0
  6
PHANTOM
 62
     8
100
AcDbLine
 10
290.4018118764
 20
103.46103179
 30
0.0
 11
290.4141698487
 21
103.0522748675
 31
0.0
  0
ARC
  5
39B
330
1F
100
AcDbEntity
  8
0
  6
PHANTOM
 62
     8
100
AcDbCircle
 10
290.3857824429
 20
103.1764820311
 30
0.0
 40
0.285000891283764
100
AcDbArc
 50
86.7757862595
 51
175.0196407111
  0
LINE
  5
39C
330
1F
100
AcDbEntity
  8
0
  6
PHANTOM
 62
     8
100
AcDbLine
 10
290.4092757145
 20
97.7832149752
 30
0.0
 11
306.7107511834
 21
97.7832149752
 31
0.0
  0
LINE
  5
39D
330
1F
100
AcDbEntity
  8
0
  6
PHANTOM
 62
     8
100
AcDbLine
 10
306.7182150216
 20
103.46103179
 30
0.0
 11
302.660013449
 21
103.46103179
 31
0.0
  0
LINE
  5
39E
330
1F
100
AcDbEntity
  8
0
  6
PHANTOM
 62
     8
100
AcDbLine
 10
301.410013449
 20
103.46103179
 30
0.0
 11
295.710013449
 21
103.46103179
 31
0.0
  0
LINE
  5
39F
330
1F
100
AcDbEntity
  8
0
  6
PHANTOM
 62
     8
100
AcDbLine
 10
294.460013449
 20
103.46103179
 30
0.0
 11
290.4018118764
 21
103.46103179
 31
0.0
  0
LINE
  5
3A0
330
1F
100
AcDbEntity
  8
0
  6
PHANTOM
 62
     8
100
AcDbLine
 10
307.0612317671
 20
103.2442866059
 30
0.0
 11
307.0181693301
 21
103.2012241689
 31
0.0
  0
LINE
  5
3A1
330
1F
100
AcDbEntity
  8
0
  6
PHANTOM
 62
     8
100
AcDbLine
 10
290.1018575678
 20
103.2012241689
 30
0.0
 11
290.0587951309
 21
103.2442866059
 31
0.0
  0
LINE
  5
3A2
330
1F
100
AcDbEntity
  8
0
  6
PHANTOM
 62
     8
100
AcDbLine
 10
306.7182150216
 20
103.5011784774
 30
0.0
 11
306.7182150216
 21
103.46103179
 31
0.0
  0
ARC
  5
3A3
330
1F
100
AcDbEntity
  8
0
  6
PHANTOM
 62
     8
100
AcDbCircle
 10
306.7181079917
 20
103.201117139
 30
0.0
 40
0.3000613574865206
100
AcDbArc
 50
0.0204370164
 51
89.9795629836
  0
ARC
  5
3A4
330
1F
100
AcDbEntity
  8
0
  6
PHANTOM
 62
     8
100
AcDbCircle
 10
290.4019189062
 20
103.201117139
 30
0.0
 40
0.3000613574865206
100
AcDbArc
 50
90.0204370164
 51
179.9795629836
  0
LINE
  5
3A5
330
1F
100
AcDbEntity
  8
0
  6
PHANTOM
 62
     8
100
AcDbLine
 10
290.4018118764
 20
103.46103179
 30
0.0
 11
290.4018118764
 21
103.5011784774
 31
0.0
  0
LINE
  5
3A6
330
1F
100
AcDbEntity
  8
0
  6
PHANTOM
 62
     8
100
AcDbLine
 10
290.4018118764
 20
103.5011784774
 30
0.0
 11
294.460013449
 21
103.5011784774
 31
0.0
  0
LINE
  5
3A7
330
1F
100
AcDbEntity
  8
0
  6
PHANTOM
 62
     8
100
AcDbLine
 10
295.710013449
 20
103.5011784774
 30
0.0
 11
301.410013449
 21
103.5011784774
 31
0.0
  0
LINE
  5
3A8
330
1F
100
AcDbEntity
  8
0
  6
PHANTOM
 62
     8
100
AcDbLine
 10
302.660013449
 20
103.5011784774
 30
0.0
 11
306.7182150216
 21
103.5011784774
 31
0.0
  0
LINE
  5
3A9
330
1F
100
AcDbEntity
  8
0
  6
PHANTOM
 62
     8
100
AcDbLine
 10
306.7182150216
 20
103.5011784774
 30
0.0
 11
306.7610947345
 21
103.5440581904
 31
0.0
  0
LINE
  5
3AA
330
1F
100
AcDbEntity
  8
0
  6
PHANTOM
 62
     8
100
AcDbLine
 10
290.3589321635
 20
103.5440581904
 30
0.0
 11
290.4018118764
 21
103.5011784774
 31
0.0
  0
LINE
  5
3AB
330
1F
100
AcDbEntity
  8
0
  6
PHANTOM
 62
     8
100
AcDbLine
 10
305.5651585786
 20
101.7482134174
 30
0.0
 11
305.2652042701
 21
101.7482134174
 31
0.0
  0
LINE
  5
3AC
330
1F
100
AcDbEntity
  8
0
  6
PHANTOM
 62
     8
100
AcDbLine
 10
305.2652042701
 20
102.0481677259
 30
0.0
 11
305.2652042701
 21
101.7482134174
 31
0.0
  0
LINE
  5
3AD
330
1F
100
AcDbEntity
  8
0
  6
PHANTOM
 62
     8
100
AcDbLine
 10
305.5651585786
 20
99.5378317752
 30
0.0
 11
305.2652042701
 21
99.5378317752
 31
0.0
  0
LINE
  5
3AE
330
1F
100
AcDbEntity
  8
0
  6
PHANTOM
 62
     8
100
AcDbLine
 10
305.2652042701
 20
99.5378317752
 30
0.0
 11
305.2652042701
 21
101.7482134174
 31
0.0
  0
LINE
  5
3AF
330
1F
100
AcDbEntity
  8
0
  6
PHANTOM
 62
     8
100
AcDbLine
 10
305.2652042701
 20
99.2378774667
 30
0.0
 11
305.2652042701
 21
99.5378317752
 31
0.0
  0
LINE
  5
3B0
330
1F
100
AcDbEntity
  8
0
  6
PHANTOM
 62
     8
100
AcDbLine
 10
305.2652042701
 20
101.7482134174
 30
0.0
 11
301.9137176233
 21
101.7482134174
 31
0.0
  0
LINE
  5
3B1
330
1F
100
AcDbEntity
  8
0
  6
PHANTOM
 62
     8
100
AcDbLine
 10
301.410013449
 20
101.7482134174
 30
0.0
 11
299.6048226279
 21
101.7482134174
 31
0.0
  0
LINE
  5
3B2
330
1F
100
AcDbEntity
  8
0
  6
PHANTOM
 62
     8
100
AcDbLine
 10
299.6048226279
 20
101.7482134174
 30
0.0
 11
299.6048226279
 21
102.0481677259
 31
0.0
  0
LINE
  5
3B3
330
1F
100
AcDbEntity
  8
0
  6
PHANTOM
 62
     8
100
AcDbLine
 10
299.6048226279
 20
99.5378317752
 30
0.0
 11
299.6048226279
 21
99.2378774667
 31
0.0
  0
LINE
  5
3B4
330
1F
100
AcDbEntity
  8
0
  6
PHANTOM
 62
     8
100
AcDbLine
 10
299.6048226279
 20
99.5378317752
 30
0.0
 11
305.2652042701
 21
99.5378317752
 31
0.0
  0
LINE
  5
3B5
330
1F
100
AcDbEntity
  8
0
  6
PHANTOM
 62
     8
100
AcDbLine
 10
299.6048226279
 20
99.5378317752
 30
0.0
 11
299.3048683194
 21
99.5378317752
 31
0.0
  0
LINE
  5
3B6
330
1F
100
AcDbEntity
  8
0
  6
PHANTOM
 62
     8
100
AcDbLine
 10
299.6048226279
 20
101.7482134174
 30
0.0
 11
299.3048683194
 21
101.7482134174
 31
0.0
  0
LINE
  5
3B7
330
1F
100
AcDbEntity
  8
0
  6
PHANTOM
 62
     8
100
AcDbLine
 10
299.6048226279
 20
101.7482134174
 30
0.0
 11
299.6048226279
 21
99.5378317752
 31
0.0
  0
LINE
  5
3B8
330
1F
100
AcDbEntity
  8
0
  6
PHANTOM
 62
     8
100
AcDbLine
 10
297.5152042701
 20
99.5378317752
 30
0.0
 11
297.5152042701
 21
99.2378774667
 31
0.0
  0
LINE
  5
3B9
330
1F
100
AcDbEntity
  8
0
  6
PHANTOM
 62
     8
100
AcDbLine
 10
297.8151585786
 20
99.5378317752
 30
0.0
 11
297.5152042701
 21
99.5378317752
 31
0.0
  0
LINE
  5
3BA
330
1F
100
AcDbEntity
  8
0
  6
PHANTOM
 62
     8
100
AcDbLine
 10
297.8151585786
 20
101.7482134174
 30
0.0
 11
297.5152042701
 21
101.7482134174
 31
0.0
  0
LINE
  5
3BB
330
1F
100
AcDbEntity
  8
0
  6
PHANTOM
 62
     8
100
AcDbLine
 10
297.5152042701
 20
102.0481677259
 30
0.0
 11
297.5152042701
 21
101.7482134174
 31
0.0
  0
LINE
  5
3BC
330
1F
100
AcDbEntity
  8
0
  6
PHANTOM
 62
     8
100
AcDbLine
 10
297.5152042701
 20
99.5378317752
 30
0.0
 11
297.5152042701
 21
101.7482134174
 31
0.0
  0
LINE
  5
3BD
330
1F
100
AcDbEntity
  8
0
  6
PHANTOM
 62
     8
100
AcDbLine
 10
291.8548226279
 20
99.5378317752
 30
0.0
 11
297.5152042701
 21
99.5378317752
 31
0.0
  0
LINE
  5
3BE
330
1F
100
AcDbEntity
  8
0
  6
PHANTOM
 62
     8
100
AcDbLine
 10
291.8548226279
 20
99.5378317752
 30
0.0
 11
291.8548226279
 21
99.2378774667
 31
0.0
  0
LINE
  5
3BF
330
1F
100
AcDbEntity
  8
0
  6
PHANTOM
 62
     8
100
AcDbLine
 10
297.5152042701
 20
101.7482134174
 30
0.0
 11
295.710013449
 21
101.7482134174
 31
0.0
  0
LINE
  5
3C0
330
1F
100
AcDbEntity
  8
0
  6
PHANTOM
 62
     8
100
AcDbLine
 10
295.2063092746
 20
101.7482134174
 30
0.0
 11
291.8548226279
 21
101.7482134174
 31
0.0
  0
LINE
  5
3C1
330
1F
100
AcDbEntity
  8
0
  6
PHANTOM
 62
     8
100
AcDbLine
 10
291.8548226279
 20
102.0481677259
 30
0.0
 11
291.8548226279
 21
101.7482134174
 31
0.0
  0
LINE
  5
3C2
330
1F
100
AcDbEntity
  8
0
  6
PHANTOM
 62
     8
100
AcDbLine
 10
291.8548226279
 20
101.7482134174
 30
0.0
 11
291.8548226279
 21
99.5378317752
 31
0.0
  0
LINE
  5
3C3
330
1F
100
AcDbEntity
  8
0
  6
PHANTOM
 62
     8
100
AcDbLine
 10
291.8548226279
 20
99.5378317752
 30
0.0
 11
291.5548683194
 21
99.5378317752
 31
0.0
  0
LINE
  5
3C4
330
1F
100
AcDbEntity
  8
0
  6
PHANTOM
 62
     8
100
AcDbLine
 10
291.8548226279
 20
101.7482134174
 30
0.0
 11
291.5548683194
 21
101.7482134174
 31
0.0
  0
ENDSEC
  0
SECTION
  2
OBJECTS
  0
DICTIONARY
  5
C
330
0
100
AcDbDictionary
  3
ACAD_GROUP
350
D
  3
ACAD_MLINESTYLE
350
17
  3
ACAD_SCALELIST
350
47
  0
DICTIONARY
  5
D
102
{ACAD_REACTORS
330
C
102
}
330
C
100
AcDbDictionary
  0
DICTIONARY
  5
17
102
{ACAD_REACTORS
330
C
102
}
330
C
100
AcDbDictionary
  3
STANDARD
350
18
  0
DICTIONARY
  5
47
102
{ACAD_REACTORS
330
C
102
}
330
C
100
AcDbDictionary
  0
MLINESTYLE
  5
18
102
{ACAD_REACTORS
330
17
102
}
330
17
100
AcDbMlineStyle
  2
Standard
 70
     0
  3

 62
   256
 51
90.0
 52
90.0
 71
     2
 49
0.5
 62
   256
  6
BYLAYER
 49
-0.5
 62
   256
  6
BYLAYER
  0
ENDSEC
  0
EOF
