  0
SECTION
  2
HEADER
  9
$ACADVER
  1
AC1014
  9
$ACADMAINTVER
 70
     9
  9
$DWGCODEPAGE
  3
DOS932
  9
$INSBASE
 10
0.0
 20
0.0
 30
0.0
  9
$EXTMIN
 10
0.0
 20
0.0
 30
0.0
  9
$EXTMAX
 10
1189.0
 20
841.0
 30
0.0
  9
$LIMMIN
 10
0.0
 20
0.0
  9
$LIMMAX
 10
1189.0
 20
841.0
  9
$ORTHOMODE
 70
     0
  9
$REGENMODE
 70
     1
  9
$FILLMODE
 70
     1
  9
$QTEXTMODE
 70
     0
  9
$MIRRTEXT
 70
     1
  9
$DRAGMODE
 70
     2
  9
$LTSCALE
 40
1.0
  9
$OSMODE
 70
    37
  9
$ATTMODE
 70
     1
  9
$TEXTSIZE
 40
4.0
  9
$TRACEWID
 40
1.0
  9
$TEXTSTYLE
  7
STANDARD
  9
$CLAYER
  8
0
  9
$CELTYPE
  6
BYLAYER
  9
$CECOLOR
 62
   256
  9
$CELTSCALE
 40
1.0
  9
$DELOBJ
 70
     1
  9
$DISPSILH
 70
     0
  9
$DIMSCALE
 40
1.0
  9
$DIMASZ
 40
3.0
  9
$DIMEXO
 40
0.0
  9
$DIMDLI
 40
3.75
  9
$DIMRND
 40
0.0
  9
$DIMDLE
 40
0.0
  9
$DIMEXE
 40
1.0
  9
$DIMTP
 40
0.0
  9
$DIMTM
 40
0.0
  9
$DIMTXT
 40
4.0
  9
$DIMCEN
 40
2.5
  9
$DIMTSZ
 40
0.0
  9
$DIMTOL
 70
     0
  9
$DIMLIM
 70
     0
  9
$DIMTIH
 70
     1
  9
$DIMTOH
 70
     1
  9
$DIMSE1
 70
     0
  9
$DIMSE2
 70
     0
  9
$DIMTAD
 70
     1
  9
$DIMZIN
 70
     0
  9
$DIMBLK
  1

  9
$DIMASO
 70
     1
  9
$DIMSHO
 70
     1
  9
$DIMPOST
  1

  9
$DIMAPOST
  1

  9
$DIMALT
 70
     0
  9
$DIMALTD
 70
     3
  9
$DIMALTF
 40
0.0393700787
  9
$DIMLFAC
 40
1.0
  9
$DIMTOFL
 70
     1
  9
$DIMTVP
 40
0.0
  9
$DIMTIX
 70
     0
  9
$DIMSOXD
 70
     0
  9
$DIMSAH
 70
     0
  9
$DIMBLK1
  1

  9
$DIMBLK2
  1

  9
$DIMSTYLE
  2
ISO-25
  9
$DIMCLRD
 70
     0
  9
$DIMCLRE
 70
     0
  9
$DIMCLRT
 70
     0
  9
$DIMTFAC
 40
1.0
  9
$DIMGAP
 40
1.0
  9
$DIMJUST
 70
     0
  9
$DIMSD1
 70
     0
  9
$DIMSD2
 70
     0
  9
$DIMTOLJ
 70
     0
  9
$DIMTZIN
 70
     0
  9
$DIMALTZ
 70
     0
  9
$DIMALTTZ
 70
     0
  9
$DIMFIT
 70
     3
  9
$DIMUPT
 70
     0
  9
$DIMUNIT
 70
     2
  9
$DIMDEC
 70
     2
  9
$DIMTDEC
 70
     2
  9
$DIMALTU
 70
     2
  9
$DIMALTTD
 70
     3
  9
$DIMTXSTY
  7
STANDARD
  9
$DIMAUNIT
 70
     0
  9
$LUNITS
 70
     2
  9
$LUPREC
 70
     2
  9
$SKETCHINC
 40
1.0
  9
$FILLETRAD
 40
10.0
  9
$AUNITS
 70
     0
  9
$AUPREC
 70
     2
  9
$MENU
  1
.
  9
$ELEVATION
 40
0.0
  9
$PELEVATION
 40
0.0
  9
$THICKNESS
 40
0.0
  9
$LIMCHECK
 70
     0
  9
$CHAMFERA
 40
10.0
  9
$CHAMFERB
 40
10.0
  9
$CHAMFERC
 40
20.0
  9
$CHAMFERD
 40
0.0
  9
$SKPOLY
 70
     0
  9
$TDCREATE
 40
2457016.470768912
  9
$TDUPDATE
 40
2457016.470769421
  9
$TDINDWG
 40
0.0000000116
  9
$TDUSRTIMER
 40
0.0000000116
  9
$USRTIMER
 70
     1
  9
$ANGBASE
 50
0.0
  9
$ANGDIR
 70
     0
  9
$PDMODE
 70
     0
  9
$PDSIZE
 40
-1.0
  9
$PLINEWID
 40
0.0
  9
$COORDS
 70
     1
  9
$SPLFRAME
 70
     0
  9
$SPLINETYPE
 70
     6
  9
$SPLINESEGS
 70
     8
  9
$ATTDIA
 70
     0
  9
$ATTREQ
 70
     1
  9
$HANDLING
 70
     1
  9
$HANDSEED
  5
29A
  9
$SURFTAB1
 70
     6
  9
$SURFTAB2
 70
     6
  9
$SURFTYPE
 70
     6
  9
$SURFU
 70
     6
  9
$SURFV
 70
     6
  9
$UCSNAME
  2

  9
$UCSORG
 10
0.0
 20
0.0
 30
0.0
  9
$UCSXDIR
 10
1.0
 20
0.0
 30
0.0
  9
$UCSYDIR
 10
0.0
 20
1.0
 30
0.0
  9
$PUCSNAME
  2

  9
$PUCSORG
 10
0.0
 20
0.0
 30
0.0
  9
$PUCSXDIR
 10
1.0
 20
0.0
 30
0.0
  9
$PUCSYDIR
 10
0.0
 20
1.0
 30
0.0
  9
$USERI1
 70
     0
  9
$USERI2
 70
     0
  9
$USERI3
 70
     0
  9
$USERI4
 70
     0
  9
$USERI5
 70
     0
  9
$USERR1
 40
0.0
  9
$USERR2
 40
0.0
  9
$USERR3
 40
0.0
  9
$USERR4
 40
0.0
  9
$USERR5
 40
0.0
  9
$WORLDVIEW
 70
     1
  9
$SHADEDGE
 70
     3
  9
$SHADEDIF
 70
    70
  9
$TILEMODE
 70
     1
  9
$MAXACTVP
 70
    64
  9
$PINSBASE
 10
0.0
 20
0.0
 30
0.0
  9
$PLIMCHECK
 70
     0
  9
$PEXTMIN
 10
1.0000000000E+20
 20
1.0000000000E+20
 30
1.0000000000E+20
  9
$PEXTMAX
 10
-1.0000000000E+20
 20
-1.0000000000E+20
 30
-1.0000000000E+20
  9
$PLIMMIN
 10
0.0
 20
0.0
  9
$PLIMMAX
 10
420.0
 20
297.0
  9
$UNITMODE
 70
     0
  9
$VISRETAIN
 70
     1
  9
$PLINEGEN
 70
     0
  9
$PSLTSCALE
 70
     1
  9
$TREEDEPTH
 70
  3020
  9
$PICKSTYLE
 70
     1
  9
$CMLSTYLE
  2
STANDARD
  9
$CMLJUST
 70
     0
  9
$CMLSCALE
 40
20.0
  9
$PROXYGRAPHICS
 70
     1
  9
$MEASUREMENT
 70
     1
  0
ENDSEC
  0
SECTION
  2
CLASSES
  0
CLASS
  1
ACDBDICTIONARYWDFLT
  2
AcDbDictionaryWithDefault
  3
ObjectDBX Classes
 90
        0
280
     0
281
     0
  0
CLASS
  1
VISUALSTYLE
  2
AcDbVisualStyle
  3
ObjectDBX Classes
 90
     4095
280
     0
281
     0
  0
CLASS
  1
MATERIAL
  2
AcDbMaterial
  3
ObjectDBX Classes
 90
     1153
280
     0
281
     0
  0
CLASS
  1
XRECORD
  2
AcDbXrecord
  3
AutoCAD 2000
 90
        0
280
     0
281
     0
  0
CLASS
  1
LWPOLYLINE
  2
AcDbPolyline
  3
AutoCAD 2000
 90
        0
280
     0
281
     1
  0
CLASS
  1
HATCH
  2
AcDbHatch
  3
AutoCAD 2000
 90
        0
280
     0
281
     1
  0
ENDSEC
  0
SECTION
  2
TABLES
  0
TABLE
  2
VPORT
  5
8
330
0
100
AcDbSymbolTable
 70
     1
  0
VPORT
  5
29
330
8
100
AcDbSymbolTableRecord
100
AcDbViewportTableRecord
  2
*ACTIVE
 70
     0
 10
0.0
 20
0.0
 11
1.0
 21
1.0
 12
594.5
 22
420.5
 13
0.0
 23
0.0
 14
10.0
 24
10.0
 15
10.0
 25
10.0
 16
0.0
 26
0.0
 36
1.0
 17
0.0
 27
0.0
 37
0.0
 40
841.0
 41
1.4137931034
 42
50.0
 43
0.0
 44
0.0
 50
0.0
 51
0.0
 71
     0
 72
  2000
 73
     1
 74
     3
 75
     0
 76
     0
 77
     0
 78
     0
  0
ENDTAB
  0
TABLE
  2
LTYPE
  5
5
330
0
100
AcDbSymbolTable
 70
     6
  0
LTYPE
  5
14
330
5
100
AcDbSymbolTableRecord
100
AcDbLinetypeTableRecord
  2
BYBLOCK
 70
     0
  3

 72
    65
 73
     0
 40
0.0
  0
LTYPE
  5
15
330
5
100
AcDbSymbolTableRecord
100
AcDbLinetypeTableRecord
  2
BYLAYER
 70
     0
  3

 72
    65
 73
     0
 40
0.0
  0
LTYPE
  5
16
330
5
100
AcDbSymbolTableRecord
100
AcDbLinetypeTableRecord
  2
CONTINUOUS
 70
     0
  3
Solid line
 72
    65
 73
     0
 40
0.0
  0
LTYPE
  5
3F
330
5
100
AcDbSymbolTableRecord
100
AcDbLinetypeTableRecord
  2
HIDDEN
 70
     0
  3
Hidden __ __ __ __ __ __ __ __ __ __ __ __ __ __
 72
    65
 73
     2
 40
1.905
 49
1.27
 74
     0
 49
-0.635
 74
     0
  0
LTYPE
  5
40
330
5
100
AcDbSymbolTableRecord
100
AcDbLinetypeTableRecord
  2
PHANTOM
 70
     0
  3
Phantom ______  __  __  ______  __  __  ______
 72
    65
 73
     6
 40
12.7
 49
6.35
 74
     0
 49
-1.27
 74
     0
 49
1.27
 74
     0
 49
-1.27
 74
     0
 49
1.27
 74
     0
 49
-1.27
 74
     0
  0
LTYPE
  5
41
330
5
100
AcDbSymbolTableRecord
100
AcDbLinetypeTableRecord
  2
CENTER
 70
     0
  3
Center ____ _ ____ _ ____ _ ____ _ ____ _ ____
 72
    65
 73
     4
 40
10.16
 49
6.35
 74
     0
 49
-1.27
 74
     0
 49
1.27
 74
     0
 49
-1.27
 74
     0
  0
LTYPE
  5
42
330
5
100
AcDbSymbolTableRecord
100
AcDbLinetypeTableRecord
  2
CENTERX2
 70
     0
  3
Center (2x) ________  __  ________  __  _____
 72
    65
 73
     4
 40
20.32
 49
12.7
 74
     0
 49
-2.54
 74
     0
 49
2.54
 74
     0
 49
-2.54
 74
     0
  0
LTYPE
  5
43
330
5
100
AcDbSymbolTableRecord
100
AcDbLinetypeTableRecord
  2
DOT2
 70
     0
  3
Dot (.5x) ........................................
 72
    65
 73
     2
 40
0.635
 49
0.0
 74
     0
 49
-0.635
 74
     0
  0
ENDTAB
  0
TABLE
  2
LAYER
  5
2
330
0
100
AcDbSymbolTable
 70
     6
  0
LAYER
  5
10
330
2
100
AcDbSymbolTableRecord
100
AcDbLayerTableRecord
  2
0
 70
     0
 62
     7
  6
CONTINUOUS
  0
LAYER
  5
44
330
2
100
AcDbSymbolTableRecord
100
AcDbLayerTableRecord
  2
SLD-0
 70
     0
 62
     7
  6
CONTINUOUS
  0
LAYER
  5
45
330
2
100
AcDbSymbolTableRecord
100
AcDbLayerTableRecord
  2
8
 70
     0
 62
     7
  6
CONTINUOUS
  0
LAYER
  5
46
330
2
100
AcDbSymbolTableRecord
100
AcDbLayerTableRecord
  2
9
 70
     0
 62
     7
  6
CONTINUOUS
  0
LAYER
  5
47
330
2
100
AcDbSymbolTableRecord
100
AcDbLayerTableRecord
  2
10
 70
     0
 62
     1
  6
CONTINUOUS
  0
LAYER
  5
48
330
2
100
AcDbSymbolTableRecord
100
AcDbLayerTableRecord
  2
11
 70
     0
 62
     7
  6
CONTINUOUS
  0
ENDTAB
  0
TABLE
  2
STYLE
  5
3
330
0
100
AcDbSymbolTable
 70
     2
  0
STYLE
  5
11
330
3
100
AcDbSymbolTableRecord
100
AcDbTextStyleTableRecord
  2
STANDARD
 70
     0
 40
0.0
 41
1.0
 50
0.0
 71
     0
 42
4.0
  3
MSGOTHIC.TTC
  4

1001
ACAD
1000
ＭＳ ゴシック
1071
    32817
  0
STYLE
  5
53
330
3
100
AcDbSymbolTableRecord
100
AcDbTextStyleTableRecord
  2
SLDTEXTSTYLE0
 70
     0
 40
0.0
 41
1.0
 50
0.0
 71
     0
 42
0.2
  3
MSGOTHIC.TTC
  4

1001
ACAD
1000
ＭＳ ゴシック
1071
      305
  0
ENDTAB
  0
TABLE
  2
VIEW
  5
6
330
0
100
AcDbSymbolTable
 70
     0
  0
ENDTAB
  0
TABLE
  2
UCS
  5
7
330
0
100
AcDbSymbolTable
 70
     0
  0
ENDTAB
  0
TABLE
  2
APPID
  5
9
330
0
100
AcDbSymbolTable
 70
     1
  0
APPID
  5
12
330
9
100
AcDbSymbolTableRecord
100
AcDbRegAppTableRecord
  2
ACAD
 70
     0
  0
ENDTAB
  0
TABLE
  2
DIMSTYLE
  5
A
330
0
100
AcDbSymbolTable
 70
     1
  0
DIMSTYLE
105
27
330
A
100
AcDbSymbolTableRecord
100
AcDbDimStyleTableRecord
  2
ISO-25
 70
     0
  3

  4

  5

  6

  7

 40
1.0
 41
2.5
 42
0.625
 43
3.75
 44
1.25
 45
0.0
 46
0.0
 47
0.0
 48
0.0
140
2.5
141
2.5
142
0.0
143
0.0393700787
144
1.0
145
0.0
146
1.0
147
0.625
 71
     0
 72
     0
 73
     0
 74
     0
 75
     0
 76
     0
 77
     1
 78
     8
170
     0
171
     3
172
     1
173
     0
174
     0
175
     0
176
     0
177
     0
178
     0
270
     2
271
     2
272
     2
273
     2
274
     3
340
11
275
     0
280
     0
281
     0
282
     0
283
     0
284
     8
285
     0
286
     0
287
     3
288
     0
  0
ENDTAB
  0
TABLE
  2
BLOCK_RECORD
  5
1
330
0
100
AcDbSymbolTable
 70
     4
  0
BLOCK_RECORD
  5
1F
330
1
100
AcDbSymbolTableRecord
100
AcDbBlockTableRecord
  2
*MODEL_SPACE
  0
BLOCK_RECORD
  5
1B
330
1
100
AcDbSymbolTableRecord
100
AcDbBlockTableRecord
  2
*PAPER_SPACE
  0
BLOCK_RECORD
  5
23
330
1
100
AcDbSymbolTableRecord
100
AcDbBlockTableRecord
  2
*PAPER_SPACE0
  0
BLOCK_RECORD
  5
49
330
1
100
AcDbSymbolTableRecord
100
AcDbBlockTableRecord
  2
ﾌﾞﾛｯｸ2
  0
BLOCK_RECORD
  5
5B
330
1
100
AcDbSymbolTableRecord
100
AcDbBlockTableRecord
  2
新SUGATSUNEロゴ
  0
BLOCK_RECORD
  5
139
330
1
100
AcDbSymbolTableRecord
100
AcDbBlockTableRecord
  2
ﾌﾞﾛｯｸ1
  0
ENDTAB
  0
ENDSEC
  0
SECTION
  2
BLOCKS
  0
BLOCK
  5
20
330
1F
100
AcDbEntity
  8
0
100
AcDbBlockBegin
  2
*MODEL_SPACE
 70
     0
 10
0.0
 20
0.0
 30
0.0
  3
*MODEL_SPACE
  1

  0
ENDBLK
  5
21
330
1F
100
AcDbEntity
  8
0
100
AcDbBlockEnd
  0
BLOCK
  5
1C
330
1B
100
AcDbEntity
 67
     1
  8
0
100
AcDbBlockBegin
  2
*PAPER_SPACE
 70
     0
 10
0.0
 20
0.0
 30
0.0
  3
*PAPER_SPACE
  1

  0
ENDBLK
  5
1D
330
1B
100
AcDbEntity
 67
     1
  8
0
100
AcDbBlockEnd
  0
BLOCK
  5
24
330
23
100
AcDbEntity
  8
0
100
AcDbBlockBegin
  2
*PAPER_SPACE0
 70
     0
 10
0.0
 20
0.0
 30
0.0
  3
*PAPER_SPACE0
  1

  0
ENDBLK
  5
25
330
23
100
AcDbEntity
  8
0
100
AcDbBlockEnd
  0
BLOCK
  5
4A
330
49
100
AcDbEntity
  8
0
100
AcDbBlockBegin
  2
ﾌﾞﾛｯｸ2
 70
     2
 10
0.0
 20
0.0
 30
0.0
  3
ﾌﾞﾛｯｸ2
  1

  0
LINE
  5
4C
330
49
100
AcDbEntity
  8
8
100
AcDbLine
 10
0.0
 20
21.0
 30
0.0
 11
135.0
 21
21.0
 31
0.0
  0
LINE
  5
4D
330
49
100
AcDbEntity
  8
8
100
AcDbLine
 10
0.0
 20
0.0
 30
0.0
 11
135.0
 21
0.0
 31
0.0
  0
LINE
  5
4E
330
49
100
AcDbEntity
  8
8
100
AcDbLine
 10
135.0
 20
21.0
 30
0.0
 11
135.0
 21
0.0
 31
0.0
  0
LINE
  5
4F
330
49
100
AcDbEntity
  8
9
100
AcDbLine
 10
36.0
 20
7.0
 30
0.0
 11
135.0
 21
7.0
 31
0.0
  0
LINE
  5
50
330
49
100
AcDbEntity
  8
9
100
AcDbLine
 10
36.0
 20
0.0
 30
0.0
 11
36.0
 21
21.0
 31
0.0
  0
LINE
  5
51
330
49
100
AcDbEntity
  8
9
100
AcDbLine
 10
65.0
 20
21.0
 30
0.0
 11
65.0
 21
0.0
 31
0.0
  0
LINE
  5
52
330
49
100
AcDbEntity
  8
8
  6
CONTINUOUS
 62
     7
100
AcDbLine
 10
0.0
 20
21.0
 30
0.0
 11
0.0
 21
0.0
 31
0.0
  0
ATTDEF
  5
54
330
49
100
AcDbEntity
  8
SLD-0
 62
     7
100
AcDbText
 10
78.3050930978
 20
15.2436365301
 30
0.0
 40
4.0
  1
LAD-BKT
  7
SLDTEXTSTYLE0
 11
78.3050930978
 21
14.5129490301
 31
0.0
100
AcDbAttributeDefinition
  3

  2
AUTOATTR0
 70
     0
 74
     1
  0
ATTDEF
  5
55
330
49
100
AcDbEntity
  8
SLD-0
 62
     7
100
AcDbText
 10
0.0
 20
0.0
 30
0.0
 40
1.0
  1

100
AcDbAttributeDefinition
  3

  2
AUTOATTR0
 70
     0
  0
ATTDEF
  5
56
330
49
100
AcDbEntity
  8
SLD-0
 62
     7
100
AcDbText
 10
66.9646413579
 20
16.4366904365
 30
0.0
 40
2.38125
  1
Title
  7
SLDTEXTSTYLE0
 11
66.9646413579
 21
16.0017030342
 31
0.0
100
AcDbAttributeDefinition
  3

  2
AUTOATTR0
 70
     0
 74
     1
  0
ATTDEF
  5
57
330
49
100
AcDbEntity
  8
SLD-0
 62
     7
100
AcDbText
 10
66.9646413579
 20
2.045424785
 30
0.0
 40
2.38125
  1
Date
  7
SLDTEXTSTYLE0
 11
66.9646413579
 21
1.6104373826
 31
0.0
100
AcDbAttributeDefinition
  3

  2
AUTOATTR0
 70
     0
 74
     1
  0
ATTDEF
  5
58
330
49
100
AcDbEntity
  8
SLD-0
 62
     7
100
AcDbText
 10
51.857512217
 20
1.3458946457
 30
0.0
 40
4.0
  1
1:1
  7
SLDTEXTSTYLE0
 11
51.857512217
 21
0.6152071457
 31
0.0
100
AcDbAttributeDefinition
  3

  2
AUTOATTR0
 70
     0
 74
     1
  0
ATTDEF
  5
59
330
49
100
AcDbEntity
  8
SLD-0
 62
     7
100
AcDbText
 10
38.4275608796
 20
2.045424785
 30
0.0
 40
2.38125
  1
Scale
  7
SLDTEXTSTYLE0
 11
38.4275608796
 21
1.6104373826
 31
0.0
100
AcDbAttributeDefinition
  3

  2
AUTOATTR0
 70
     0
 74
     1
  0
ATTDEF
  5
5A
330
49
100
AcDbEntity
  8
SLD-0
 62
     7
100
AcDbText
 10
78.3050930978
 20
1.3458946457
 30
0.0
 40
4.0
  1
2014/12/24
  7
SLDTEXTSTYLE0
 11
78.3050930978
 21
0.6152071457
 31
0.0
100
AcDbAttributeDefinition
  3

  2
AUTOATTR0
 70
     0
 74
     1
  0
INSERT
  5
145
330
49
100
AcDbEntity
  8
0
  6
CONTINUOUS
 62
     7
100
AcDbBlockReference
  2
ﾌﾞﾛｯｸ1
 10
39.5300077037
 20
10.3519919558
 30
0.0
  0
INSERT
  5
146
330
49
100
AcDbEntity
  8
0
  6
CONTINUOUS
 62
     7
100
AcDbBlockReference
  2
新SUGATSUNEロゴ
 10
0.0273220162
 20
-1.67308293
 30
0.0
  0
ENDBLK
  5
4B
330
49
100
AcDbEntity
  8
0
100
AcDbBlockEnd
  0
BLOCK
  5
5C
330
5B
100
AcDbEntity
  8
0
100
AcDbBlockBegin
  2
新SUGATSUNEロゴ
 70
     0
 10
0.0
 20
0.0
 30
0.0
  3
新SUGATSUNEロゴ
  1

  0
LINE
  5
5E
330
5B
100
AcDbEntity
  8
0
100
AcDbLine
 10
32.7336985468
 20
9.4483046908
 30
0.0
 11
31.5209513067
 21
9.4483046908
 31
0.0
  0
LINE
  5
5F
330
5B
100
AcDbEntity
  8
0
100
AcDbLine
 10
31.5209513067
 20
9.4483046908
 30
0.0
 11
31.5209513067
 21
11.8677744187
 31
0.0
  0
LINE
  5
60
330
5B
100
AcDbEntity
  8
0
100
AcDbLine
 10
31.5209513067
 20
11.8677744187
 30
0.0
 11
32.484911708
 21
11.8677744187
 31
0.0
  0
LINE
  5
61
330
5B
100
AcDbEntity
  8
0
100
AcDbLine
 10
32.484911708
 20
11.8677744187
 30
0.0
 11
32.484911708
 21
12.7076957977
 31
0.0
  0
LINE
  5
62
330
5B
100
AcDbEntity
  8
0
100
AcDbLine
 10
32.484911708
 20
12.7076957977
 30
0.0
 11
31.5209513067
 21
12.7076957977
 31
0.0
  0
LINE
  5
63
330
5B
100
AcDbEntity
  8
0
100
AcDbLine
 10
31.5209513067
 20
12.7076957977
 30
0.0
 11
31.5209513067
 21
14.492440129
 31
0.0
  0
LINE
  5
64
330
5B
100
AcDbEntity
  8
0
100
AcDbLine
 10
31.5209513067
 20
14.492440129
 30
0.0
 11
32.5596186391
 21
14.492440129
 31
0.0
  0
LINE
  5
65
330
5B
100
AcDbEntity
  8
0
100
AcDbLine
 10
32.5596186391
 20
14.492440129
 30
0.0
 11
32.5596186391
 21
15.3325032669
 31
0.0
  0
LINE
  5
66
330
5B
100
AcDbEntity
  8
0
100
AcDbLine
 10
32.5596186391
 20
15.3325032669
 30
0.0
 11
30.6808881687
 21
15.3325032669
 31
0.0
  0
LINE
  5
67
330
5B
100
AcDbEntity
  8
0
100
AcDbLine
 10
30.6808881687
 20
15.3325032669
 30
0.0
 11
30.6808881687
 21
8.5904508131
 31
0.0
  0
LINE
  5
68
330
5B
100
AcDbEntity
  8
0
100
AcDbLine
 10
30.6808881687
 20
8.5904508131
 30
0.0
 11
32.7336985468
 21
8.5896002598
 31
0.0
  0
LINE
  5
69
330
5B
100
AcDbEntity
  8
0
100
AcDbLine
 10
32.7336985468
 20
8.5896002598
 30
0.0
 11
32.7336985468
 21
9.4483046908
 31
0.0
  0
LINE
  5
6A
330
5B
100
AcDbEntity
  8
0
100
AcDbLine
 10
21.049364412
 20
15.3325032669
 30
0.0
 11
18.7355759311
 21
15.3325032669
 31
0.0
  0
LINE
  5
6B
330
5B
100
AcDbEntity
  8
0
100
AcDbLine
 10
18.7355759311
 20
15.3325032669
 30
0.0
 11
18.7355759311
 21
14.492440129
 31
0.0
  0
LINE
  5
6C
330
5B
100
AcDbEntity
  8
0
100
AcDbLine
 10
18.7355759311
 20
14.492440129
 30
0.0
 11
19.4922848461
 21
14.492440129
 31
0.0
  0
LINE
  5
6D
330
5B
100
AcDbEntity
  8
0
100
AcDbLine
 10
19.4922848461
 20
14.492440129
 30
0.0
 11
19.4922848461
 21
8.5904508131
 31
0.0
  0
LINE
  5
6E
330
5B
100
AcDbEntity
  8
0
100
AcDbLine
 10
19.4922848461
 20
8.5904508131
 30
0.0
 11
20.3323479841
 21
8.5904508131
 31
0.0
  0
LINE
  5
6F
330
5B
100
AcDbEntity
  8
0
100
AcDbLine
 10
20.3323479841
 20
8.5904508131
 30
0.0
 11
20.3323479841
 21
14.492440129
 31
0.0
  0
LINE
  5
70
330
5B
100
AcDbEntity
  8
0
100
AcDbLine
 10
20.3323479841
 20
14.492440129
 30
0.0
 11
21.049364412
 21
14.492440129
 31
0.0
  0
LINE
  5
71
330
5B
100
AcDbEntity
  8
0
100
AcDbLine
 10
21.049364412
 20
14.492440129
 30
0.0
 11
21.049364412
 21
15.3325032669
 31
0.0
  0
LINE
  5
72
330
5B
100
AcDbEntity
  8
0
100
AcDbLine
 10
29.175550595
 20
15.3418593532
 30
0.0
 11
29.175550595
 21
10.4115562977
 31
0.0
  0
LINE
  5
73
330
5B
100
AcDbEntity
  8
0
100
AcDbLine
 10
29.175550595
 20
10.4115562977
 30
0.0
 11
28.3179093556
 21
15.3418593532
 31
0.0
  0
LINE
  5
74
330
5B
100
AcDbEntity
  8
0
100
AcDbLine
 10
28.3179093556
 20
15.3418593532
 30
0.0
 11
26.9115194818
 21
15.3418593532
 31
0.0
  0
LINE
  5
75
330
5B
100
AcDbEntity
  8
0
100
AcDbLine
 10
26.9115194818
 20
15.3418593532
 30
0.0
 11
26.9115194818
 21
8.5904508131
 31
0.0
  0
LINE
  5
76
330
5B
100
AcDbEntity
  8
0
100
AcDbLine
 10
26.9115194818
 20
8.5904508131
 30
0.0
 11
27.7517243787
 21
8.5904508131
 31
0.0
  0
LINE
  5
77
330
5B
100
AcDbEntity
  8
0
100
AcDbLine
 10
27.7517243787
 20
8.5904508131
 30
0.0
 11
27.7517243787
 21
13.7348097812
 31
0.0
  0
LINE
  5
78
330
5B
100
AcDbEntity
  8
0
100
AcDbLine
 10
27.7517243787
 20
13.7348097812
 30
0.0
 11
28.6387097068
 21
8.5883244299
 31
0.0
  0
LINE
  5
79
330
5B
100
AcDbEntity
  8
0
100
AcDbLine
 10
28.6387097068
 20
8.5883244299
 30
0.0
 11
30.0157554918
 21
8.5904508131
 31
0.0
  0
LINE
  5
7A
330
5B
100
AcDbEntity
  8
0
100
AcDbLine
 10
30.0157554918
 20
8.5904508131
 30
0.0
 11
30.0157554918
 21
15.3418593532
 31
0.0
  0
LINE
  5
7B
330
5B
100
AcDbEntity
  8
0
100
AcDbLine
 10
30.0157554918
 20
15.3418593532
 30
0.0
 11
29.175550595
 21
15.3418593532
 31
0.0
  0
LINE
  5
7C
330
5B
100
AcDbEntity
  8
0
100
AcDbLine
 10
3.3854988525
 20
9.4534080106
 30
0.0
 11
3.292575905
 21
9.4549673583
 31
0.0
  0
LINE
  5
7D
330
5B
100
AcDbEntity
  8
0
100
AcDbLine
 10
3.292575905
 20
9.4549673583
 30
0.0
 11
3.292575905
 21
8.5959794095
 31
0.0
  0
LINE
  5
7E
330
5B
100
AcDbEntity
  8
0
100
AcDbLine
 10
3.292575905
 20
8.5959794095
 30
0.0
 11
3.4568035704
 21
8.5959794095
 31
0.0
  0
LINE
  5
7F
330
5B
100
AcDbEntity
  8
0
100
AcDbLine
 10
4.9498790008
 20
9.2970479632
 30
0.0
 11
4.9498790008
 21
9.2973314809
 31
0.0
  0
LINE
  5
80
330
5B
100
AcDbEntity
  8
0
100
AcDbLine
 10
4.9498790008
 20
14.5159721035
 30
0.0
 11
4.9498790008
 21
15.3285340182
 31
0.0
  0
LINE
  5
81
330
5B
100
AcDbEntity
  8
0
100
AcDbLine
 10
4.9498790008
 20
15.3285340182
 30
0.0
 11
4.6043417246
 21
15.3285340182
 31
0.0
  0
LINE
  5
82
330
5B
100
AcDbEntity
  8
0
100
AcDbLine
 10
21.230390505
 20
9.4534080106
 30
0.0
 11
21.1375384369
 21
9.4549673583
 31
0.0
  0
LINE
  5
83
330
5B
100
AcDbEntity
  8
0
100
AcDbLine
 10
21.1375384369
 20
9.4549673583
 30
0.0
 11
21.1375384369
 21
8.5959794095
 31
0.0
  0
LINE
  5
84
330
5B
100
AcDbEntity
  8
0
100
AcDbLine
 10
21.1375384369
 20
8.5959794095
 30
0.0
 11
21.301553464
 21
8.5959794095
 31
0.0
  0
LINE
  5
85
330
5B
100
AcDbEntity
  8
0
100
AcDbLine
 10
22.7946997739
 20
9.2970479632
 30
0.0
 11
22.7946997739
 21
9.2973314809
 31
0.0
  0
LINE
  5
86
330
5B
100
AcDbEntity
  8
0
100
AcDbLine
 10
22.7946997739
 20
14.5159721035
 30
0.0
 11
22.7946997739
 21
15.3285340182
 31
0.0
  0
LINE
  5
87
330
5B
100
AcDbEntity
  8
0
100
AcDbLine
 10
22.7946997739
 20
15.3285340182
 30
0.0
 11
22.4490916182
 21
15.3285340182
 31
0.0
  0
LINE
  5
88
330
5B
100
AcDbEntity
  8
0
 62
     1
100
AcDbLine
 10
12.1710764777
 20
17.9278248886
 30
0.0
 11
9.7662787942
 21
17.9278248886
 31
0.0
  0
LINE
  5
89
330
5B
100
AcDbEntity
  8
0
 62
     1
100
AcDbLine
 10
9.7662787942
 20
17.9278248886
 30
0.0
 11
9.7662787942
 21
20.3329060898
 31
0.0
  0
LINE
  5
8A
330
5B
100
AcDbEntity
  8
0
 62
     1
100
AcDbLine
 10
9.7662787942
 20
20.3329060898
 30
0.0
 11
12.1710764777
 21
20.3329060898
 31
0.0
  0
LINE
  5
8B
330
5B
100
AcDbEntity
  8
0
 62
     1
100
AcDbLine
 10
12.1710764777
 20
20.3329060898
 30
0.0
 11
12.1710764777
 21
17.9278248886
 31
0.0
  0
LINE
  5
8C
330
5B
100
AcDbEntity
  8
0
 62
     1
100
AcDbLine
 10
12.1710764777
 20
3.67
 30
0.0
 11
9.7662787942
 21
3.67
 31
0.0
  0
LINE
  5
8D
330
5B
100
AcDbEntity
  8
0
 62
     1
100
AcDbLine
 10
9.7662787942
 20
3.67
 30
0.0
 11
9.7662787942
 21
6.0749394424
 31
0.0
  0
LINE
  5
8E
330
5B
100
AcDbEntity
  8
0
 62
     1
100
AcDbLine
 10
9.7662787942
 20
6.0749394424
 30
0.0
 11
12.1710764777
 21
6.0749394424
 31
0.0
  0
LINE
  5
8F
330
5B
100
AcDbEntity
  8
0
 62
     1
100
AcDbLine
 10
12.1710764777
 20
6.0749394424
 30
0.0
 11
12.1710764777
 21
3.67
 31
0.0
  0
LINE
  5
90
330
5B
100
AcDbEntity
  8
0
 62
     1
100
AcDbLine
 10
25.8269222715
 20
17.9278248886
 30
0.0
 11
23.422124588
 21
17.9278248886
 31
0.0
  0
LINE
  5
91
330
5B
100
AcDbEntity
  8
0
 62
     1
100
AcDbLine
 10
23.422124588
 20
17.9278248886
 30
0.0
 11
23.422124588
 21
20.3329060898
 31
0.0
  0
LINE
  5
92
330
5B
100
AcDbEntity
  8
0
 62
     1
100
AcDbLine
 10
23.422124588
 20
20.3329060898
 30
0.0
 11
25.8269222715
 21
20.3329060898
 31
0.0
  0
LINE
  5
93
330
5B
100
AcDbEntity
  8
0
 62
     1
100
AcDbLine
 10
25.8269222715
 20
20.3329060898
 30
0.0
 11
25.8269222715
 21
17.9278248886
 31
0.0
  0
LINE
  5
94
330
5B
100
AcDbEntity
  8
0
 62
     1
100
AcDbLine
 10
25.8269222715
 20
3.67
 30
0.0
 11
23.422124588
 21
3.67
 31
0.0
  0
LINE
  5
95
330
5B
100
AcDbEntity
  8
0
 62
     1
100
AcDbLine
 10
23.422124588
 20
3.67
 30
0.0
 11
23.422124588
 21
6.0749394424
 31
0.0
  0
LINE
  5
96
330
5B
100
AcDbEntity
  8
0
 62
     1
100
AcDbLine
 10
23.422124588
 20
6.0749394424
 30
0.0
 11
25.8269222715
 21
6.0749394424
 31
0.0
  0
LINE
  5
97
330
5B
100
AcDbEntity
  8
0
 62
     1
100
AcDbLine
 10
25.8269222715
 20
6.0749394424
 30
0.0
 11
25.8269222715
 21
3.67
 31
0.0
  0
LINE
  5
98
330
5B
100
AcDbEntity
  8
0
100
AcDbLine
 10
8.2465526938
 20
15.3418593532
 30
0.0
 11
7.4064186764
 21
15.3418593532
 31
0.0
  0
LINE
  5
99
330
5B
100
AcDbEntity
  8
0
100
AcDbLine
 10
7.4064186764
 20
15.3418593532
 30
0.0
 11
7.4025203072
 21
9.7790281638
 31
0.0
  0
LINE
  5
9A
330
5B
100
AcDbEntity
  8
0
100
AcDbLine
 10
6.5577791261
 20
9.7866831435
 30
0.0
 11
6.554873069
 21
15.3418593532
 31
0.0
  0
LINE
  5
9B
330
5B
100
AcDbEntity
  8
0
100
AcDbLine
 10
6.554873069
 20
15.3418593532
 30
0.0
 11
5.7147390516
 21
15.3418593532
 31
0.0
  0
LINE
  5
9C
330
5B
100
AcDbEntity
  8
0
100
AcDbLine
 10
26.1769249525
 20
15.3418593532
 30
0.0
 11
25.3368618145
 21
15.3418593532
 31
0.0
  0
LINE
  5
9D
330
5B
100
AcDbEntity
  8
0
100
AcDbLine
 10
25.3368618145
 20
15.3418593532
 30
0.0
 11
25.3327508069
 21
9.7790281638
 31
0.0
  0
LINE
  5
9E
330
5B
100
AcDbEntity
  8
0
100
AcDbLine
 10
24.4880096259
 20
9.7866831435
 30
0.0
 11
24.4851744482
 21
15.3418593532
 31
0.0
  0
LINE
  5
9F
330
5B
100
AcDbEntity
  8
0
100
AcDbLine
 10
24.4851744482
 20
15.3418593532
 30
0.0
 11
23.6451113103
 21
15.3418593532
 31
0.0
  0
LINE
  5
A0
330
5B
100
AcDbEntity
  8
0
100
AcDbLine
 10
12.9538690271
 20
12.6636087853
 30
0.0
 11
11.909956616
 21
11.8235456473
 31
0.0
  0
LINE
  5
A1
330
5B
100
AcDbEntity
  8
0
100
AcDbLine
 10
11.909956616
 20
11.8235456473
 30
0.0
 11
14.4506301884
 21
11.8235456473
 31
0.0
  0
LINE
  5
A2
330
5B
100
AcDbEntity
  8
0
100
AcDbLine
 10
14.4506301884
 20
11.8235456473
 30
0.0
 11
14.4506301884
 21
10.4153837876
 31
0.0
  0
LINE
  5
A3
330
5B
100
AcDbEntity
  8
0
100
AcDbLine
 10
14.5099562808
 20
13.5421594598
 30
0.0
 11
15.2200265234
 21
14.0836783912
 31
0.0
  0
LINE
  5
A4
330
5B
100
AcDbEntity
  8
0
100
AcDbLine
 10
15.2916856385
 20
10.0266809316
 30
0.0
 11
15.2905515675
 21
12.6636087853
 31
0.0
  0
LINE
  5
A5
330
5B
100
AcDbEntity
  8
0
100
AcDbLine
 10
15.2905515675
 20
12.6636087853
 30
0.0
 11
12.9538690271
 21
12.6636087853
 31
0.0
  0
LINE
  5
A6
330
5B
100
AcDbEntity
  8
0
100
AcDbLine
 10
17.7875634041
 20
15.3342043735
 30
0.0
 11
16.3643042233
 21
15.3342043735
 31
0.0
  0
LINE
  5
A7
330
5B
100
AcDbEntity
  8
0
100
AcDbLine
 10
16.3643042233
 20
15.3342043735
 30
0.0
 11
15.5117663037
 21
8.5904508131
 31
0.0
  0
LINE
  5
A8
330
5B
100
AcDbEntity
  8
0
100
AcDbLine
 10
15.5117663037
 20
8.5904508131
 30
0.0
 11
16.3519003211
 21
8.5904508131
 31
0.0
  0
LINE
  5
A9
330
5B
100
AcDbEntity
  8
0
100
AcDbLine
 10
16.3519003211
 20
8.5904508131
 30
0.0
 11
16.5956547196
 21
10.5190095307
 31
0.0
  0
LINE
  5
AA
330
5B
100
AcDbEntity
  8
0
100
AcDbLine
 10
16.5956547196
 20
10.5190095307
 30
0.0
 11
17.5561420283
 21
10.5190095307
 31
0.0
  0
LINE
  5
AB
330
5B
100
AcDbEntity
  8
0
100
AcDbLine
 10
17.5561420283
 20
10.5190095307
 30
0.0
 11
17.8000381857
 21
8.5904508131
 31
0.0
  0
LINE
  5
AC
330
5B
100
AcDbEntity
  8
0
100
AcDbLine
 10
17.8000381857
 20
8.5904508131
 30
0.0
 11
18.6401722031
 21
8.5904508131
 31
0.0
  0
LINE
  5
AD
330
5B
100
AcDbEntity
  8
0
100
AcDbLine
 10
18.6401722031
 20
8.5904508131
 30
0.0
 11
17.7875634041
 21
15.3342043735
 31
0.0
  0
LINE
  5
AE
330
5B
100
AcDbEntity
  8
0
100
AcDbLine
 10
16.7253640972
 20
11.5449894431
 30
0.0
 11
17.0745162249
 21
14.306594234
 31
0.0
  0
LINE
  5
AF
330
5B
100
AcDbEntity
  8
0
100
AcDbLine
 10
17.0745162249
 20
14.306594234
 30
0.0
 11
17.4265035302
 21
11.5449894431
 31
0.0
  0
LINE
  5
B0
330
5B
100
AcDbEntity
  8
0
100
AcDbLine
 10
17.4265035302
 20
11.5449894431
 30
0.0
 11
16.7253640972
 21
11.5449894431
 31
0.0
  0
LINE
  5
B1
330
5B
100
AcDbEntity
  8
0
100
AcDbLine
 10
32.7336985468
 20
9.4483046908
 30
0.0
 11
31.5209513067
 21
9.4483046908
 31
0.0
  0
LINE
  5
B2
330
5B
100
AcDbEntity
  8
0
100
AcDbLine
 10
31.5209513067
 20
9.4483046908
 30
0.0
 11
31.5209513067
 21
11.8677744187
 31
0.0
  0
LINE
  5
B3
330
5B
100
AcDbEntity
  8
0
100
AcDbLine
 10
31.5209513067
 20
11.8677744187
 30
0.0
 11
32.484911708
 21
11.8677744187
 31
0.0
  0
LINE
  5
B4
330
5B
100
AcDbEntity
  8
0
100
AcDbLine
 10
32.484911708
 20
11.8677744187
 30
0.0
 11
32.484911708
 21
12.7076957977
 31
0.0
  0
LINE
  5
B5
330
5B
100
AcDbEntity
  8
0
100
AcDbLine
 10
32.484911708
 20
12.7076957977
 30
0.0
 11
31.5209513067
 21
12.7076957977
 31
0.0
  0
LINE
  5
B6
330
5B
100
AcDbEntity
  8
0
100
AcDbLine
 10
31.5209513067
 20
12.7076957977
 30
0.0
 11
31.5209513067
 21
14.492440129
 31
0.0
  0
LINE
  5
B7
330
5B
100
AcDbEntity
  8
0
100
AcDbLine
 10
31.5209513067
 20
14.492440129
 30
0.0
 11
32.5596186391
 21
14.492440129
 31
0.0
  0
LINE
  5
B8
330
5B
100
AcDbEntity
  8
0
100
AcDbLine
 10
32.5596186391
 20
14.492440129
 30
0.0
 11
32.5596186391
 21
15.3325032669
 31
0.0
  0
LINE
  5
B9
330
5B
100
AcDbEntity
  8
0
100
AcDbLine
 10
32.5596186391
 20
15.3325032669
 30
0.0
 11
30.6808881687
 21
15.3325032669
 31
0.0
  0
LINE
  5
BA
330
5B
100
AcDbEntity
  8
0
100
AcDbLine
 10
30.6808881687
 20
15.3325032669
 30
0.0
 11
30.6808881687
 21
8.5904508131
 31
0.0
  0
LINE
  5
BB
330
5B
100
AcDbEntity
  8
0
100
AcDbLine
 10
30.6808881687
 20
8.5904508131
 30
0.0
 11
32.7336985468
 21
8.5896002598
 31
0.0
  0
LINE
  5
BC
330
5B
100
AcDbEntity
  8
0
100
AcDbLine
 10
32.7336985468
 20
8.5896002598
 30
0.0
 11
32.7336985468
 21
9.4483046908
 31
0.0
  0
LINE
  5
BD
330
5B
100
AcDbEntity
  8
0
100
AcDbLine
 10
21.049364412
 20
15.3325032669
 30
0.0
 11
18.7355759311
 21
15.3325032669
 31
0.0
  0
LINE
  5
BE
330
5B
100
AcDbEntity
  8
0
100
AcDbLine
 10
18.7355759311
 20
15.3325032669
 30
0.0
 11
18.7355759311
 21
14.492440129
 31
0.0
  0
LINE
  5
BF
330
5B
100
AcDbEntity
  8
0
100
AcDbLine
 10
18.7355759311
 20
14.492440129
 30
0.0
 11
19.4922848461
 21
14.492440129
 31
0.0
  0
LINE
  5
C0
330
5B
100
AcDbEntity
  8
0
100
AcDbLine
 10
19.4922848461
 20
14.492440129
 30
0.0
 11
19.4922848461
 21
8.5904508131
 31
0.0
  0
LINE
  5
C1
330
5B
100
AcDbEntity
  8
0
100
AcDbLine
 10
19.4922848461
 20
8.5904508131
 30
0.0
 11
20.3323479841
 21
8.5904508131
 31
0.0
  0
LINE
  5
C2
330
5B
100
AcDbEntity
  8
0
100
AcDbLine
 10
20.3323479841
 20
8.5904508131
 30
0.0
 11
20.3323479841
 21
14.492440129
 31
0.0
  0
LINE
  5
C3
330
5B
100
AcDbEntity
  8
0
100
AcDbLine
 10
20.3323479841
 20
14.492440129
 30
0.0
 11
21.049364412
 21
14.492440129
 31
0.0
  0
LINE
  5
C4
330
5B
100
AcDbEntity
  8
0
100
AcDbLine
 10
21.049364412
 20
14.492440129
 30
0.0
 11
21.049364412
 21
15.3325032669
 31
0.0
  0
LINE
  5
C5
330
5B
100
AcDbEntity
  8
0
100
AcDbLine
 10
29.175550595
 20
15.3418593532
 30
0.0
 11
29.175550595
 21
10.4115562977
 31
0.0
  0
LINE
  5
C6
330
5B
100
AcDbEntity
  8
0
100
AcDbLine
 10
29.175550595
 20
10.4115562977
 30
0.0
 11
28.3179093556
 21
15.3418593532
 31
0.0
  0
LINE
  5
C7
330
5B
100
AcDbEntity
  8
0
100
AcDbLine
 10
28.3179093556
 20
15.3418593532
 30
0.0
 11
26.9115194818
 21
15.3418593532
 31
0.0
  0
LINE
  5
C8
330
5B
100
AcDbEntity
  8
0
100
AcDbLine
 10
26.9115194818
 20
15.3418593532
 30
0.0
 11
26.9115194818
 21
8.5904508131
 31
0.0
  0
LINE
  5
C9
330
5B
100
AcDbEntity
  8
0
100
AcDbLine
 10
26.9115194818
 20
8.5904508131
 30
0.0
 11
27.7517243787
 21
8.5904508131
 31
0.0
  0
LINE
  5
CA
330
5B
100
AcDbEntity
  8
0
100
AcDbLine
 10
27.7517243787
 20
8.5904508131
 30
0.0
 11
27.7517243787
 21
13.7348097812
 31
0.0
  0
LINE
  5
CB
330
5B
100
AcDbEntity
  8
0
100
AcDbLine
 10
27.7517243787
 20
13.7348097812
 30
0.0
 11
28.6387097068
 21
8.5883244299
 31
0.0
  0
LINE
  5
CC
330
5B
100
AcDbEntity
  8
0
100
AcDbLine
 10
28.6387097068
 20
8.5883244299
 30
0.0
 11
30.0157554918
 21
8.5904508131
 31
0.0
  0
LINE
  5
CD
330
5B
100
AcDbEntity
  8
0
100
AcDbLine
 10
30.0157554918
 20
8.5904508131
 30
0.0
 11
30.0157554918
 21
15.3418593532
 31
0.0
  0
LINE
  5
CE
330
5B
100
AcDbEntity
  8
0
100
AcDbLine
 10
30.0157554918
 20
15.3418593532
 30
0.0
 11
29.175550595
 21
15.3418593532
 31
0.0
  0
LINE
  5
CF
330
5B
100
AcDbEntity
  8
0
100
AcDbLine
 10
3.3854988525
 20
9.4534080106
 30
0.0
 11
3.292575905
 21
9.4549673583
 31
0.0
  0
LINE
  5
D0
330
5B
100
AcDbEntity
  8
0
100
AcDbLine
 10
3.292575905
 20
9.4549673583
 30
0.0
 11
3.292575905
 21
8.5959794095
 31
0.0
  0
LINE
  5
D1
330
5B
100
AcDbEntity
  8
0
100
AcDbLine
 10
3.292575905
 20
8.5959794095
 30
0.0
 11
3.4568035704
 21
8.5959794095
 31
0.0
  0
LINE
  5
D2
330
5B
100
AcDbEntity
  8
0
100
AcDbLine
 10
4.9498790008
 20
9.2970479632
 30
0.0
 11
4.9498790008
 21
9.2973314809
 31
0.0
  0
LINE
  5
D3
330
5B
100
AcDbEntity
  8
0
100
AcDbLine
 10
4.9498790008
 20
14.5159721035
 30
0.0
 11
4.9498790008
 21
15.3285340182
 31
0.0
  0
LINE
  5
D4
330
5B
100
AcDbEntity
  8
0
100
AcDbLine
 10
4.9498790008
 20
15.3285340182
 30
0.0
 11
4.6043417246
 21
15.3285340182
 31
0.0
  0
LINE
  5
D5
330
5B
100
AcDbEntity
  8
0
100
AcDbLine
 10
21.230390505
 20
9.4534080106
 30
0.0
 11
21.1375384369
 21
9.4549673583
 31
0.0
  0
LINE
  5
D6
330
5B
100
AcDbEntity
  8
0
100
AcDbLine
 10
21.1375384369
 20
9.4549673583
 30
0.0
 11
21.1375384369
 21
8.5959794095
 31
0.0
  0
LINE
  5
D7
330
5B
100
AcDbEntity
  8
0
100
AcDbLine
 10
21.1375384369
 20
8.5959794095
 30
0.0
 11
21.301553464
 21
8.5959794095
 31
0.0
  0
LINE
  5
D8
330
5B
100
AcDbEntity
  8
0
100
AcDbLine
 10
22.7946997739
 20
9.2970479632
 30
0.0
 11
22.7946997739
 21
9.2973314809
 31
0.0
  0
LINE
  5
D9
330
5B
100
AcDbEntity
  8
0
100
AcDbLine
 10
22.7946997739
 20
14.5159721035
 30
0.0
 11
22.7946997739
 21
15.3285340182
 31
0.0
  0
LINE
  5
DA
330
5B
100
AcDbEntity
  8
0
100
AcDbLine
 10
22.7946997739
 20
15.3285340182
 30
0.0
 11
22.4490916182
 21
15.3285340182
 31
0.0
  0
LINE
  5
DB
330
5B
100
AcDbEntity
  8
0
 62
     1
100
AcDbLine
 10
12.1710764777
 20
17.9278248886
 30
0.0
 11
9.7662787942
 21
17.9278248886
 31
0.0
  0
LINE
  5
DC
330
5B
100
AcDbEntity
  8
0
 62
     1
100
AcDbLine
 10
9.7662787942
 20
17.9278248886
 30
0.0
 11
9.7662787942
 21
20.3329060898
 31
0.0
  0
LINE
  5
DD
330
5B
100
AcDbEntity
  8
0
 62
     1
100
AcDbLine
 10
9.7662787942
 20
20.3329060898
 30
0.0
 11
12.1710764777
 21
20.3329060898
 31
0.0
  0
LINE
  5
DE
330
5B
100
AcDbEntity
  8
0
 62
     1
100
AcDbLine
 10
12.1710764777
 20
20.3329060898
 30
0.0
 11
12.1710764777
 21
17.9278248886
 31
0.0
  0
LINE
  5
DF
330
5B
100
AcDbEntity
  8
0
 62
     1
100
AcDbLine
 10
12.1710764777
 20
3.67
 30
0.0
 11
9.7662787942
 21
3.67
 31
0.0
  0
LINE
  5
E0
330
5B
100
AcDbEntity
  8
0
 62
     1
100
AcDbLine
 10
9.7662787942
 20
3.67
 30
0.0
 11
9.7662787942
 21
6.0749394424
 31
0.0
  0
LINE
  5
E1
330
5B
100
AcDbEntity
  8
0
 62
     1
100
AcDbLine
 10
9.7662787942
 20
6.0749394424
 30
0.0
 11
12.1710764777
 21
6.0749394424
 31
0.0
  0
LINE
  5
E2
330
5B
100
AcDbEntity
  8
0
 62
     1
100
AcDbLine
 10
12.1710764777
 20
6.0749394424
 30
0.0
 11
12.1710764777
 21
3.67
 31
0.0
  0
LINE
  5
E3
330
5B
100
AcDbEntity
  8
0
 62
     1
100
AcDbLine
 10
25.8269222715
 20
17.9278248886
 30
0.0
 11
23.422124588
 21
17.9278248886
 31
0.0
  0
LINE
  5
E4
330
5B
100
AcDbEntity
  8
0
 62
     1
100
AcDbLine
 10
23.422124588
 20
17.9278248886
 30
0.0
 11
23.422124588
 21
20.3329060898
 31
0.0
  0
LINE
  5
E5
330
5B
100
AcDbEntity
  8
0
 62
     1
100
AcDbLine
 10
23.422124588
 20
20.3329060898
 30
0.0
 11
25.8269222715
 21
20.3329060898
 31
0.0
  0
LINE
  5
E6
330
5B
100
AcDbEntity
  8
0
 62
     1
100
AcDbLine
 10
25.8269222715
 20
20.3329060898
 30
0.0
 11
25.8269222715
 21
17.9278248886
 31
0.0
  0
LINE
  5
E7
330
5B
100
AcDbEntity
  8
0
 62
     1
100
AcDbLine
 10
25.8269222715
 20
3.67
 30
0.0
 11
23.422124588
 21
3.67
 31
0.0
  0
LINE
  5
E8
330
5B
100
AcDbEntity
  8
0
 62
     1
100
AcDbLine
 10
23.422124588
 20
3.67
 30
0.0
 11
23.422124588
 21
6.0749394424
 31
0.0
  0
LINE
  5
E9
330
5B
100
AcDbEntity
  8
0
 62
     1
100
AcDbLine
 10
23.422124588
 20
6.0749394424
 30
0.0
 11
25.8269222715
 21
6.0749394424
 31
0.0
  0
LINE
  5
EA
330
5B
100
AcDbEntity
  8
0
 62
     1
100
AcDbLine
 10
25.8269222715
 20
6.0749394424
 30
0.0
 11
25.8269222715
 21
3.67
 31
0.0
  0
LINE
  5
EB
330
5B
100
AcDbEntity
  8
0
100
AcDbLine
 10
8.2465526938
 20
15.3418593532
 30
0.0
 11
7.4064186764
 21
15.3418593532
 31
0.0
  0
LINE
  5
EC
330
5B
100
AcDbEntity
  8
0
100
AcDbLine
 10
7.4064186764
 20
15.3418593532
 30
0.0
 11
7.4025203072
 21
9.7790281638
 31
0.0
  0
LINE
  5
ED
330
5B
100
AcDbEntity
  8
0
100
AcDbLine
 10
6.5577791261
 20
9.7866831435
 30
0.0
 11
6.554873069
 21
15.3418593532
 31
0.0
  0
LINE
  5
EE
330
5B
100
AcDbEntity
  8
0
100
AcDbLine
 10
6.554873069
 20
15.3418593532
 30
0.0
 11
5.7147390516
 21
15.3418593532
 31
0.0
  0
LINE
  5
EF
330
5B
100
AcDbEntity
  8
0
100
AcDbLine
 10
26.1769249525
 20
15.3418593532
 30
0.0
 11
25.3368618145
 21
15.3418593532
 31
0.0
  0
LINE
  5
F0
330
5B
100
AcDbEntity
  8
0
100
AcDbLine
 10
25.3368618145
 20
15.3418593532
 30
0.0
 11
25.3327508069
 21
9.7790281638
 31
0.0
  0
LINE
  5
F1
330
5B
100
AcDbEntity
  8
0
100
AcDbLine
 10
24.4880096259
 20
9.7866831435
 30
0.0
 11
24.4851744482
 21
15.3418593532
 31
0.0
  0
LINE
  5
F2
330
5B
100
AcDbEntity
  8
0
100
AcDbLine
 10
24.4851744482
 20
15.3418593532
 30
0.0
 11
23.6451113103
 21
15.3418593532
 31
0.0
  0
LINE
  5
F3
330
5B
100
AcDbEntity
  8
0
100
AcDbLine
 10
12.9538690271
 20
12.6636087853
 30
0.0
 11
11.909956616
 21
11.8235456473
 31
0.0
  0
LINE
  5
F4
330
5B
100
AcDbEntity
  8
0
100
AcDbLine
 10
11.909956616
 20
11.8235456473
 30
0.0
 11
14.4506301884
 21
11.8235456473
 31
0.0
  0
LINE
  5
F5
330
5B
100
AcDbEntity
  8
0
100
AcDbLine
 10
14.4506301884
 20
11.8235456473
 30
0.0
 11
14.4506301884
 21
10.4153837876
 31
0.0
  0
LINE
  5
F6
330
5B
100
AcDbEntity
  8
0
100
AcDbLine
 10
14.5099562808
 20
13.5421594598
 30
0.0
 11
15.2200265234
 21
14.0836783912
 31
0.0
  0
LINE
  5
F7
330
5B
100
AcDbEntity
  8
0
100
AcDbLine
 10
15.2916856385
 20
10.0266809316
 30
0.0
 11
15.2905515675
 21
12.6636087853
 31
0.0
  0
LINE
  5
F8
330
5B
100
AcDbEntity
  8
0
100
AcDbLine
 10
15.2905515675
 20
12.6636087853
 30
0.0
 11
12.9538690271
 21
12.6636087853
 31
0.0
  0
LINE
  5
F9
330
5B
100
AcDbEntity
  8
0
100
AcDbLine
 10
17.7875634041
 20
15.3342043735
 30
0.0
 11
16.3643042233
 21
15.3342043735
 31
0.0
  0
LINE
  5
FA
330
5B
100
AcDbEntity
  8
0
100
AcDbLine
 10
16.3643042233
 20
15.3342043735
 30
0.0
 11
15.5117663037
 21
8.5904508131
 31
0.0
  0
LINE
  5
FB
330
5B
100
AcDbEntity
  8
0
100
AcDbLine
 10
15.5117663037
 20
8.5904508131
 30
0.0
 11
16.3519003211
 21
8.5904508131
 31
0.0
  0
LINE
  5
FC
330
5B
100
AcDbEntity
  8
0
100
AcDbLine
 10
16.3519003211
 20
8.5904508131
 30
0.0
 11
16.5956547196
 21
10.5190095307
 31
0.0
  0
LINE
  5
FD
330
5B
100
AcDbEntity
  8
0
100
AcDbLine
 10
16.5956547196
 20
10.5190095307
 30
0.0
 11
17.5561420283
 21
10.5190095307
 31
0.0
  0
LINE
  5
FE
330
5B
100
AcDbEntity
  8
0
100
AcDbLine
 10
17.5561420283
 20
10.5190095307
 30
0.0
 11
17.8000381857
 21
8.5904508131
 31
0.0
  0
LINE
  5
FF
330
5B
100
AcDbEntity
  8
0
100
AcDbLine
 10
17.8000381857
 20
8.5904508131
 30
0.0
 11
18.6401722031
 21
8.5904508131
 31
0.0
  0
LINE
  5
100
330
5B
100
AcDbEntity
  8
0
100
AcDbLine
 10
18.6401722031
 20
8.5904508131
 30
0.0
 11
17.7875634041
 21
15.3342043735
 31
0.0
  0
LINE
  5
101
330
5B
100
AcDbEntity
  8
0
100
AcDbLine
 10
16.7253640972
 20
11.5449894431
 30
0.0
 11
17.0745162249
 21
14.306594234
 31
0.0
  0
LINE
  5
102
330
5B
100
AcDbEntity
  8
0
100
AcDbLine
 10
17.0745162249
 20
14.306594234
 30
0.0
 11
17.4265035302
 21
11.5449894431
 31
0.0
  0
LINE
  5
103
330
5B
100
AcDbEntity
  8
0
100
AcDbLine
 10
17.4265035302
 20
11.5449894431
 30
0.0
 11
16.7253640972
 21
11.5449894431
 31
0.0
  0
SPLINE
  5
104
330
5B
100
AcDbEntity
  8
0
100
AcDbSpline
210
0.0
220
0.0
230
1.0
 70
     8
 71
     3
 72
     8
 73
     4
 74
     0
 42
0.00000001
 43
0.00000001
 12
1.0
 22
0.0
 32
0.0
 13
1.0
 23
0.0
 33
0.0
 40
0.0
 40
0.0
 40
0.0
 40
0.0
 40
1.0
 40
1.0
 40
1.0
 40
1.0
 10
3.610044922460022
 20
12.39688944776983
 30
0.0
 10
4.129095070897104
 20
11.47510231402356
 30
0.0
 10
4.338118543209125
 20
11.01807167669972
 30
0.0
 10
4.392341315782439
 20
10.69273504125985
 30
0.0
  0
SPLINE
  5
105
330
5B
100
AcDbEntity
  8
0
100
AcDbSpline
210
0.0
220
0.0
230
1.0
 70
     8
 71
     3
 72
     8
 73
     4
 74
     0
 42
0.00000001
 43
0.00000001
 12
1.0
 22
0.0
 32
0.0
 13
1.0
 23
0.0
 33
0.0
 40
0.0
 40
0.0
 40
0.0
 40
0.0
 40
1.0
 40
1.0
 40
1.0
 40
1.0
 10
3.456803570429299
 20
8.59597940954257
 30
0.0
 10
4.008670900175461
 20
8.625890533759485
 30
0.0
 10
4.525665544815639
 20
8.733627284493354
 30
0.0
 10
4.949879000830379
 20
9.297047963166914
 30
0.0
  0
SPLINE
  5
106
330
5B
100
AcDbEntity
  8
0
100
AcDbSpline
210
0.0
220
0.0
230
1.0
 70
     8
 71
     3
 72
     8
 73
     4
 74
     0
 42
0.00000001
 43
0.00000001
 12
1.0
 22
0.0
 32
0.0
 13
1.0
 23
0.0
 33
0.0
 40
1.0
 40
1.0
 40
1.0
 40
1.0
 40
2.0
 40
2.0
 40
2.0
 40
2.0
 10
4.392341315782439
 20
10.69273504125985
 30
0.0
 10
4.44656408835575
 20
10.36732752637871
 30
0.0
 10
4.45662896901642
 20
9.982593919152642
 30
0.0
 10
4.129095070897104
 20
9.654989141592026
 30
0.0
  0
SPLINE
  5
107
330
5B
100
AcDbEntity
  8
0
100
AcDbSpline
210
0.0
220
0.0
230
1.0
 70
     8
 71
     3
 72
     8
 73
     4
 74
     0
 42
0.00000001
 43
0.00000001
 12
1.0
 22
0.0
 32
0.0
 13
1.0
 23
0.0
 33
0.0
 40
0.0
 40
0.0
 40
0.0
 40
0.0
 40
1.0
 40
1.0
 40
1.0
 40
1.0
 10
21.30155346402704
 20
8.59597940954257
 30
0.0
 10
21.85327903489065
 20
8.625890533759485
 30
0.0
 10
22.37041543841338
 20
8.733627284493354
 30
0.0
 10
22.79469977386939
 20
9.297047963166914
 30
0.0
  0
SPLINE
  5
108
330
5B
100
AcDbEntity
  8
0
100
AcDbSpline
210
0.0
220
0.0
230
1.0
 70
     8
 71
     2
 72
     6
 73
     3
 74
     0
 42
0.00000001
 43
0.00000001
 12
1.0
 22
0.0
 32
0.0
 13
1.0
 23
0.0
 33
0.0
 40
2.0
 40
2.0
 40
2.0
 40
3.0
 40
3.0
 40
3.0
 10
4.129095070897104
 20
9.654989141592026
 30
0.0
 10
3.919858960261265
 20
9.445611272073664
 30
0.0
 10
3.385498852509362
 20
9.453408010613625
 30
0.0
  0
SPLINE
  5
109
330
5B
100
AcDbEntity
  8
0
100
AcDbSpline
210
0.0
220
0.0
230
1.0
 70
     8
 71
     3
 72
     8
 73
     4
 74
     0
 42
0.00000001
 43
0.00000001
 12
1.0
 22
0.0
 32
0.0
 13
1.0
 23
0.0
 33
0.0
 40
6.0
 40
6.0
 40
6.0
 40
6.0
 40
7.0
 40
7.0
 40
7.0
 40
7.0
 10
3.456803570429299
 20
8.59597940954257
 30
0.0
 10
4.008670900175461
 20
8.625890533759485
 30
0.0
 10
4.525665544815639
 20
8.733627284493354
 30
0.0
 10
4.949879000830379
 20
9.297047963166914
 30
0.0
  0
SPLINE
  5
10A
330
5B
100
AcDbEntity
  8
0
100
AcDbSpline
210
0.0
220
0.0
230
1.0
 70
     8
 71
     2
 72
     6
 73
     3
 74
     0
 42
0.00000001
 43
0.00000001
 12
1.0
 22
0.0
 32
0.0
 13
1.0
 23
0.0
 33
0.0
 40
0.0
 40
0.0
 40
0.0
 40
1.0
 40
1.0
 40
1.0
 10
14.45063018841125
 20
10.41538378756133
 30
0.0
 10
14.35969186525889
 20
10.27064796848328
 30
0.0
 10
14.18199710598922
 20
10.09600102518832
 30
0.0
  0
SPLINE
  5
10B
330
5B
100
AcDbEntity
  8
0
100
AcDbSpline
210
0.0
220
0.0
230
1.0
 70
     8
 71
     3
 72
     8
 73
     4
 74
     0
 42
0.00000001
 43
0.00000001
 12
1.0
 22
0.0
 32
0.0
 13
1.0
 23
0.0
 33
0.0
 40
8.0
 40
8.0
 40
8.0
 40
8.0
 40
9.0
 40
9.0
 40
9.0
 40
9.0
 10
4.949879000830379
 20
9.297331480932005
 30
0.0
 10
5.118713829941009
 20
9.538605099022927
 30
0.0
 10
5.231270382681425
 20
9.822689899642315
 30
0.0
 10
5.267560656612845
 20
10.088629563296
 30
0.0
  0
SPLINE
  5
10C
330
5B
100
AcDbEntity
  8
0
100
AcDbSpline
210
0.0
220
0.0
230
1.0
 70
     8
 71
     3
 72
     8
 73
     4
 74
     0
 42
0.00000001
 43
0.00000001
 12
1.0
 22
0.0
 32
0.0
 13
1.0
 23
0.0
 33
0.0
 40
9.0
 40
9.0
 40
9.0
 40
9.0
 40
10.0
 40
10.0
 40
10.0
 40
10.0
 10
5.267560656612845
 20
10.088629563296
 30
0.0
 10
5.314057570087478
 20
10.42941791693324
 30
0.0
 10
5.252038058974208
 20
10.71612525687973
 30
0.0
 10
5.182363568203539
 20
11.01041669704231
 30
0.0
  0
SPLINE
  5
10D
330
5B
100
AcDbEntity
  8
0
100
AcDbSpline
210
0.0
220
0.0
230
1.0
 70
     8
 71
     3
 72
     8
 73
     4
 74
     0
 42
0.00000001
 43
0.00000001
 12
1.0
 22
0.0
 32
0.0
 13
1.0
 23
0.0
 33
0.0
 40
10.0
 40
10.0
 40
10.0
 40
10.0
 40
11.0
 40
11.0
 40
11.0
 40
11.0
 10
5.182363568203539
 20
11.01041669704231
 30
0.0
 10
5.137851279084528
 20
11.19796369864881
 30
0.0
 10
4.872478650961024
 20
11.82099398743238
 30
0.0
 10
4.833849355467621
 20
11.90122951495261
 30
0.0
  0
SPLINE
  5
10E
330
5B
100
AcDbEntity
  8
0
100
AcDbSpline
210
0.0
220
0.0
230
1.0
 70
     8
 71
     3
 72
     8
 73
     4
 74
     0
 42
0.00000001
 43
0.00000001
 12
1.0
 22
0.0
 32
0.0
 13
1.0
 23
0.0
 33
0.0
 40
11.0
 40
11.0
 40
11.0
 40
11.0
 40
12.0
 40
12.0
 40
12.0
 40
12.0
 10
4.833849355467621
 20
11.90122951495261
 30
0.0
 10
4.648145219334186
 20
12.28582136329613
 30
0.0
 10
4.291692509175768
 20
12.88482352148837
 30
0.0
 10
4.175521104930461
 20
13.22568275456688
 30
0.0
  0
SPLINE
  5
10F
330
5B
100
AcDbEntity
  8
0
100
AcDbSpline
210
0.0
220
0.0
230
1.0
 70
     8
 71
     3
 72
     8
 73
     4
 74
     0
 42
0.00000001
 43
0.00000001
 12
1.0
 22
0.0
 32
0.0
 13
1.0
 23
0.0
 33
0.0
 40
12.0
 40
12.0
 40
12.0
 40
12.0
 40
13.0
 40
13.0
 40
13.0
 40
13.0
 10
4.175521104930461
 20
13.22568275456688
 30
0.0
 10
4.059349700685156
 20
13.56640022876286
 30
0.0
 10
4.098049875619833
 20
13.97693395261202
 30
0.0
 10
4.160069386733099
 20
14.14711549110683
 30
0.0
  0
SPLINE
  5
110
330
5B
100
AcDbEntity
  8
0
100
AcDbSpline
210
0.0
220
0.0
230
1.0
 70
     8
 71
     3
 72
     8
 73
     4
 74
     0
 42
0.00000001
 43
0.00000001
 12
1.0
 22
0.0
 32
0.0
 13
1.0
 23
0.0
 33
0.0
 40
13.0
 40
13.0
 40
13.0
 40
13.0
 40
14.0
 40
14.0
 40
14.0
 40
14.0
 10
4.160069386733099
 20
14.14711549110683
 30
0.0
 10
4.222018018405095
 20
14.31750966792545
 30
0.0
 10
4.40006717488112
 20
14.46493890577188
 30
0.0
 10
4.578258090239689
 20
14.50349732182399
 30
0.0
  0
SPLINE
  5
111
330
5B
100
AcDbEntity
  8
0
100
AcDbSpline
210
0.0
220
0.0
230
1.0
 70
     8
 71
     3
 72
     8
 73
     4
 74
     0
 42
0.00000001
 43
0.00000001
 12
1.0
 22
0.0
 32
0.0
 13
1.0
 23
0.0
 33
0.0
 40
14.0
 40
14.0
 40
14.0
 40
14.0
 40
15.0
 40
15.0
 40
15.0
 40
15.0
 10
4.578258090239689
 20
14.50349732182399
 30
0.0
 10
4.678694258522547
 20
14.52539906917713
 30
0.0
 10
4.815845977384454
 20
14.52242213264369
 30
0.0
 10
4.949879000830379
 20
14.51597210348793
 30
0.0
  0
SPLINE
  5
112
330
5B
100
AcDbEntity
  8
0
100
AcDbSpline
210
0.0
220
0.0
230
1.0
 70
     8
 71
     3
 72
     8
 73
     4
 74
     0
 42
0.00000001
 43
0.00000001
 12
1.0
 22
0.0
 32
0.0
 13
1.0
 23
0.0
 33
0.0
 40
17.0
 40
17.0
 40
17.0
 40
17.0
 40
18.0
 40
18.0
 40
18.0
 40
18.0
 10
4.604341724627901
 20
15.3285340182336
 30
0.0
 10
4.293818892413936
 20
15.3285340182336
 30
0.0
 10
3.922056222940704
 20
15.17954543267921
 30
0.0
 10
3.648886856277244
 20
14.89078258893584
 30
0.0
  0
SPLINE
  5
113
330
5B
100
AcDbEntity
  8
0
100
AcDbSpline
210
0.0
220
0.0
230
1.0
 70
     8
 71
     3
 72
     8
 73
     4
 74
     0
 42
0.00000001
 43
0.00000001
 12
1.0
 22
0.0
 32
0.0
 13
1.0
 23
0.0
 33
0.0
 40
18.0
 40
18.0
 40
18.0
 40
18.0
 40
19.0
 40
19.0
 40
19.0
 40
19.0
 10
3.648886856277244
 20
14.89078258893584
 30
0.0
 10
3.355091572203543
 20
14.5804723950457
 30
0.0
 10
3.176404500756066
 20
14.23252521783996
 30
0.0
 10
3.230627273329383
 20
13.57412608786154
 30
0.0
  0
SPLINE
  5
114
330
5B
100
AcDbEntity
  8
0
100
AcDbSpline
210
0.0
220
0.0
230
1.0
 70
     8
 71
     3
 72
     8
 73
     4
 74
     0
 42
0.00000001
 43
0.00000001
 12
1.0
 22
0.0
 32
0.0
 13
1.0
 23
0.0
 33
0.0
 40
19.0
 40
19.0
 40
19.0
 40
19.0
 40
20.0
 40
20.0
 40
20.0
 40
20.0
 10
3.230627273329383
 20
13.57412608786154
 30
0.0
 10
3.261530709724104
 20
13.17124734366976
 30
0.0
 10
3.356792678794077
 20
12.84683214096644
 30
0.0
 10
3.610044922460022
 20
12.39688944776983
 30
0.0
  0
SPLINE
  5
115
330
5B
100
AcDbEntity
  8
0
100
AcDbSpline
210
0.0
220
0.0
230
1.0
 70
     8
 71
     3
 72
     8
 73
     4
 74
     0
 42
0.00000001
 43
0.00000001
 12
1.0
 22
0.0
 32
0.0
 13
1.0
 23
0.0
 33
0.0
 40
0.0
 40
0.0
 40
0.0
 40
0.0
 40
1.0
 40
1.0
 40
1.0
 40
1.0
 10
21.45465305717521
 20
12.39688944776983
 30
0.0
 10
21.97377408505358
 20
11.47510231402356
 30
0.0
 10
22.18301019568941
 20
11.01807167669972
 30
0.0
 10
22.23716208882146
 20
10.69273504125985
 30
0.0
  0
SPLINE
  5
116
330
5B
100
AcDbEntity
  8
0
100
AcDbSpline
210
0.0
220
0.0
230
1.0
 70
     8
 71
     3
 72
     8
 73
     4
 74
     0
 42
0.00000001
 43
0.00000001
 12
1.0
 22
0.0
 32
0.0
 13
1.0
 23
0.0
 33
0.0
 40
1.0
 40
1.0
 40
1.0
 40
1.0
 40
2.0
 40
2.0
 40
2.0
 40
2.0
 10
22.23716208882146
 20
10.69273504125985
 30
0.0
 10
22.29117222307095
 20
10.36732752637871
 30
0.0
 10
22.30137886261416
 20
9.982593919152642
 30
0.0
 10
21.97377408505358
 20
9.654989141592026
 30
0.0
  0
SPLINE
  5
117
330
5B
100
AcDbEntity
  8
0
100
AcDbSpline
210
0.0
220
0.0
230
1.0
 70
     8
 71
     2
 72
     6
 73
     3
 74
     0
 42
0.00000001
 43
0.00000001
 12
1.0
 22
0.0
 32
0.0
 13
1.0
 23
0.0
 33
0.0
 40
2.0
 40
2.0
 40
2.0
 40
3.0
 40
3.0
 40
3.0
 10
21.97377408505358
 20
9.654989141592026
 30
0.0
 10
21.76453797441773
 20
9.445611272073664
 30
0.0
 10
21.23039050498965
 20
9.453408010613625
 30
0.0
  0
SPLINE
  5
118
330
5B
100
AcDbEntity
  8
0
100
AcDbSpline
210
0.0
220
0.0
230
1.0
 70
     8
 71
     3
 72
     8
 73
     4
 74
     0
 42
0.00000001
 43
0.00000001
 12
1.0
 22
0.0
 32
0.0
 13
1.0
 23
0.0
 33
0.0
 40
6.0
 40
6.0
 40
6.0
 40
6.0
 40
7.0
 40
7.0
 40
7.0
 40
7.0
 10
21.30155346402704
 20
8.59597940954257
 30
0.0
 10
21.85327903489065
 20
8.625890533759485
 30
0.0
 10
22.37041543841338
 20
8.733627284493354
 30
0.0
 10
22.79469977386939
 20
9.297047963166914
 30
0.0
  0
SPLINE
  5
119
330
5B
100
AcDbEntity
  8
0
100
AcDbSpline
210
0.0
220
0.0
230
1.0
 70
     8
 71
     3
 72
     8
 73
     4
 74
     0
 42
0.00000001
 43
0.00000001
 12
1.0
 22
0.0
 32
0.0
 13
1.0
 23
0.0
 33
0.0
 40
8.0
 40
8.0
 40
8.0
 40
8.0
 40
9.0
 40
9.0
 40
9.0
 40
9.0
 10
22.79469977386939
 20
9.297331480932005
 30
0.0
 10
22.96353460298002
 20
9.538605099022927
 30
0.0
 10
23.07609115572044
 20
9.822689899642315
 30
0.0
 10
23.11238142965186
 20
10.088629563296
 30
0.0
  0
SPLINE
  5
11A
330
5B
100
AcDbEntity
  8
0
100
AcDbSpline
210
0.0
220
0.0
230
1.0
 70
     8
 71
     3
 72
     8
 73
     4
 74
     0
 42
0.00000001
 43
0.00000001
 12
1.0
 22
0.0
 32
0.0
 13
1.0
 23
0.0
 33
0.0
 40
9.0
 40
9.0
 40
9.0
 40
9.0
 40
10.0
 40
10.0
 40
10.0
 40
10.0
 10
23.11238142965186
 20
10.088629563296
 30
0.0
 10
23.15887834312649
 20
10.42941791693324
 30
0.0
 10
23.09678795257196
 20
10.71612525687973
 30
0.0
 10
23.02704258236
 20
11.01041669704231
 30
0.0
  0
SPLINE
  5
11B
330
5B
100
AcDbEntity
  8
0
100
AcDbSpline
210
0.0
220
0.0
230
1.0
 70
     8
 71
     3
 72
     8
 73
     4
 74
     0
 42
0.00000001
 43
0.00000001
 12
1.0
 22
0.0
 32
0.0
 13
1.0
 23
0.0
 33
0.0
 40
10.0
 40
10.0
 40
10.0
 40
10.0
 40
11.0
 40
11.0
 40
11.0
 40
11.0
 10
23.02704258236
 20
11.01041669704231
 30
0.0
 10
22.982530293241
 20
11.19796369864881
 30
0.0
 10
22.7171576651175
 20
11.82099398743238
 30
0.0
 10
22.67859924906536
 20
11.90122951495261
 30
0.0
  0
SPLINE
  5
11C
330
5B
100
AcDbEntity
  8
0
100
AcDbSpline
210
0.0
220
0.0
230
1.0
 70
     8
 71
     3
 72
     8
 73
     4
 74
     0
 42
0.00000001
 43
0.00000001
 12
1.0
 22
0.0
 32
0.0
 13
1.0
 23
0.0
 33
0.0
 40
11.0
 40
11.0
 40
11.0
 40
11.0
 40
12.0
 40
12.0
 40
12.0
 40
12.0
 10
22.67859924906536
 20
11.90122951495261
 30
0.0
 10
22.49289511293193
 20
12.28582136329613
 30
0.0
 10
22.13651328221478
 20
12.88482352148837
 30
0.0
 10
22.02041275741075
 20
13.22568275456688
 30
0.0
  0
SPLINE
  5
11D
330
5B
100
AcDbEntity
  8
0
100
AcDbSpline
210
0.0
220
0.0
230
1.0
 70
     8
 71
     3
 72
     8
 73
     4
 74
     0
 42
0.00000001
 43
0.00000001
 12
1.0
 22
0.0
 32
0.0
 13
1.0
 23
0.0
 33
0.0
 40
12.0
 40
12.0
 40
12.0
 40
12.0
 40
13.0
 40
13.0
 40
13.0
 40
13.0
 10
22.02041275741075
 20
13.22568275456688
 30
0.0
 10
21.90417047372417
 20
13.56640022876286
 30
0.0
 10
21.9427288897763
 20
13.97693395261202
 30
0.0
 10
22.00467752144829
 20
14.14711549110683
 30
0.0
  0
SPLINE
  5
11E
330
5B
100
AcDbEntity
  8
0
100
AcDbSpline
210
0.0
220
0.0
230
1.0
 70
     8
 71
     3
 72
     8
 73
     4
 74
     0
 42
0.00000001
 43
0.00000001
 12
1.0
 22
0.0
 32
0.0
 13
1.0
 23
0.0
 33
0.0
 40
13.0
 40
13.0
 40
13.0
 40
13.0
 40
14.0
 40
14.0
 40
14.0
 40
14.0
 10
22.00467752144829
 20
14.14711549110683
 30
0.0
 10
22.06676791200283
 20
14.31750966792545
 30
0.0
 10
22.24481706847886
 20
14.46493890577188
 30
0.0
 10
22.42286622495489
 20
14.50349732182399
 30
0.0
  0
SPLINE
  5
11F
330
5B
100
AcDbEntity
  8
0
100
AcDbSpline
210
0.0
220
0.0
230
1.0
 70
     8
 71
     3
 72
     8
 73
     4
 74
     0
 42
0.00000001
 43
0.00000001
 12
1.0
 22
0.0
 32
0.0
 13
1.0
 23
0.0
 33
0.0
 40
14.0
 40
14.0
 40
14.0
 40
14.0
 40
15.0
 40
15.0
 40
15.0
 40
15.0
 10
22.42286622495489
 20
14.50349732182399
 30
0.0
 10
22.52351503156157
 20
14.52539906917713
 30
0.0
 10
22.6605958709822
 20
14.52242213264369
 30
0.0
 10
22.79469977386939
 20
14.51597210348793
 30
0.0
  0
SPLINE
  5
120
330
5B
100
AcDbEntity
  8
0
100
AcDbSpline
210
0.0
220
0.0
230
1.0
 70
     8
 71
     3
 72
     8
 73
     4
 74
     0
 42
0.00000001
 43
0.00000001
 12
1.0
 22
0.0
 32
0.0
 13
1.0
 23
0.0
 33
0.0
 40
17.0
 40
17.0
 40
17.0
 40
17.0
 40
18.0
 40
18.0
 40
18.0
 40
18.0
 10
22.44909161822564
 20
15.3285340182336
 30
0.0
 10
22.13849790657041
 20
15.3285340182336
 30
0.0
 10
21.76680611653844
 20
15.17954543267921
 30
0.0
 10
21.49363674987499
 20
14.89078258893584
 30
0.0
  0
SPLINE
  5
121
330
5B
100
AcDbEntity
  8
0
100
AcDbSpline
210
0.0
220
0.0
230
1.0
 70
     8
 71
     3
 72
     8
 73
     4
 74
     0
 42
0.00000001
 43
0.00000001
 12
1.0
 22
0.0
 32
0.0
 13
1.0
 23
0.0
 33
0.0
 40
18.0
 40
18.0
 40
18.0
 40
18.0
 40
19.0
 40
19.0
 40
19.0
 40
19.0
 10
21.49363674987499
 20
14.89078258893584
 30
0.0
 10
21.19977058636001
 20
14.5804723950457
 30
0.0
 10
21.02115439435381
 20
14.23252521783996
 30
0.0
 10
21.07530628748584
 20
13.57412608786154
 30
0.0
  0
SPLINE
  5
122
330
5B
100
AcDbEntity
  8
0
100
AcDbSpline
210
0.0
220
0.0
230
1.0
 70
     8
 71
     3
 72
     8
 73
     4
 74
     0
 42
0.00000001
 43
0.00000001
 12
1.0
 22
0.0
 32
0.0
 13
1.0
 23
0.0
 33
0.0
 40
19.0
 40
19.0
 40
19.0
 40
19.0
 40
20.0
 40
20.0
 40
20.0
 40
20.0
 10
21.07530628748584
 20
13.57412608786154
 30
0.0
 10
21.10620972388057
 20
13.17124734366976
 30
0.0
 10
21.20147169295055
 20
12.84683214096644
 30
0.0
 10
21.45465305717521
 20
12.39688944776983
 30
0.0
  0
SPLINE
  5
123
330
5B
100
AcDbEntity
  8
0
100
AcDbSpline
210
0.0
220
0.0
230
1.0
 70
     8
 71
     3
 72
     8
 73
     4
 74
     0
 42
0.00000001
 43
0.00000001
 12
1.0
 22
0.0
 32
0.0
 13
1.0
 23
0.0
 33
0.0
 40
2.0
 40
2.0
 40
2.0
 40
2.0
 40
3.0
 40
3.0
 40
3.0
 40
3.0
 10
7.402520307175909
 20
9.779028163818586
 30
0.0
 10
7.391392234896158
 20
9.555332647163173
 30
0.0
 10
7.206893049264348
 20
9.376999972922052
 30
0.0
 10
6.980291475516796
 20
9.376999972922052
 30
0.0
  0
SPLINE
  5
124
330
5B
100
AcDbEntity
  8
0
100
AcDbSpline
210
0.0
220
0.0
230
1.0
 70
     8
 71
     3
 72
     8
 73
     4
 74
     0
 42
0.00000001
 43
0.00000001
 12
1.0
 22
0.0
 32
0.0
 13
1.0
 23
0.0
 33
0.0
 40
3.0
 40
3.0
 40
3.0
 40
3.0
 40
4.0
 40
4.0
 40
4.0
 40
4.0
 10
6.980291475516796
 20
9.376999972922052
 30
0.0
 10
6.751138241883437
 20
9.376999972922052
 30
0.0
 10
6.564937949661092
 20
9.559301895874432
 30
0.0
 10
6.557779126092594
 20
9.786683143475988
 30
0.0
  0
SPLINE
  5
125
330
5B
100
AcDbEntity
  8
0
100
AcDbSpline
210
0.0
220
0.0
230
1.0
 70
     8
 71
     2
 72
     6
 73
     3
 74
     0
 42
0.00000001
 43
0.00000001
 12
1.0
 22
0.0
 32
0.0
 13
1.0
 23
0.0
 33
0.0
 40
6.0
 40
6.0
 40
6.0
 40
7.0
 40
7.0
 40
7.0
 10
5.714739051599811
 20
15.34185935319279
 30
0.0
 10
5.713888498304544
 20
9.698509118533215
 30
0.0
 10
5.713888498304544
 20
9.695815699764879
 30
0.0
  0
SPLINE
  5
126
330
5B
100
AcDbEntity
  8
0
100
AcDbSpline
210
0.0
220
0.0
230
1.0
 70
     8
 71
     3
 72
     8
 73
     4
 74
     0
 42
0.00000001
 43
0.00000001
 12
1.0
 22
0.0
 32
0.0
 13
1.0
 23
0.0
 33
0.0
 40
7.0
 40
7.0
 40
7.0
 40
7.0
 40
8.0
 40
8.0
 40
8.0
 40
8.0
 10
5.713888498304544
 20
9.695815699764879
 30
0.0
 10
5.713888498304544
 20
8.997582323791436
 30
0.0
 10
6.279931716305157
 20
8.431680864673364
 30
0.0
 10
6.978094212837349
 20
8.431680864673364
 30
0.0
  0
SPLINE
  5
127
330
5B
100
AcDbEntity
  8
0
100
AcDbSpline
210
0.0
220
0.0
230
1.0
 70
     8
 71
     3
 72
     8
 73
     4
 74
     0
 42
0.00000001
 43
0.00000001
 12
1.0
 22
0.0
 32
0.0
 13
1.0
 23
0.0
 33
0.0
 40
8.0
 40
8.0
 40
8.0
 40
8.0
 40
9.0
 40
9.0
 40
9.0
 40
9.0
 10
6.978094212837349
 20
8.431680864673364
 30
0.0
 10
7.676256709369548
 20
8.431680864673364
 30
0.0
 10
8.242299927370162
 20
8.997298806026343
 30
0.0
 10
8.242299927370162
 20
9.695815699764879
 30
0.0
  0
SPLINE
  5
128
330
5B
100
AcDbEntity
  8
0
100
AcDbSpline
210
0.0
220
0.0
230
1.0
 70
     8
 71
     2
 72
     6
 73
     3
 74
     0
 42
0.00000001
 43
0.00000001
 12
1.0
 22
0.0
 32
0.0
 13
1.0
 23
0.0
 33
0.0
 40
9.0
 40
9.0
 40
9.0
 40
10.0
 40
10.0
 40
10.0
 10
8.242299927370162
 20
9.695815699764879
 30
0.0
 10
8.242299927370162
 20
9.701060778419045
 30
0.0
 10
8.246552693846501
 20
15.34185935319279
 30
0.0
  0
SPLINE
  5
129
330
5B
100
AcDbEntity
  8
0
100
AcDbSpline
210
0.0
220
0.0
230
1.0
 70
     8
 71
     3
 72
     8
 73
     4
 74
     0
 42
0.00000001
 43
0.00000001
 12
1.0
 22
0.0
 32
0.0
 13
1.0
 23
0.0
 33
0.0
 40
2.0
 40
2.0
 40
2.0
 40
2.0
 40
3.0
 40
3.0
 40
3.0
 40
3.0
 10
25.33275080694805
 20
9.779028163818586
 30
0.0
 10
25.32155185522702
 20
9.555332647163173
 30
0.0
 10
25.13726530791903
 20
9.376999972922052
 30
0.0
 10
24.91073461361275
 20
9.376999972922052
 30
0.0
  0
SPLINE
  5
12A
330
5B
100
AcDbEntity
  8
0
100
AcDbSpline
210
0.0
220
0.0
230
1.0
 70
     8
 71
     3
 72
     8
 73
     4
 74
     0
 42
0.00000001
 43
0.00000001
 12
1.0
 22
0.0
 32
0.0
 13
1.0
 23
0.0
 33
0.0
 40
3.0
 40
3.0
 40
3.0
 40
3.0
 40
4.0
 40
4.0
 40
4.0
 40
4.0
 10
24.91073461361275
 20
9.376999972922052
 30
0.0
 10
24.68136874165558
 20
9.376999972922052
 30
0.0
 10
24.4952393288745
 20
9.559301895874432
 30
0.0
 10
24.48800962586473
 20
9.786683143475988
 30
0.0
  0
SPLINE
  5
12B
330
5B
100
AcDbEntity
  8
0
100
AcDbSpline
210
0.0
220
0.0
230
1.0
 70
     8
 71
     2
 72
     6
 73
     3
 74
     0
 42
0.00000001
 43
0.00000001
 12
1.0
 22
0.0
 32
0.0
 13
1.0
 23
0.0
 33
0.0
 40
6.0
 40
6.0
 40
6.0
 40
7.0
 40
7.0
 40
7.0
 10
23.64511131025449
 20
15.34185935319279
 30
0.0
 10
23.64426075695922
 20
9.698509118533215
 30
0.0
 10
23.64426075695922
 20
9.695815699764879
 30
0.0
  0
SPLINE
  5
12C
330
5B
100
AcDbEntity
  8
0
100
AcDbSpline
210
0.0
220
0.0
230
1.0
 70
     8
 71
     3
 72
     8
 73
     4
 74
     0
 42
0.00000001
 43
0.00000001
 12
1.0
 22
0.0
 32
0.0
 13
1.0
 23
0.0
 33
0.0
 40
7.0
 40
7.0
 40
7.0
 40
7.0
 40
8.0
 40
8.0
 40
8.0
 40
8.0
 10
23.64426075695922
 20
9.695815699764879
 30
0.0
 10
23.64426075695922
 20
8.997582323791436
 30
0.0
 10
24.2101622160773
 20
8.431680864673364
 30
0.0
 10
24.9083247126095
 20
8.431680864673364
 30
0.0
  0
SPLINE
  5
12D
330
5B
100
AcDbEntity
  8
0
100
AcDbSpline
210
0.0
220
0.0
230
1.0
 70
     8
 71
     3
 72
     8
 73
     4
 74
     0
 42
0.00000001
 43
0.00000001
 12
1.0
 22
0.0
 32
0.0
 13
1.0
 23
0.0
 33
0.0
 40
8.0
 40
8.0
 40
8.0
 40
8.0
 40
9.0
 40
9.0
 40
9.0
 40
9.0
 10
24.9083247126095
 20
8.431680864673364
 30
0.0
 10
25.60648720914169
 20
8.431680864673364
 30
0.0
 10
26.17267218602484
 20
8.997298806026343
 30
0.0
 10
26.17267218602484
 20
9.695815699764879
 30
0.0
  0
SPLINE
  5
12E
330
5B
100
AcDbEntity
  8
0
100
AcDbSpline
210
0.0
220
0.0
230
1.0
 70
     8
 71
     2
 72
     6
 73
     3
 74
     0
 42
0.00000001
 43
0.00000001
 12
1.0
 22
0.0
 32
0.0
 13
1.0
 23
0.0
 33
0.0
 40
9.0
 40
9.0
 40
9.0
 40
10.0
 40
10.0
 40
10.0
 10
26.17267218602484
 20
9.695815699764879
 30
0.0
 10
26.17267218602484
 20
9.701060778419045
 30
0.0
 10
26.17692495250119
 20
15.34185935319279
 30
0.0
  0
SPLINE
  5
12F
330
5B
100
AcDbEntity
  8
0
100
AcDbSpline
210
0.0
220
0.0
230
1.0
 70
     8
 71
     2
 72
     6
 73
     3
 74
     0
 42
0.00000001
 43
0.00000001
 12
1.0
 22
0.0
 32
0.0
 13
1.0
 23
0.0
 33
0.0
 40
3.0
 40
3.0
 40
3.0
 40
4.0
 40
4.0
 40
4.0
 10
14.45063018841125
 20
10.41538378756133
 30
0.0
 10
14.35969186525889
 20
10.27064796848328
 30
0.0
 10
14.18199710598922
 20
10.09600102518832
 30
0.0
  0
SPLINE
  5
130
330
5B
100
AcDbEntity
  8
0
100
AcDbSpline
210
0.0
220
0.0
230
1.0
 70
     8
 71
     3
 72
     8
 73
     4
 74
     0
 42
0.00000001
 43
0.00000001
 12
1.0
 22
0.0
 32
0.0
 13
1.0
 23
0.0
 33
0.0
 40
4.0
 40
4.0
 40
4.0
 40
4.0
 40
5.0
 40
5.0
 40
5.0
 40
5.0
 10
14.18199710598922
 20
10.09600102518832
 30
0.0
 10
13.69647293327394
 20
9.605231773818897
 30
0.0
 10
13.01900723359326
 20
9.300450176347976
 30
0.0
 10
12.26938626269738
 20
9.300450176347976
 30
0.0
  0
SPLINE
  5
131
330
5B
100
AcDbEntity
  8
0
100
AcDbSpline
210
0.0
220
0.0
230
1.0
 70
     8
 71
     3
 72
     8
 73
     4
 74
     0
 42
0.00000001
 43
0.00000001
 12
1.0
 22
0.0
 32
0.0
 13
1.0
 23
0.0
 33
0.0
 40
5.0
 40
5.0
 40
5.0
 40
5.0
 40
6.0
 40
6.0
 40
6.0
 40
6.0
 10
12.26938626269738
 20
9.300450176347976
 30
0.0
 10
10.79254222434765
 20
9.300450176347976
 30
0.0
 10
9.595246702375896
 20
10.48300277453512
 30
0.0
 10
9.595246702375896
 20
11.94219783200801
 30
0.0
  0
SPLINE
  5
132
330
5B
100
AcDbEntity
  8
0
100
AcDbSpline
210
0.0
220
0.0
230
1.0
 70
     8
 71
     3
 72
     8
 73
     4
 74
     0
 42
0.00000001
 43
0.00000001
 12
1.0
 22
0.0
 32
0.0
 13
1.0
 23
0.0
 33
0.0
 40
6.0
 40
6.0
 40
6.0
 40
6.0
 40
7.0
 40
7.0
 40
7.0
 40
7.0
 10
9.595246702375896
 20
11.94219783200801
 30
0.0
 10
9.595246702375896
 20
13.40096761283331
 30
0.0
 10
10.79254222434765
 20
14.58366196990294
 30
0.0
 10
12.26938626269738
 20
14.58366196990294
 30
0.0
  0
SPLINE
  5
133
330
5B
100
AcDbEntity
  8
0
100
AcDbSpline
210
0.0
220
0.0
230
1.0
 70
     8
 71
     3
 72
     8
 73
     4
 74
     0
 42
0.00000001
 43
0.00000001
 12
1.0
 22
0.0
 32
0.0
 13
1.0
 23
0.0
 33
0.0
 40
7.0
 40
7.0
 40
7.0
 40
7.0
 40
8.0
 40
8.0
 40
8.0
 40
8.0
 10
12.26938626269738
 20
14.58366196990294
 30
0.0
 10
13.16296337881731
 20
14.58366196990294
 30
0.0
 10
13.95355266676859
 20
14.15037594540535
 30
0.0
 10
14.50995628075617
 20
13.54215945984774
 30
0.0
  0
SPLINE
  5
134
330
5B
100
AcDbEntity
  8
0
100
AcDbSpline
210
0.0
220
0.0
230
1.0
 70
     8
 71
     3
 72
     8
 73
     4
 74
     0
 42
0.00000001
 43
0.00000001
 12
1.0
 22
0.0
 32
0.0
 13
1.0
 23
0.0
 33
0.0
 40
9.0
 40
9.0
 40
9.0
 40
9.0
 40
10.0
 40
10.0
 40
10.0
 40
10.0
 10
15.22002652342211
 20
14.08367839116812
 30
0.0
 10
14.4993952440066
 20
14.90127274624418
 30
0.0
 10
13.45172622256067
 20
15.46922970915913
 30
0.0
 10
12.26938626269738
 20
15.46922970915913
 30
0.0
  0
SPLINE
  5
135
330
5B
100
AcDbEntity
  8
0
100
AcDbSpline
210
0.0
220
0.0
230
1.0
 70
     8
 71
     3
 72
     8
 73
     4
 74
     0
 42
0.00000001
 43
0.00000001
 12
1.0
 22
0.0
 32
0.0
 13
1.0
 23
0.0
 33
0.0
 40
10.0
 40
10.0
 40
10.0
 40
10.0
 40
11.0
 40
11.0
 40
11.0
 40
11.0
 10
12.26938626269738
 20
15.46922970915913
 30
0.0
 10
10.2974493270606
 20
15.46922970915913
 30
0.0
 10
8.698692649722526
 20
13.89010663705348
 30
0.0
 10
8.698692649722526
 20
11.94219783200801
 30
0.0
  0
SPLINE
  5
136
330
5B
100
AcDbEntity
  8
0
100
AcDbSpline
210
0.0
220
0.0
230
1.0
 70
     8
 71
     3
 72
     8
 73
     4
 74
     0
 42
0.00000001
 43
0.00000001
 12
1.0
 22
0.0
 32
0.0
 13
1.0
 23
0.0
 33
0.0
 40
11.0
 40
11.0
 40
11.0
 40
11.0
 40
12.0
 40
12.0
 40
12.0
 40
12.0
 10
8.698692649722526
 20
11.94219783200801
 30
0.0
 10
8.698692649722526
 20
9.993934629756218
 30
0.0
 10
10.2974493270606
 20
8.414811557650523
 30
0.0
 10
12.26938626269738
 20
8.414811557650523
 30
0.0
  0
SPLINE
  5
137
330
5B
100
AcDbEntity
  8
0
100
AcDbSpline
210
0.0
220
0.0
230
1.0
 70
     8
 71
     3
 72
     8
 73
     4
 74
     0
 42
0.00000001
 43
0.00000001
 12
1.0
 22
0.0
 32
0.0
 13
1.0
 23
0.0
 33
0.0
 40
12.0
 40
12.0
 40
12.0
 40
12.0
 40
13.0
 40
13.0
 40
13.0
 40
13.0
 10
12.26938626269738
 20
8.414811557650523
 30
0.0
 10
13.33966582590916
 20
8.414811557650523
 30
0.0
 10
14.33247415981032
 20
8.880489486809598
 30
0.0
 10
14.98683316163622
 20
9.61742303771775
 30
0.0
  0
SPLINE
  5
138
330
5B
100
AcDbEntity
  8
0
100
AcDbSpline
210
0.0
220
0.0
230
1.0
 70
     8
 71
     2
 72
     6
 73
     3
 74
     0
 42
0.00000001
 43
0.00000001
 12
1.0
 22
0.0
 32
0.0
 13
1.0
 23
0.0
 33
0.0
 40
13.0
 40
13.0
 40
13.0
 40
14.0
 40
14.0
 40
14.0
 10
14.98683316163622
 20
9.61742303771775
 30
0.0
 10
15.15226577756578
 20
9.800291996200263
 30
0.0
 10
15.29168563854841
 20
10.02668093162401
 30
0.0
  0
ENDBLK
  5
5D
330
5B
100
AcDbEntity
  8
0
100
AcDbBlockEnd
  0
BLOCK
  5
13A
330
139
100
AcDbEntity
  8
0
100
AcDbBlockBegin
  2
ﾌﾞﾛｯｸ1
 70
     0
 10
0.0
 20
0.0
 30
0.0
  3
ﾌﾞﾛｯｸ1
  1

  0
CIRCLE
  5
13C
330
139
100
AcDbEntity
  8
9
  6
CONTINUOUS
 62
   179
100
AcDbCircle
 10
4.437888
 20
3.2320596145
 30
0.0
 40
1.109472
  0
CIRCLE
  5
13D
330
139
100
AcDbEntity
  8
9
  6
CONTINUOUS
 62
   179
100
AcDbCircle
 10
4.437888
 20
3.2320596145
 30
0.0
 40
2.218944
  0
LINE
  5
13E
330
139
100
AcDbEntity
  8
9
  6
CENTER
 62
   179
100
AcDbLine
 10
4.437888
 20
6.1328113459
 30
0.0
 11
4.437888
 21
0.0
 31
0.0
  0
LINE
  5
13F
330
139
100
AcDbEntity
  8
9
  6
CENTER
 62
   179
100
AcDbLine
 10
0.0
 20
3.2320596145
 30
0.0
 11
19.970496
 21
3.2320596145
 31
0.0
  0
LINE
  5
140
330
139
100
AcDbEntity
  8
9
  6
CONTINUOUS
 62
   179
100
AcDbLine
 10
9.985248
 20
2.1225876145
 30
0.0
 11
17.751552
 21
1.0131156145
 31
0.0
  0
LINE
  5
141
330
139
100
AcDbEntity
  8
9
  6
CONTINUOUS
 62
   179
100
AcDbLine
 10
17.751552
 20
1.0131156145
 30
0.0
 11
17.751552
 21
3.2320596145
 31
0.0
  0
LINE
  5
142
330
139
100
AcDbEntity
  8
9
  6
CONTINUOUS
 62
   179
100
AcDbLine
 10
9.985248
 20
4.3415316145
 30
0.0
 11
9.985248
 21
2.1225876145
 31
0.0
  0
LINE
  5
143
330
139
100
AcDbEntity
  8
9
  6
CONTINUOUS
 62
   179
100
AcDbLine
 10
17.751552
 20
3.2320596145
 30
0.0
 11
17.751552
 21
5.4510036145
 31
0.0
  0
LINE
  5
144
330
139
100
AcDbEntity
  8
9
  6
CONTINUOUS
 62
   179
100
AcDbLine
 10
17.751552
 20
5.4510036145
 30
0.0
 11
9.985248
 21
4.3415316145
 31
0.0
  0
ENDBLK
  5
13B
330
139
100
AcDbEntity
  8
0
100
AcDbBlockEnd
  0
ENDSEC
  0
SECTION
  2
ENTITIES
  0
INSERT
  5
147
330
1F
100
AcDbEntity
  8
0
  6
CONTINUOUS
 62
     7
100
AcDbBlockReference
 66
     1
  2
ﾌﾞﾛｯｸ2
 10
0.0
 20
0.0
 30
0.0
  0
ATTRIB
  5
148
330
147
100
AcDbEntity
  8
SLD-0
 62
     7
100
AcDbText
 10
78.3050930978
 20
15.2436365301
 30
0.0
 40
4.0
  1
LAD-BKT
  7
SLDTEXTSTYLE0
 11
78.3050930978
 21
14.5129490301
 31
0.0
100
AcDbAttribute
  2
AUTOATTR0
 70
     0
 74
     1
  0
ATTRIB
  5
149
330
147
100
AcDbEntity
  8
SLD-0
 62
     7
100
AcDbText
 10
78.3050930978
 20
9.1960786077
 30
0.0
 40
4.0
  1

  7
SLDTEXTSTYLE0
 11
78.3050930978
 21
8.4653911077
 31
0.0
100
AcDbAttribute
  2
AUTOATTR0
 70
     0
 74
     1
  0
ATTRIB
  5
14A
330
147
100
AcDbEntity
  8
SLD-0
 62
     7
100
AcDbText
 10
66.9646413579
 20
16.4366904365
 30
0.0
 40
2.38125
  1
Title
  7
SLDTEXTSTYLE0
 11
66.9646413579
 21
16.0017030342
 31
0.0
100
AcDbAttribute
  2
AUTOATTR0
 70
     0
 74
     1
  0
ATTRIB
  5
14B
330
147
100
AcDbEntity
  8
SLD-0
 62
     7
100
AcDbText
 10
66.9646413579
 20
2.045424785
 30
0.0
 40
2.38125
  1
Date
  7
SLDTEXTSTYLE0
 11
66.9646413579
 21
1.6104373826
 31
0.0
100
AcDbAttribute
  2
AUTOATTR0
 70
     0
 74
     1
  0
ATTRIB
  5
14C
330
147
100
AcDbEntity
  8
SLD-0
 62
     7
100
AcDbText
 10
51.857512217
 20
1.3458946457
 30
0.0
 40
4.0
  1
1:1
  7
SLDTEXTSTYLE0
 11
51.857512217
 21
0.6152071457
 31
0.0
100
AcDbAttribute
  2
AUTOATTR0
 70
     0
 74
     1
  0
ATTRIB
  5
14D
330
147
100
AcDbEntity
  8
SLD-0
 62
     7
100
AcDbText
 10
38.4275608796
 20
2.045424785
 30
0.0
 40
2.38125
  1
Scale
  7
SLDTEXTSTYLE0
 11
38.4275608796
 21
1.6104373826
 31
0.0
100
AcDbAttribute
  2
AUTOATTR0
 70
     0
 74
     1
  0
ATTRIB
  5
14E
330
147
100
AcDbEntity
  8
SLD-0
 62
     7
100
AcDbText
 10
78.3050930978
 20
1.3458946457
 30
0.0
 40
4.0
  1
2014/12/24
  7
SLDTEXTSTYLE0
 11
78.3050930978
 21
0.6152071457
 31
0.0
100
AcDbAttribute
  2
AUTOATTR0
 70
     0
 74
     1
  0
SEQEND
  5
14F
330
147
100
AcDbEntity
  8
0
  6
CONTINUOUS
 62
     7
  0
LINE
  5
150
330
1F
100
AcDbEntity
  8
0
  6
CONTINUOUS
 62
     7
100
AcDbLine
 10
287.5483715218
 20
165.3619278467
 30
0.0
 11
287.5483715218
 21
162.1619278467
 31
0.0
  0
LINE
  5
151
330
1F
100
AcDbEntity
  8
0
  6
CONTINUOUS
 62
     7
100
AcDbLine
 10
287.5483715218
 20
162.1619278467
 30
0.0
 11
283.5483715218
 21
162.1619278467
 31
0.0
  0
LINE
  5
152
330
1F
100
AcDbEntity
  8
0
  6
CONTINUOUS
 62
     7
100
AcDbLine
 10
283.5483715218
 20
165.3619278467
 30
0.0
 11
287.5483715218
 21
165.3619278467
 31
0.0
  0
LINE
  5
153
330
1F
100
AcDbEntity
  8
0
  6
CONTINUOUS
 62
     7
100
AcDbLine
 10
272.5483715218
 20
162.1619278467
 30
0.0
 11
283.5483715218
 21
162.1619278467
 31
0.0
  0
LINE
  5
154
330
1F
100
AcDbEntity
  8
0
  6
CONTINUOUS
 62
     7
100
AcDbLine
 10
272.5483715218
 20
165.3619278467
 30
0.0
 11
283.5483715218
 21
165.3619278467
 31
0.0
  0
LINE
  5
155
330
1F
100
AcDbEntity
  8
0
  6
CONTINUOUS
 62
     7
100
AcDbLine
 10
270.5483715218
 20
162.1619278467
 30
0.0
 11
270.5483715218
 21
165.3619278467
 31
0.0
  0
LINE
  5
156
330
1F
100
AcDbEntity
  8
0
  6
CONTINUOUS
 62
     7
100
AcDbLine
 10
272.5483715218
 20
162.1619278467
 30
0.0
 11
270.5483715218
 21
162.1619278467
 31
0.0
  0
LINE
  5
157
330
1F
100
AcDbEntity
  8
0
  6
CONTINUOUS
 62
     7
100
AcDbLine
 10
270.5483715218
 20
165.3619278467
 30
0.0
 11
272.5483715218
 21
165.3619278467
 31
0.0
  0
LINE
  5
158
330
1F
100
AcDbEntity
  8
0
  6
CONTINUOUS
 62
     7
100
AcDbLine
 10
267.5483715218
 20
165.3619278467
 30
0.0
 11
267.5483715218
 21
162.1619278467
 31
0.0
  0
ELLIPSE
  5
159
330
1F
100
AcDbEntity
  8
0
  6
CONTINUOUS
 62
     7
100
AcDbEllipse
 10
226.4322844049
 20
162.1619278467
 30
0.0
 11
2.617684889996667
 21
3.013417364887318
 31
0.0
210
0.0
220
0.0
230
1.0
 40
0.4113234866
 41
5.055558534197712
 42
6.626354860992599
  0
LINE
  5
15A
330
1F
100
AcDbEntity
  8
0
  6
CONTINUOUS
 62
     7
100
AcDbLine
 10
228.4802844049
 20
165.3619278467
 30
0.0
 11
267.5483715218
 21
165.3619278467
 31
0.0
  0
LINE
  5
15B
330
1F
100
AcDbEntity
  8
0
  6
CONTINUOUS
 62
     7
100
AcDbLine
 10
234.6029640851
 20
153.2619278467
 30
0.0
 11
237.1433319648
 21
153.2619278467
 31
0.0
  0
LINE
  5
15C
330
1F
100
AcDbEntity
  8
0
  6
CONTINUOUS
 62
     7
100
AcDbLine
 10
234.6029640851
 20
152.7847126568
 30
0.0
 11
234.6029640851
 21
153.2619278467
 31
0.0
  0
LINE
  5
15D
330
1F
100
AcDbEntity
  8
0
  6
CONTINUOUS
 62
     7
100
AcDbLine
 10
235.5614094964
 20
152.7847126568
 30
0.0
 11
234.6029640851
 21
152.7847126568
 31
0.0
  0
LINE
  5
15E
330
1F
100
AcDbEntity
  8
0
  6
CONTINUOUS
 62
     7
100
AcDbLine
 10
235.5614094964
 20
150.3619278467
 30
0.0
 11
235.5614094964
 21
152.7847126568
 31
0.0
  0
LINE
  5
15F
330
1F
100
AcDbEntity
  8
0
  6
CONTINUOUS
 62
     7
100
AcDbLine
 10
236.1854601294
 20
150.3619278467
 30
0.0
 11
235.5614094964
 21
150.3619278467
 31
0.0
  0
LINE
  5
160
330
1F
100
AcDbEntity
  8
0
  6
CONTINUOUS
 62
     7
100
AcDbLine
 10
236.1854601294
 20
152.7847126568
 30
0.0
 11
236.1854601294
 21
150.3619278467
 31
0.0
  0
LINE
  5
161
330
1F
100
AcDbEntity
  8
0
  6
CONTINUOUS
 62
     7
100
AcDbLine
 10
237.1433319648
 20
152.7847126568
 30
0.0
 11
236.1854601294
 21
152.7847126568
 31
0.0
  0
LINE
  5
162
330
1F
100
AcDbEntity
  8
0
  6
CONTINUOUS
 62
     7
100
AcDbLine
 10
237.1433319648
 20
153.2619278467
 30
0.0
 11
237.1433319648
 21
152.7847126568
 31
0.0
  0
SPLINE
  5
163
330
1F
100
AcDbEntity
  8
0
  6
CONTINUOUS
 62
     7
100
AcDbSpline
210
0.0
220
0.0
230
1.0
 70
     8
 71
     3
 72
    23
 73
    19
 74
     0
 42
0.00000001
 43
0.00000001
 12
1.0
 22
0.0
 32
0.0
 13
1.0
 23
0.0
 33
0.0
 40
0.0
 40
0.0
 40
0.0
 40
0.0
 40
0.0592527039802262
 40
0.1157617714405859
 40
0.1707450394336466
 40
0.2241430561386434
 40
0.2774223209022206
 40
0.3309060564085561
 40
0.3858821239362012
 40
0.4426089458439054
 40
0.5011027689277078
 40
0.5616022395049196
 40
0.6250626406162527
 40
0.6917524682309628
 40
0.7620834998094063
 40
0.8365681570516469
 40
0.9158880884164837
 40
1.0
 40
1.0
 40
1.0
 40
1.0
 10
231.1967259521426
 20
151.2624420871805
 30
0.0
 10
231.1960175877993
 20
151.2287233411944
 30
0.0
 10
231.1946336592071
 20
151.1628471616465
 30
0.0
 10
231.178723186993
 20
151.0668464825391
 30
0.0
 10
231.1555479592075
 20
150.9758100396673
 30
0.0
 10
231.1201287074532
 20
150.8907255133719
 30
0.0
 10
231.0767505368547
 20
150.8104774875485
 30
0.0
 10
231.0227372618394
 20
150.7357131425016
 30
0.0
 10
230.9584887916706
 20
150.6669782662814
 30
0.0
 10
230.8856782187962
 20
150.6029786703117
 30
0.0
 10
230.8032066444304
 20
150.5462197939681
 30
0.0
 10
230.7118949620406
 20
150.4966287904319
 30
0.0
 10
230.6116456617818
 20
150.4550048407233
 30
0.0
 10
230.5028694682404
 20
150.4205094735513
 30
0.0
 10
230.3853403833603
 20
150.3944837923665
 30
0.0
 10
230.2592301189741
 20
150.3757462602444
 30
0.0
 10
230.1243533248692
 20
150.3641930342649
 30
0.0
 10
230.0314344780278
 20
150.362697525791
 30
0.0
 10
229.9836128192312
 20
150.3619278466741
 30
0.0
  0
SPLINE
  5
164
330
1F
100
AcDbEntity
  8
0
  6
CONTINUOUS
 62
     7
100
AcDbSpline
210
0.0
220
0.0
230
1.0
 70
     8
 71
     3
 72
    23
 73
    19
 74
     0
 42
0.00000001
 43
0.00000001
 12
1.0
 22
0.0
 32
0.0
 13
1.0
 23
0.0
 33
0.0
 40
0.0
 40
0.0
 40
0.0
 40
0.0
 40
0.0735990656019031
 40
0.1438603708018301
 40
0.2107509676429647
 40
0.2749512027409804
 40
0.3368265859639648
 40
0.3963388640803038
 40
0.4543558108566531
 40
0.511493270169655
 40
0.5682646275756003
 40
0.6249020312346459
 40
0.6825093596675672
 40
0.7414053046493024
 40
0.8020554077232294
 40
0.8653208875972768
 40
0.9311973879690593
 40
1.0
 40
1.0
 40
1.0
 40
1.0
 10
230.5749696230287
 20
151.9880156631299
 30
0.0
 10
230.6000912324355
 20
151.982194460111
 30
0.0
 10
230.6491951716615
 20
151.9708160490136
 30
0.0
 10
230.7198638408935
 20
151.9491609792973
 30
0.0
 10
230.785500265054
 20
151.9231613137341
 30
0.0
 10
230.8465278129505
 20
151.8939506417252
 30
0.0
 10
230.9028464234802
 20
151.8613343763297
 30
0.0
 10
230.9543964065159
 20
151.8251925782554
 30
0.0
 10
231.0003958097523
 20
151.7846820546376
 30
0.0
 10
231.0419206225991
 20
151.740951997246
 30
0.0
 10
231.0788148859636
 20
151.6938357363736
 30
0.0
 10
231.1107070476072
 20
151.6429724471614
 30
0.0
 10
231.136929188276
 20
151.5881598981231
 30
0.0
 10
231.158739402625
 20
151.5299959623325
 30
0.0
 10
231.1762017923174
 20
151.4682742046742
 30
0.0
 10
231.1877974082415
 20
151.4027392372465
 30
0.0
 10
231.1956584893932
 20
151.3337566235784
 30
0.0
 10
231.1963650144436
 20
151.2865554388518
 30
0.0
 10
231.1967259521426
 20
151.2624420871805
 30
0.0
  0
LINE
  5
165
330
1F
100
AcDbEntity
  8
0
  6
CONTINUOUS
 62
     7
100
AcDbLine
 10
230.574969623
 20
152.0040757897
 30
0.0
 11
230.574969623
 21
151.9880156631
 31
0.0
  0
SPLINE
  5
166
330
1F
100
AcDbEntity
  8
0
  6
CONTINUOUS
 62
     7
100
AcDbSpline
210
0.0
220
0.0
230
1.0
 70
     8
 71
     3
 72
    15
 73
    11
 74
     0
 42
0.00000001
 43
0.00000001
 12
1.0
 22
0.0
 32
0.0
 13
1.0
 23
0.0
 33
0.0
 40
0.0
 40
0.0
 40
0.0
 40
0.0
 40
0.1281870048705883
 40
0.2500438873473221
 40
0.3680240042355671
 40
0.484298772959382
 40
0.6033848244214485
 40
0.7272764431925974
 40
0.8586025914598575
 40
0.9999999999999999
 40
0.9999999999999999
 40
0.9999999999999999
 40
0.9999999999999999
 10
230.9931064901173
 20
152.6057569605982
 30
0.0
 10
230.9920765791969
 20
152.5723747849812
 30
0.0
 10
230.9900676163506
 20
152.507258910187
 30
0.0
 10
230.9690802949654
 20
152.4133471328577
 30
0.0
 10
230.936479482007
 20
152.3263723677372
 30
0.0
 10
230.8904838353335
 20
152.2462776927535
 30
0.0
 10
230.8303717090702
 20
152.1742503541255
 30
0.0
 10
230.7578747924437
 20
152.1088783375983
 30
0.0
 10
230.6719927501629
 20
152.0510270436004
 30
0.0
 10
230.6080971869368
 20
152.0201068197324
 30
0.0
 10
230.5749696230287
 20
152.0040757897121
 30
0.0
  0
SPLINE
  5
167
330
1F
100
AcDbEntity
  8
0
  6
CONTINUOUS
 62
     7
100
AcDbSpline
210
0.0
220
0.0
230
1.0
 70
     8
 71
     3
 72
    23
 73
    19
 74
     0
 42
0.00000001
 43
0.00000001
 12
1.0
 22
0.0
 32
0.0
 13
1.0
 23
0.0
 33
0.0
 40
0.0
 40
0.0
 40
0.0
 40
0.0
 40
0.1073082757200269
 40
0.205612915967315
 40
0.295449632329669
 40
0.3770797633811661
 40
0.4499993257595569
 40
0.5154571717153016
 40
0.5739079444751786
 40
0.6257812433667655
 40
0.6739699322512956
 40
0.720243107672448
 40
0.7652925958329422
 40
0.8099888504263497
 40
0.8553521422123955
 40
0.9016034146517645
 40
0.9497079205865128
 40
1.0
 40
1.0
 40
1.0
 40
1.0
 10
229.8356302242945
 20
153.2619278466741
 30
0.0
 10
229.8895580800827
 20
153.2613901434472
 30
0.0
 10
229.9928890077869
 20
153.2603598526548
 30
0.0
 10
230.1411820122425
 20
153.2522598084145
 30
0.0
 10
230.2762135470645
 20
153.2396234908076
 30
0.0
 10
230.3976577653079
 20
153.220899754395
 30
0.0
 10
230.5057796076024
 20
153.1972941881449
 30
0.0
 10
230.6002652004442
 20
153.1676002654566
 30
0.0
 10
230.6818313395879
 20
153.1332039619885
 30
0.0
 10
230.7506016237799
 20
153.0924023982927
 30
0.0
 10
230.8078703034561
 20
153.0460346845079
 30
0.0
 10
230.8580504526344
 20
152.9968056853972
 30
0.0
 10
230.899307507654
 20
152.9420862750102
 30
0.0
 10
230.9346233870277
 20
152.883877523629
 30
0.0
 10
230.9606180298576
 20
152.8202523735959
 30
0.0
 10
230.9799028892908
 20
152.7525949884446
 30
0.0
 10
230.9905939460375
 20
152.6804682977321
 30
0.0
 10
230.992256653537
 20
152.6310271350681
 30
0.0
 10
230.9931064901173
 20
152.6057569605982
 30
0.0
  0
LINE
  5
168
330
1F
100
AcDbEntity
  8
0
  6
CONTINUOUS
 62
     7
100
AcDbLine
 10
228.773941142
 20
153.2619278467
 30
0.0
 11
229.8356302243
 21
153.2619278467
 31
0.0
  0
LINE
  5
169
330
1F
100
AcDbEntity
  8
0
  6
CONTINUOUS
 62
     7
100
AcDbLine
 10
228.773941142
 20
150.3619278467
 30
0.0
 11
228.773941142
 21
153.2619278467
 31
0.0
  0
LINE
  5
16A
330
1F
100
AcDbEntity
  8
0
  6
CONTINUOUS
 62
     7
100
AcDbLine
 10
229.9836128192
 20
150.3619278467
 30
0.0
 11
228.773941142
 21
150.3619278467
 31
0.0
  0
SPLINE
  5
16B
330
1F
100
AcDbEntity
  8
0
  6
CONTINUOUS
 62
     7
100
AcDbSpline
210
0.0
220
0.0
230
1.0
 70
     8
 71
     3
 72
    31
 73
    27
 74
     0
 42
0.00000001
 43
0.00000001
 12
1.0
 22
0.0
 32
0.0
 13
1.0
 23
0.0
 33
0.0
 40
0.0
 40
0.0
 40
0.0
 40
0.0
 40
0.0425496103914173
 40
0.0841044288885468
 40
0.1251244411647407
 40
0.165241307217171
 40
0.2051740678709795
 40
0.2445441490396862
 40
0.2842165660044195
 40
0.3238986557870022
 40
0.3631789503338757
 40
0.4014997816900512
 40
0.4390169794758558
 40
0.4761282478323633
 40
0.5128841309703742
 40
0.549673412108511
 40
0.5866063761646628
 40
0.6238353523832826
 40
0.6621882189936696
 40
0.7028920209078213
 40
0.7459081061818709
 40
0.7910713701139069
 40
0.8392822457258388
 40
0.8899725336609019
 40
0.9434396270124429
 40
1.0
 40
1.0
 40
1.0
 40
1.0
 10
226.0978651926489
 20
151.8090599669273
 30
0.0
 10
226.097096439185
 20
151.7731021141596
 30
0.0
 10
226.095576905388
 20
151.7020270880132
 30
0.0
 10
226.0867178265555
 20
151.5965267856467
 30
0.0
 10
226.0696209250765
 20
151.4941773622836
 30
0.0
 10
226.0475994824075
 20
151.3941690613279
 30
0.0
 10
226.0180217690641
 20
151.297588225078
 30
0.0
 10
225.9832797749378
 20
151.2031244978002
 30
0.0
 10
225.9403455023511
 20
151.1123277061099
 30
0.0
 10
225.8927137508095
 20
151.0240140568833
 30
0.0
 10
225.8387167047374
 20
150.9407829027999
 30
0.0
 10
225.7810077802834
 20
150.862353348559
 30
0.0
 10
225.718119221843
 20
150.7903819361488
 30
0.0
 10
225.6508905973394
 20
150.7243647931118
 30
0.0
 10
225.5795093406077
 20
150.6638075529524
 30
0.0
 10
225.5037208802322
 20
150.609062073722
 30
0.0
 10
225.4230600617985
 20
150.5610500645049
 30
0.0
 10
225.3381490438949
 20
150.5180364665832
 30
0.0
 10
225.246926321233
 20
150.4811599159106
 30
0.0
 10
225.1487273970831
 20
150.4493169062158
 30
0.0
 10
225.0432932667092
 20
150.4216371903093
 30
0.0
 10
224.9299627565331
 20
150.4001586839114
 30
0.0
 10
224.8093570345014
 20
150.3831827046015
 30
0.0
 10
224.6811618335577
 20
150.3705604799868
 30
0.0
 10
224.5454779142424
 20
150.3630325919051
 30
0.0
 10
224.4524768331188
 20
150.3623029328903
 30
0.0
 10
224.4046689901173
 20
150.3619278466741
 30
0.0
  0
SPLINE
  5
16C
330
1F
100
AcDbEntity
  8
0
  6
CONTINUOUS
 62
     7
100
AcDbSpline
210
0.0
220
0.0
230
1.0
 70
     8
 71
     3
 72
    31
 73
    27
 74
     0
 42
0.00000001
 43
0.00000001
 12
1.0
 22
0.0
 32
0.0
 13
1.0
 23
0.0
 33
0.0
 40
0.0
 40
0.0
 40
0.0
 40
0.0
 40
0.0584244238750395
 40
0.1135614848258115
 40
0.1654983371218962
 40
0.2145296796130591
 40
0.2603148379606042
 40
0.3035264142617801
 40
0.3440128534498879
 40
0.3819604339492467
 40
0.4184955757033181
 40
0.4545392714003497
 40
0.4901853538008505
 40
0.5258075367133146
 40
0.5612647979635785
 40
0.5972500714541269
 40
0.6335099398066124
 40
0.6705083463138662
 40
0.7080744677374
 40
0.7462333433251434
 40
0.7852432916506853
 40
0.8252724180359128
 40
0.8666674032508498
 40
0.9093992537941321
 40
0.9538790713321205
 40
0.9999999999999999
 40
0.9999999999999999
 40
0.9999999999999999
 40
0.9999999999999999
 10
224.3966389268261
 20
153.2619278466741
 30
0.0
 10
224.4465494511478
 20
153.2615527069087
 30
0.0
 10
224.5435621878505
 20
153.2608235353405
 30
0.0
 10
224.6847877333543
 20
153.2533250079948
 30
0.0
 10
224.8175763981205
 20
153.2407377062293
 30
0.0
 10
224.9418060295742
 20
153.2237132329294
 30
0.0
 10
225.0578328021561
 20
153.2023358238278
 30
0.0
 10
225.1650086612438
 20
153.1746846786218
 30
0.0
 10
225.2639911257761
 20
153.142822967156
 30
0.0
 10
225.3550626993464
 20
153.1058076717763
 30
0.0
 10
225.4396214924404
 20
153.0636000381509
 30
0.0
 10
225.5189036337116
 20
153.0158632840944
 30
0.0
 10
225.5937186184173
 20
152.9627775390728
 30
0.0
 10
225.6644318187226
 20
152.9050847543201
 30
0.0
 10
225.7301348394688
 20
152.8413364546572
 30
0.0
 10
225.7916086565112
 20
152.7727544684332
 30
0.0
 10
225.8477245193152
 20
152.6980999640257
 30
0.0
 10
225.9002914752311
 20
152.6192654277737
 30
0.0
 10
225.9464655518412
 20
152.5346587352746
 30
0.0
 10
225.9877456046055
 20
152.4456480442954
 30
0.0
 10
226.0210825776911
 20
152.351130132172
 30
0.0
 10
226.0494989121277
 20
152.2521929533075
 30
0.0
 10
226.0711432877094
 20
152.1482596661028
 30
0.0
 10
226.0863008672707
 20
152.0394118510078
 30
0.0
 10
226.0966132246067
 20
151.9258852521786
 30
0.0
 10
226.0974428607193
 20
151.8484691582838
 30
0.0
 10
226.0978651926489
 20
151.8090599669273
 30
0.0
  0
LINE
  5
16D
330
1F
100
AcDbEntity
  8
0
  6
CONTINUOUS
 62
     7
100
AcDbLine
 10
223.4915360787
 20
153.2619278467
 30
0.0
 11
224.3966389268
 21
153.2619278467
 31
0.0
  0
LINE
  5
16E
330
1F
100
AcDbEntity
  8
0
  6
CONTINUOUS
 62
     7
100
AcDbLine
 10
223.4915360787
 20
150.3619278467
 30
0.0
 11
223.4915360787
 21
153.2619278467
 31
0.0
  0
LINE
  5
16F
330
1F
100
AcDbEntity
  8
0
  6
CONTINUOUS
 62
     7
100
AcDbLine
 10
224.4046689901
 20
150.3619278467
 30
0.0
 11
223.4915360787
 21
150.3619278467
 31
0.0
  0
LINE
  5
170
330
1F
100
AcDbEntity
  8
0
  6
CONTINUOUS
 62
     7
100
AcDbLine
 10
218.5395107623
 20
150.8391430365
 30
0.0
 11
219.9252702559
 21
150.8391430365
 31
0.0
  0
LINE
  5
171
330
1F
100
AcDbEntity
  8
0
  6
CONTINUOUS
 62
     7
100
AcDbLine
 10
218.5395107623
 20
153.2619278467
 30
0.0
 11
218.5395107623
 21
150.8391430365
 31
0.0
  0
LINE
  5
172
330
1F
100
AcDbEntity
  8
0
  6
CONTINUOUS
 62
     7
100
AcDbLine
 10
217.9154601294
 20
153.2619278467
 30
0.0
 11
218.5395107623
 21
153.2619278467
 31
0.0
  0
LINE
  5
173
330
1F
100
AcDbEntity
  8
0
  6
CONTINUOUS
 62
     7
100
AcDbLine
 10
217.9154601294
 20
150.3619278467
 30
0.0
 11
217.9154601294
 21
153.2619278467
 31
0.0
  0
LINE
  5
174
330
1F
100
AcDbEntity
  8
0
  6
CONTINUOUS
 62
     7
100
AcDbLine
 10
219.9252702559
 20
150.3619278467
 30
0.0
 11
217.9154601294
 21
150.3619278467
 31
0.0
  0
LINE
  5
175
330
1F
100
AcDbEntity
  8
0
  6
CONTINUOUS
 62
     7
100
AcDbLine
 10
219.9252702559
 20
150.8391430365
 30
0.0
 11
219.9252702559
 21
150.3619278467
 31
0.0
  0
CIRCLE
  5
176
330
1F
100
AcDbEntity
  8
0
  6
CONTINUOUS
 62
     7
100
AcDbCircle
 10
209.5483715218
 20
143.3619278467
 30
0.0
 40
2.0
  0
CIRCLE
  5
177
330
1F
100
AcDbEntity
  8
0
  6
CONTINUOUS
 62
     7
100
AcDbCircle
 10
207.5483715218
 20
155.3619278467
 30
0.0
 40
2.0
  0
CIRCLE
  5
178
330
1F
100
AcDbEntity
  8
0
  6
CONTINUOUS
 62
     7
100
AcDbCircle
 10
195.5483715218
 20
155.3619278467
 30
0.0
 40
2.0
  0
CIRCLE
  5
179
330
1F
100
AcDbEntity
  8
0
  6
CONTINUOUS
 62
     7
100
AcDbCircle
 10
257.5483715218
 20
143.3619278467
 30
0.0
 40
2.0
  0
CIRCLE
  5
17A
330
1F
100
AcDbEntity
  8
0
  6
CONTINUOUS
 62
     7
100
AcDbCircle
 10
259.5483715218
 20
155.3619278467
 30
0.0
 40
2.0
  0
CIRCLE
  5
17B
330
1F
100
AcDbEntity
  8
0
  6
CONTINUOUS
 62
     7
100
AcDbCircle
 10
197.5483715218
 20
143.3619278467
 30
0.0
 40
2.0
  0
CIRCLE
  5
17C
330
1F
100
AcDbEntity
  8
0
  6
CONTINUOUS
 62
     7
100
AcDbCircle
 10
247.5483715218
 20
155.3619278467
 30
0.0
 40
2.0
  0
CIRCLE
  5
17D
330
1F
100
AcDbEntity
  8
0
  6
CONTINUOUS
 62
     7
100
AcDbCircle
 10
245.5483715218
 20
143.3619278467
 30
0.0
 40
2.0
  0
LINE
  5
17E
330
1F
100
AcDbEntity
  8
0
  6
CONTINUOUS
 62
     7
100
AcDbLine
 10
187.5483715218
 20
149.3619278467
 30
0.0
 11
187.5483715218
 21
162.1619278467
 31
0.0
  0
LINE
  5
17F
330
1F
100
AcDbEntity
  8
0
  6
CONTINUOUS
 62
     7
100
AcDbLine
 10
227.5483715218
 20
160.7058139667
 30
0.0
 11
226.6164586386
 21
162.1619278467
 31
0.0
  0
LINE
  5
180
330
1F
100
AcDbEntity
  8
0
  6
CONTINUOUS
 62
     7
100
AcDbLine
 10
227.5483715218
 20
160.7058139667
 30
0.0
 11
228.4802844049
 21
162.1619278467
 31
0.0
  0
LINE
  5
181
330
1F
100
AcDbEntity
  8
0
  6
CONTINUOUS
 62
     7
100
AcDbLine
 10
267.5483715218
 20
149.3619278467
 30
0.0
 11
267.5483715218
 21
162.1619278467
 31
0.0
  0
ARC
  5
182
330
1F
100
AcDbEntity
  8
0
  6
CONTINUOUS
 62
     7
100
AcDbCircle
 10
254.5061492995
 20
149.3619278467
 30
0.0
 40
13.04222222222225
100
AcDbArc
 50
294.6594017067
 51
0.0
  0
ARC
  5
183
330
1F
100
AcDbEntity
  8
0
  6
CONTINUOUS
 62
     7
100
AcDbCircle
 10
257.4443279577
 20
142.9619278467
 30
0.0
 40
6.000000000000036
100
AcDbArc
 50
270.0
 51
294.6594017067
  0
LINE
  5
184
330
1F
100
AcDbEntity
  8
0
  6
CONTINUOUS
 62
     7
100
AcDbLine
 10
197.6524150858
 20
136.9619278467
 30
0.0
 11
257.4443279577
 21
136.9619278467
 31
0.0
  0
ARC
  5
185
330
1F
100
AcDbEntity
  8
0
  6
CONTINUOUS
 62
     7
100
AcDbCircle
 10
197.6524150858
 20
142.9619278467
 30
0.0
 40
6.000000000000013
100
AcDbArc
 50
245.3405982933
 51
270.0
  0
ARC
  5
186
330
1F
100
AcDbEntity
  8
0
  6
CONTINUOUS
 62
     7
100
AcDbCircle
 10
200.590593744
 20
149.3619278467
 30
0.0
 40
13.04222222222222
100
AcDbArc
 50
180.0
 51
245.3405982933
  0
LINE
  5
187
330
1F
100
AcDbEntity
  8
0
  6
CONTINUOUS
 62
     7
100
AcDbLine
 10
221.1904640851
 20
153.2619278467
 30
0.0
 11
221.905139718
 21
153.2619278467
 31
0.0
  0
LINE
  5
188
330
1F
100
AcDbEntity
  8
0
  6
CONTINUOUS
 62
     7
100
AcDbLine
 10
220.0794474711
 20
150.3619278467
 30
0.0
 11
221.1904640851
 21
153.2619278467
 31
0.0
  0
LINE
  5
189
330
1F
100
AcDbEntity
  8
0
  6
CONTINUOUS
 62
     7
100
AcDbLine
 10
220.726441142
 20
150.3619278467
 30
0.0
 11
220.0794474711
 21
150.3619278467
 31
0.0
  0
LINE
  5
18A
330
1F
100
AcDbEntity
  8
0
  6
CONTINUOUS
 62
     7
100
AcDbLine
 10
220.9380906673
 20
150.9492696188
 30
0.0
 11
220.726441142
 21
150.3619278467
 31
0.0
  0
LINE
  5
18B
330
1F
100
AcDbEntity
  8
0
  6
CONTINUOUS
 62
     7
100
AcDbLine
 10
222.1294079142
 20
150.9492696188
 30
0.0
 11
220.9380906673
 21
150.9492696188
 31
0.0
  0
LINE
  5
18C
330
1F
100
AcDbEntity
  8
0
  6
CONTINUOUS
 62
     7
100
AcDbLine
 10
222.3404838635
 20
150.3619278467
 30
0.0
 11
222.1294079142
 21
150.9492696188
 31
0.0
  0
LINE
  5
18D
330
1F
100
AcDbEntity
  8
0
  6
CONTINUOUS
 62
     7
100
AcDbLine
 10
223.0161563319
 20
150.3619278467
 30
0.0
 11
222.3404838635
 21
150.3619278467
 31
0.0
  0
LINE
  5
18E
330
1F
100
AcDbEntity
  8
0
  6
CONTINUOUS
 62
     7
100
AcDbLine
 10
221.905139718
 20
153.2619278467
 30
0.0
 11
223.0161563319
 21
150.3619278467
 31
0.0
  0
LINE
  5
18F
330
1F
100
AcDbEntity
  8
0
  6
CONTINUOUS
 62
     7
100
AcDbLine
 10
226.646662661
 20
151.9036999986
 30
0.0
 11
228.0415993699
 21
151.9036999986
 31
0.0
  0
LINE
  5
190
330
1F
100
AcDbEntity
  8
0
  6
CONTINUOUS
 62
     7
100
AcDbLine
 10
226.646662661
 20
151.3897759479
 30
0.0
 11
226.646662661
 21
151.9036999986
 31
0.0
  0
LINE
  5
191
330
1F
100
AcDbEntity
  8
0
  6
CONTINUOUS
 62
     7
100
AcDbLine
 10
228.0415993699
 20
151.3897759479
 30
0.0
 11
226.646662661
 21
151.3897759479
 31
0.0
  0
LINE
  5
192
330
1F
100
AcDbEntity
  8
0
  6
CONTINUOUS
 62
     7
100
AcDbLine
 10
228.0415993699
 20
151.9036999986
 30
0.0
 11
228.0415993699
 21
151.3897759479
 31
0.0
  0
LINE
  5
193
330
1F
100
AcDbEntity
  8
0
  6
CONTINUOUS
 62
     7
100
AcDbLine
 10
234.3518525344
 20
153.2619278467
 30
0.0
 11
233.1605352876
 21
151.9145979416
 31
0.0
  0
LINE
  5
194
330
1F
100
AcDbEntity
  8
0
  6
CONTINUOUS
 62
     7
100
AcDbLine
 10
233.6079245281
 20
153.2619278467
 30
0.0
 11
234.3518525344
 21
153.2619278467
 31
0.0
  0
LINE
  5
195
330
1F
100
AcDbEntity
  8
0
  6
CONTINUOUS
 62
     7
100
AcDbLine
 10
232.4429917749
 20
151.8841984163
 30
0.0
 11
233.6079245281
 21
153.2619278467
 31
0.0
  0
LINE
  5
196
330
1F
100
AcDbEntity
  8
0
  6
CONTINUOUS
 62
     7
100
AcDbLine
 10
232.4429917749
 20
153.2619278467
 30
0.0
 11
232.4429917749
 21
151.8841984163
 31
0.0
  0
LINE
  5
197
330
1F
100
AcDbEntity
  8
0
  6
CONTINUOUS
 62
     7
100
AcDbLine
 10
231.818941142
 20
153.2619278467
 30
0.0
 11
232.4429917749
 21
153.2619278467
 31
0.0
  0
LINE
  5
198
330
1F
100
AcDbEntity
  8
0
  6
CONTINUOUS
 62
     7
100
AcDbLine
 10
231.818941142
 20
150.3619278467
 30
0.0
 11
231.818941142
 21
153.2619278467
 31
0.0
  0
LINE
  5
199
330
1F
100
AcDbEntity
  8
0
  6
CONTINUOUS
 62
     7
100
AcDbLine
 10
232.4429917749
 20
150.3619278467
 30
0.0
 11
231.818941142
 21
150.3619278467
 31
0.0
  0
LINE
  5
19A
330
1F
100
AcDbEntity
  8
0
  6
CONTINUOUS
 62
     7
100
AcDbLine
 10
232.4429917749
 20
151.3180789543
 30
0.0
 11
232.4429917749
 21
150.3619278467
 31
0.0
  0
LINE
  5
19B
330
1F
100
AcDbEntity
  8
0
  6
CONTINUOUS
 62
     7
100
AcDbLine
 10
232.6615242116
 20
151.5629958846
 30
0.0
 11
232.4429917749
 21
151.3180789543
 31
0.0
  0
LINE
  5
19C
330
1F
100
AcDbEntity
  8
0
  6
CONTINUOUS
 62
     7
100
AcDbLine
 10
233.6291468382
 20
150.3619278467
 30
0.0
 11
232.6615242116
 21
151.5629958846
 31
0.0
  0
LINE
  5
19D
330
1F
100
AcDbEntity
  8
0
  6
CONTINUOUS
 62
     7
100
AcDbLine
 10
234.4252702559
 20
150.3619278467
 30
0.0
 11
233.6291468382
 21
150.3619278467
 31
0.0
  0
LINE
  5
19E
330
1F
100
AcDbEntity
  8
0
  6
CONTINUOUS
 62
     7
100
AcDbLine
 10
233.1605352876
 20
151.9145979416
 30
0.0
 11
234.4252702559
 21
150.3619278467
 31
0.0
  0
LINE
  5
19F
330
1F
100
AcDbEntity
  8
0
  6
CONTINUOUS
 62
     7
100
AcDbLine
 10
222.378437508
 20
145.4692900106
 30
0.0
 11
222.378437508
 21
146.3522179703
 31
0.0
  0
LINE
  5
1A0
330
1F
100
AcDbEntity
  8
0
  6
CONTINUOUS
 62
     7
100
AcDbLine
 10
222.378437508
 20
146.3522179703
 30
0.0
 11
220.6107819485
 21
146.3522179703
 31
0.0
  0
LINE
  5
1A1
330
1F
100
AcDbEntity
  8
0
  6
CONTINUOUS
 62
     7
100
AcDbLine
 10
220.6107819485
 20
146.3522179703
 30
0.0
 11
220.6107819485
 21
148.46929001
 31
0.0
  0
LINE
  5
1A2
330
1F
100
AcDbEntity
  8
0
  6
CONTINUOUS
 62
     7
100
AcDbLine
 10
220.6107819485
 20
148.46929001
 30
0.0
 11
219.2083715218
 21
148.46929001
 31
0.0
  0
LINE
  5
1A3
330
1F
100
AcDbEntity
  8
0
  6
CONTINUOUS
 62
     7
100
AcDbLine
 10
219.2083715218
 20
148.46929001
 30
0.0
 11
219.2083715218
 21
145.4692900106
 31
0.0
  0
LINE
  5
1A4
330
1F
100
AcDbEntity
  8
0
  6
CONTINUOUS
 62
     7
100
AcDbLine
 10
219.2083715218
 20
145.4692900106
 30
0.0
 11
222.378437508
 21
145.4692900106
 31
0.0
  0
LINE
  5
1A5
330
1F
100
AcDbEntity
  8
0
  6
CONTINUOUS
 62
     7
100
AcDbLine
 10
227.3871630346
 20
145.451252709
 30
0.0
 11
228.508461502
 21
145.451252709
 31
0.0
  0
LINE
  5
1A6
330
1F
100
AcDbEntity
  8
0
  6
CONTINUOUS
 62
     7
100
AcDbLine
 10
228.508461502
 20
145.451252709
 30
0.0
 11
228.508461502
 21
146.6951312058
 31
0.0
  0
LINE
  5
1A7
330
1F
100
AcDbEntity
  8
0
  6
CONTINUOUS
 62
     7
100
AcDbLine
 10
228.508461502
 20
146.6951312058
 30
0.0
 11
229.085205244
 21
145.451252709
 31
0.0
  0
LINE
  5
1A8
330
1F
100
AcDbEntity
  8
0
  6
CONTINUOUS
 62
     7
100
AcDbLine
 10
229.085205244
 20
145.451252709
 30
0.0
 11
229.9375393225
 21
145.451252709
 31
0.0
  0
LINE
  5
1A9
330
1F
100
AcDbEntity
  8
0
  6
CONTINUOUS
 62
     7
100
AcDbLine
 10
229.9375393225
 20
145.451252709
 30
0.0
 11
230.526921446
 21
146.6884643573
 31
0.0
  0
LINE
  5
1AA
330
1F
100
AcDbEntity
  8
0
  6
CONTINUOUS
 62
     7
100
AcDbLine
 10
230.526921446
 20
146.6884643573
 30
0.0
 11
230.526921446
 21
145.451252709
 31
0.0
  0
LINE
  5
1AB
330
1F
100
AcDbEntity
  8
0
  6
CONTINUOUS
 62
     7
100
AcDbLine
 10
230.526921446
 20
145.451252709
 30
0.0
 11
231.6500604543
 21
145.451252709
 31
0.0
  0
LINE
  5
1AC
330
1F
100
AcDbEntity
  8
0
  6
CONTINUOUS
 62
     7
100
AcDbLine
 10
231.6500604543
 20
145.451252709
 30
0.0
 11
231.6500604543
 21
148.4150554024
 31
0.0
  0
LINE
  5
1AD
330
1F
100
AcDbEntity
  8
0
  6
CONTINUOUS
 62
     7
100
AcDbLine
 10
231.6500604543
 20
148.4150554024
 30
0.0
 11
230.254316876
 21
148.4150554024
 31
0.0
  0
LINE
  5
1AE
330
1F
100
AcDbEntity
  8
0
  6
CONTINUOUS
 62
     7
100
AcDbLine
 10
230.254316876
 20
148.4150554024
 30
0.0
 11
229.5098384991
 21
146.8416791689
 31
0.0
  0
LINE
  5
1AF
330
1F
100
AcDbEntity
  8
0
  6
CONTINUOUS
 62
     7
100
AcDbLine
 10
229.5098384991
 20
146.8416791689
 30
0.0
 11
228.7723541779
 21
148.4150554024
 31
0.0
  0
LINE
  5
1B0
330
1F
100
AcDbEntity
  8
0
  6
CONTINUOUS
 62
     7
100
AcDbLine
 10
228.7723541779
 20
148.4150554024
 30
0.0
 11
227.3871630346
 21
148.4150554024
 31
0.0
  0
LINE
  5
1B1
330
1F
100
AcDbEntity
  8
0
  6
CONTINUOUS
 62
     7
100
AcDbLine
 10
227.3871630346
 20
148.4150554024
 30
0.0
 11
227.3871630346
 21
145.451252709
 31
0.0
  0
LINE
  5
1B2
330
1F
100
AcDbEntity
  8
0
  6
CONTINUOUS
 62
     7
100
AcDbLine
 10
223.7145475584
 20
145.4619278467
 30
0.0
 11
223.9614254555
 21
145.9880362613
 31
0.0
  0
LINE
  5
1B3
330
1F
100
AcDbEntity
  8
0
  6
CONTINUOUS
 62
     7
100
AcDbLine
 10
223.9614254555
 20
145.9880362613
 30
0.0
 11
225.6921883935
 21
145.9880362613
 31
0.0
  0
LINE
  5
1B4
330
1F
100
AcDbEntity
  8
0
  6
CONTINUOUS
 62
     7
100
AcDbLine
 10
225.6921883935
 20
145.9880362613
 30
0.0
 11
225.9387799842
 21
145.4619278467
 31
0.0
  0
LINE
  5
1B5
330
1F
100
AcDbEntity
  8
0
  6
CONTINUOUS
 62
     7
100
AcDbLine
 10
225.9387799842
 20
145.4619278467
 30
0.0
 11
227.18036803
 21
145.4619278467
 31
0.0
  0
LINE
  5
1B6
330
1F
100
AcDbEntity
  8
0
  6
CONTINUOUS
 62
     7
100
AcDbLine
 10
227.18036803
 20
145.4619278467
 30
0.0
 11
225.7675278711
 21
148.46929001
 31
0.0
  0
LINE
  5
1B7
330
1F
100
AcDbEntity
  8
0
  6
CONTINUOUS
 62
     7
100
AcDbLine
 10
225.7675278711
 20
148.46929001
 30
0.0
 11
223.8875175099
 21
148.46929001
 31
0.0
  0
LINE
  5
1B8
330
1F
100
AcDbEntity
  8
0
  6
CONTINUOUS
 62
     7
100
AcDbLine
 10
223.8875175099
 20
148.46929001
 30
0.0
 11
222.4747591527
 21
145.4619278467
 31
0.0
  0
LINE
  5
1B9
330
1F
100
AcDbEntity
  8
0
  6
CONTINUOUS
 62
     7
100
AcDbLine
 10
222.4747591527
 20
145.4619278467
 30
0.0
 11
223.7145475584
 21
145.4619278467
 31
0.0
  0
LINE
  5
1BA
330
1F
100
AcDbEntity
  8
0
  6
CONTINUOUS
 62
     7
100
AcDbLine
 10
234.6675660435
 20
148.4098200858
 30
0.0
 11
234.6675660435
 21
148.4150554024
 31
0.0
  0
LINE
  5
1BB
330
1F
100
AcDbEntity
  8
0
  6
CONTINUOUS
 62
     7
100
AcDbLine
 10
234.6675660435
 20
148.4150554024
 30
0.0
 11
232.1122816463
 21
148.4150554024
 31
0.0
  0
LINE
  5
1BC
330
1F
100
AcDbEntity
  8
0
  6
CONTINUOUS
 62
     7
100
AcDbLine
 10
232.1122816463
 20
148.4150554024
 30
0.0
 11
232.1122816463
 21
145.451252709
 31
0.0
  0
LINE
  5
1BD
330
1F
100
AcDbEntity
  8
0
  6
CONTINUOUS
 62
     7
100
AcDbLine
 10
232.1122816463
 20
145.451252709
 30
0.0
 11
233.388267358
 21
145.451252709
 31
0.0
  0
LINE
  5
1BE
330
1F
100
AcDbEntity
  8
0
  6
CONTINUOUS
 62
     7
100
AcDbLine
 10
233.388267358
 20
145.451252709
 30
0.0
 11
233.388267358
 21
145.957933191
 31
0.0
  0
LINE
  5
1BF
330
1F
100
AcDbEntity
  8
0
  6
CONTINUOUS
 62
     7
100
AcDbLine
 10
233.388267358
 20
145.957933191
 30
0.0
 11
234.6784456858
 21
145.957933191
 31
0.0
  0
SPLINE
  5
1C0
330
1F
100
AcDbEntity
  8
0
  6
CONTINUOUS
 62
     7
100
AcDbSpline
210
0.0
220
0.0
230
1.0
 70
     8
 71
     3
 72
     8
 73
     4
 74
     0
 42
0.00000001
 43
0.00000001
 12
1.0
 22
0.0
 32
0.0
 13
1.0
 23
0.0
 33
0.0
 40
1.0
 40
1.0
 40
1.0
 40
1.0
 40
2.0
 40
2.0
 40
2.0
 40
2.0
 10
234.6784456857629
 20
145.9579331909742
 30
0.0
 10
235.3525744962336
 20
145.9589557137421
 30
0.0
 10
235.8900124630813
 20
146.5143900813063
 30
0.0
 10
235.8900124630813
 20
147.1872918644554
 30
0.0
  0
SPLINE
  5
1C1
330
1F
100
AcDbEntity
  8
0
  6
CONTINUOUS
 62
     7
100
AcDbSpline
210
0.0
220
0.0
230
1.0
 70
     8
 71
     3
 72
     8
 73
     4
 74
     0
 42
0.00000001
 43
0.00000001
 12
1.0
 22
0.0
 32
0.0
 13
1.0
 23
0.0
 33
0.0
 40
0.0
 40
0.0
 40
0.0
 40
0.0
 40
1.0
 40
1.0
 40
1.0
 40
1.0
 10
235.8900124630813
 20
147.1872918644554
 30
0.0
 10
235.8900124630813
 20
147.8611343685511
 30
0.0
 10
235.3416539530716
 20
148.4098200858467
 30
0.0
 10
234.6675660435116
 20
148.4098200858467
 30
0.0
  0
LINE
  5
1C2
330
1F
100
AcDbEntity
  8
0
  6
CONTINUOUS
 62
     7
100
AcDbLine
 10
233.388267358
 20
146.7863811376
 30
0.0
 11
234.2822794645
 21
146.7863811376
 31
0.0
  0
LINE
  5
1C3
330
1F
100
AcDbEntity
  8
0
  6
CONTINUOUS
 62
     7
100
AcDbLine
 10
233.388267358
 20
147.5881616904
 30
0.0
 11
233.388267358
 21
146.7863811376
 31
0.0
  0
LINE
  5
1C4
330
1F
100
AcDbEntity
  8
0
  6
CONTINUOUS
 62
     7
100
AcDbLine
 10
234.28207496
 20
147.5881616904
 30
0.0
 11
233.388267358
 21
147.5881616904
 31
0.0
  0
SPLINE
  5
1C5
330
1F
100
AcDbEntity
  8
0
  6
CONTINUOUS
 62
     7
100
AcDbSpline
210
0.0
220
0.0
230
1.0
 70
     8
 71
     3
 72
     8
 73
     4
 74
     0
 42
0.00000001
 43
0.00000001
 12
1.0
 22
0.0
 32
0.0
 13
1.0
 23
0.0
 33
0.0
 40
1.0
 40
1.0
 40
1.0
 40
1.0
 40
2.0
 40
2.0
 40
2.0
 40
2.0
 10
234.6784456857372
 20
147.1872918644919
 30
0.0
 10
234.6784456857372
 20
147.4086884942139
 30
0.0
 10
234.5001586159131
 20
147.5881616904489
 30
0.0
 10
234.2820749599593
 20
147.5881616904489
 30
0.0
  0
SPLINE
  5
1C6
330
1F
100
AcDbEntity
  8
0
  6
CONTINUOUS
 62
     7
100
AcDbSpline
210
0.0
220
0.0
230
1.0
 70
     8
 71
     3
 72
     8
 73
     4
 74
     0
 42
0.00000001
 43
0.00000001
 12
1.0
 22
0.0
 32
0.0
 13
1.0
 23
0.0
 33
0.0
 40
0.0
 40
0.0
 40
0.0
 40
0.0
 40
1.0
 40
1.0
 40
1.0
 40
1.0
 10
234.2822794645129
 20
146.7863811376241
 30
0.0
 10
234.5009766341274
 20
146.7938660042857
 30
0.0
 10
234.6784456857372
 20
146.9708442449669
 30
0.0
 10
234.6784456857372
 20
147.1872918644919
 30
0.0
  0
SPLINE
  5
1C7
330
1F
100
AcDbEntity
  8
0
  6
CONTINUOUS
 62
     7
100
AcDbSpline
210
0.0
220
0.0
230
1.0
 70
     8
 71
     3
 72
    23
 73
    19
 74
     0
 42
0.00000001
 43
0.00000001
 12
1.0
 22
0.0
 32
0.0
 13
1.0
 23
0.0
 33
0.0
 40
0.0
 40
0.0
 40
0.0
 40
0.0
 40
0.1100289534648932
 40
0.2067995108058887
 40
0.2898246775323334
 40
0.3596021472850032
 40
0.4216874298639645
 40
0.4808800892749651
 40
0.5386598323909992
 40
0.5944338112260616
 40
0.648476510558509
 40
0.6991554443135458
 40
0.7478259826680232
 40
0.7956942662487596
 40
0.8440714411743593
 40
0.8933406071578783
 40
0.9448787271215552
 40
1.0
 40
1.0
 40
1.0
 40
1.0
 10
229.6027583888515
 20
150.8391430365476
 30
0.0
 10
229.6455854374249
 20
150.8392908968942
 30
0.0
 10
229.7260789113273
 20
150.8395688005405
 30
0.0
 10
229.8388879735724
 20
150.8406018481615
 30
0.0
 10
229.9360094686227
 20
150.8425116865919
 30
0.0
 10
230.0196492988051
 20
150.844020000467
 30
0.0
 10
230.0938716054698
 20
150.8495253219201
 30
0.0
 10
230.1628200426966
 20
150.8603518101174
 30
0.0
 10
230.2280578652414
 20
150.8769978042062
 30
0.0
 10
230.2897227633827
 20
150.8985922277741
 30
0.0
 10
230.3461834976326
 20
150.9256559854186
 30
0.0
 10
230.3964028622597
 20
150.9583998689426
 30
0.0
 10
230.4386414521578
 20
150.9974507645342
 30
0.0
 10
230.4743925375371
 20
151.0414047280227
 30
0.0
 10
230.5017717029197
 20
151.0912767475359
 30
0.0
 10
230.5223775322383
 20
151.1458014301657
 30
0.0
 10
230.5336563459099
 20
151.2057724646101
 30
0.0
 10
230.5351793659948
 20
151.2472934794584
 30
0.0
 10
230.5359664584717
 20
151.2687514226235
 30
0.0
  0
LINE
  5
1C8
330
1F
100
AcDbEntity
  8
0
  6
CONTINUOUS
 62
     7
100
AcDbLine
 10
229.3979917749
 20
150.8391430365
 30
0.0
 11
229.6027583889
 21
150.8391430365
 31
0.0
  0
LINE
  5
1C9
330
1F
100
AcDbEntity
  8
0
  6
CONTINUOUS
 62
     7
100
AcDbLine
 10
229.3979917749
 20
151.683446834
 30
0.0
 11
229.3979917749
 21
150.8391430365
 31
0.0
  0
LINE
  5
1CA
330
1F
100
AcDbEntity
  8
0
  6
CONTINUOUS
 62
     7
100
AcDbLine
 10
229.7123113952
 20
151.683446834
 30
0.0
 11
229.3979917749
 21
151.683446834
 31
0.0
  0
SPLINE
  5
1CB
330
1F
100
AcDbEntity
  8
0
  6
CONTINUOUS
 62
     7
100
AcDbSpline
210
0.0
220
0.0
230
1.0
 70
     8
 71
     3
 72
    23
 73
    19
 74
     0
 42
0.00000001
 43
0.00000001
 12
1.0
 22
0.0
 32
0.0
 13
1.0
 23
0.0
 33
0.0
 40
0.0
 40
0.0
 40
0.0
 40
0.0
 40
0.0650717146820535
 40
0.1256949959672241
 40
0.1817051402098845
 40
0.2357582810602205
 40
0.2888541693991676
 40
0.3425810307642798
 40
0.3981921101172796
 40
0.4574068337618873
 40
0.4922089824318562
 40
0.5362711945223924
 40
0.5897191522855443
 40
0.6527967673208538
 40
0.7249256544967078
 40
0.8072544541254837
 40
0.8987672181182038
 40
1.0
 40
1.0
 40
1.0
 40
1.0
 10
230.5359664584717
 20
151.2687514226235
 30
0.0
 10
230.5352221068763
 20
151.2917399526786
 30
0.0
 10
230.5337842890588
 20
151.336145470601
 30
0.0
 10
230.5220940179324
 20
151.3996021122295
 30
0.0
 10
230.5008700376552
 20
151.4562896790677
 30
0.0
 10
230.4727449607991
 20
151.5068774536488
 30
0.0
 10
230.4365910630464
 20
151.5510794086267
 30
0.0
 10
230.3930569906917
 20
151.5889242618339
 30
0.0
 10
230.3415655181799
 20
151.6192616570433
 30
0.0
 10
230.2926964062423
 20
151.6399292202676
 30
0.0
 10
230.2455387082708
 20
151.6526134058244
 30
0.0
 10
230.1995203509208
 20
151.6610100424518
 30
0.0
 10
230.143136317434
 20
151.6672957907113
 30
0.0
 10
230.0768285189049
 20
151.6738664732924
 30
0.0
 10
230.0001017206412
 20
151.6782735659048
 30
0.0
 10
229.9132626826496
 20
151.6806581283647
 30
0.0
 10
229.8161442588786
 20
151.6833944009867
 30
0.0
 10
229.7480667167484
 20
151.6834287784625
 30
0.0
 10
229.7123113951806
 20
151.6834468340159
 30
0.0
  0
LINE
  5
1CC
330
1F
100
AcDbEntity
  8
0
  6
CONTINUOUS
 62
     7
100
AcDbLine
 10
227.5483715218
 20
165.3619278467
 30
0.0
 11
227.5483715218
 21
160.7058139667
 31
0.0
  0
LINE
  5
1CD
330
1F
100
AcDbEntity
  8
0
  6
CONTINUOUS
 62
     7
100
AcDbLine
 10
227.5483715218
 20
165.3619278467
 30
0.0
 11
228.4802844049
 21
165.3619278467
 31
0.0
  0
SPLINE
  5
1CE
330
1F
100
AcDbEntity
  8
0
  6
CONTINUOUS
 62
     7
100
AcDbSpline
210
0.0
220
0.0
230
1.0
 70
     8
 71
     3
 72
    23
 73
    19
 74
     0
 42
0.00000001
 43
0.00000001
 12
1.0
 22
0.0
 32
0.0
 13
1.0
 23
0.0
 33
0.0
 40
0.0
 40
0.0
 40
0.0
 40
0.0
 40
0.0829098959001478
 40
0.1599987227261229
 40
0.2306470490539502
 40
0.2955349123324458
 40
0.3533594684555108
 40
0.4055034461953965
 40
0.45139980770594
 40
0.49166760707628
 40
0.5627658141799101
 40
0.6276536774584052
 40
0.6884180695591782
 40
0.7475873540410294
 40
0.8065720003630822
 40
0.8676771976075576
 40
0.9311927931204083
 40
1.0
 40
1.0
 40
1.0
 40
1.0
 10
229.6463501610034
 20
152.1239531631298
 30
0.0
 10
229.6708229590945
 20
152.1241104577512
 30
0.0
 10
229.7180503303702
 20
152.1244140034043
 30
0.0
 10
229.7861275985573
 20
152.1253975136826
 30
0.0
 10
229.8488583445759
 20
152.1276199176411
 30
0.0
 10
229.9058286062055
 20
152.1311535322818
 30
0.0
 10
229.9573015972991
 20
152.1349963920148
 30
0.0
 10
230.0030571193376
 20
152.1399773873853
 30
0.0
 10
230.0433792594689
 20
152.1464411261286
 30
0.0
 10
230.089003710904
 20
152.1550259405792
 30
0.0
 10
230.1391003264567
 20
152.1699275346759
 30
0.0
 10
230.1914953012299
 20
152.1954591070358
 30
0.0
 10
230.2364527542902
 20
152.2270360352601
 30
0.0
 10
230.271674679918
 20
152.2669553054827
 30
0.0
 10
230.2990371199201
 20
152.3125419395844
 30
0.0
 10
230.3184784723128
 20
152.3633974324259
 30
0.0
 10
230.3301618823642
 20
152.4195852510693
 30
0.0
 10
230.3315994620668
 20
152.4586718410882
 30
0.0
 10
230.3323469964464
 20
152.4789966757881
 30
0.0
  0
LINE
  5
1CF
330
1F
100
AcDbEntity
  8
0
  6
CONTINUOUS
 62
     7
100
AcDbLine
 10
229.3979917749
 20
152.1239531631
 30
0.0
 11
229.646350161
 21
152.1239531631
 31
0.0
  0
LINE
  5
1D0
330
1F
100
AcDbEntity
  8
0
  6
CONTINUOUS
 62
     7
100
AcDbLine
 10
229.3979917749
 20
152.7847126568
 30
0.0
 11
229.3979917749
 21
152.1239531631
 31
0.0
  0
LINE
  5
1D1
330
1F
100
AcDbEntity
  8
0
  6
CONTINUOUS
 62
     7
100
AcDbLine
 10
229.5981697813
 20
152.7847126568
 30
0.0
 11
229.3979917749
 21
152.7847126568
 31
0.0
  0
SPLINE
  5
1D2
330
1F
100
AcDbEntity
  8
0
  6
CONTINUOUS
 62
     7
100
AcDbSpline
210
0.0
220
0.0
230
1.0
 70
     8
 71
     3
 72
    23
 73
    19
 74
     0
 42
0.00000001
 43
0.00000001
 12
1.0
 22
0.0
 32
0.0
 13
1.0
 23
0.0
 33
0.0
 40
0.0
 40
0.0
 40
0.0
 40
0.0
 40
0.0544866998618761
 40
0.106296229714515
 40
0.1561716867932833
 40
0.2061944867545888
 40
0.2577706836965447
 40
0.3129323172561781
 40
0.3730012122789126
 40
0.4405571139906477
 40
0.4803098509667933
 40
0.5281475122587971
 40
0.585346923633091
 40
0.6507220831055486
 40
0.7249949952428897
 40
0.8075209730844627
 40
0.8996076205283223
 40
1.0
 40
1.0
 40
1.0
 40
1.0
 10
230.3323469964464
 20
152.4789966757881
 30
0.0
 10
230.3317203403539
 20
152.4953045499308
 30
0.0
 10
230.330497818525
 20
152.5271190209929
 30
0.0
 10
230.3199704003933
 20
152.5729125056455
 30
0.0
 10
230.3025091960745
 20
152.6150034526138
 30
0.0
 10
230.2780655598128
 20
152.6533678128734
 30
0.0
 10
230.24619696451
 20
152.6882479185395
 30
0.0
 10
230.2043289410957
 20
152.716042760517
 30
0.0
 10
230.1546601123605
 20
152.7391472717476
 30
0.0
 10
230.1066008033358
 20
152.7538212175168
 30
0.0
 10
230.0609968738903
 20
152.7624178357981
 30
0.0
 10
230.0181683624432
 20
152.7688336742846
 30
0.0
 10
229.9674299980135
 20
152.7737263632703
 30
0.0
 10
229.9086936847524
 20
152.7775307144481
 30
0.0
 10
229.8423539188868
 20
152.7810798382037
 30
0.0
 10
229.7679619217477
 20
152.7832844494033
 30
0.0
 10
229.6857383515858
 20
152.7842550502118
 30
0.0
 10
229.6281871095124
 20
152.7845557954161
 30
0.0
 10
229.5981697812565
 20
152.7847126568007
 30
0.0
  0
ELLIPSE
  5
1D3
330
1F
100
AcDbEntity
  8
0
  6
CONTINUOUS
 62
     7
100
AcDbEllipse
 10
228.6644586386
 20
162.1619278467
 30
0.0
 11
-2.617684889996639
 21
3.013417364887318
 31
0.0
210
0.0
220
0.0
230
1.0
 40
0.4113234866
 41
5.940015753366596
 42
7.510812080161463
  0
LINE
  5
1D4
330
1F
100
AcDbEntity
  8
0
  6
CONTINUOUS
 62
     7
100
AcDbLine
 10
227.5483715218
 20
165.3619278467
 30
0.0
 11
226.6164586386
 21
165.3619278467
 31
0.0
  0
LINE
  5
1D5
330
1F
100
AcDbEntity
  8
0
  6
CONTINUOUS
 62
     7
100
AcDbLine
 10
187.5483715218
 20
162.1619278467
 30
0.0
 11
187.5483715218
 21
165.3619278467
 31
0.0
  0
LINE
  5
1D6
330
1F
100
AcDbEntity
  8
0
  6
CONTINUOUS
 62
     7
100
AcDbLine
 10
187.5483715218
 20
165.3619278467
 30
0.0
 11
226.6164586386
 21
165.3619278467
 31
0.0
  0
SPLINE
  5
1D7
330
1F
100
AcDbEntity
  8
0
  6
CONTINUOUS
 62
     7
100
AcDbSpline
210
0.0
220
0.0
230
1.0
 70
     8
 71
     3
 72
    23
 73
    19
 74
     0
 42
0.00000001
 43
0.00000001
 12
1.0
 22
0.0
 32
0.0
 13
1.0
 23
0.0
 33
0.0
 40
0.0
 40
0.0
 40
0.0
 40
0.0
 40
0.0759828728065284
 40
0.1472906881026808
 40
0.2142907436797874
 40
0.2774255655692057
 40
0.3376830807451434
 40
0.3952443777621279
 40
0.4510155556751236
 40
0.5056596478197143
 40
0.5601733131667758
 40
0.615173328670344
 40
0.6719687452633218
 40
0.7306942290858984
 40
0.7923035764539111
 40
0.8573318161977342
 40
0.9265114771601448
 40
1.0
 40
1.0
 40
1.0
 40
1.0
 10
224.4299063318894
 20
150.8391430365475
 30
0.0
 10
224.4706586554871
 20
150.8399057064591
 30
0.0
 10
224.5496559026663
 20
150.8413841208952
 30
0.0
 10
224.6641213702433
 20
150.8529766310552
 30
0.0
 10
224.7706128449989
 20
150.8716542430811
 30
0.0
 10
224.8694688129955
 20
150.8978346029104
 30
0.0
 10
224.9603424117366
 20
150.932306190587
 30
0.0
 10
225.0438073754516
 20
150.9740314877069
 30
0.0
 10
225.118623671221
 20
151.0245538990571
 30
0.0
 10
225.1866482007263
 20
151.0813955407108
 30
0.0
 10
225.2459763279509
 20
151.1468069424754
 30
0.0
 10
225.2974013116789
 20
151.2199014923683
 30
0.0
 10
225.3412194906175
 20
151.3004248718419
 30
0.0
 10
225.3759564901599
 20
151.3890466750513
 30
0.0
 10
225.4033914767618
 20
151.4847071187682
 30
0.0
 10
225.4236097898727
 20
151.5878930990988
 30
0.0
 10
225.4347582464872
 20
151.6988774485945
 30
0.0
 10
225.4363076167965
 20
151.775386063219
 30
0.0
 10
225.437105698978
 20
151.814795726421
 30
0.0
  0
LINE
  5
1D8
330
1F
100
AcDbEntity
  8
0
  6
CONTINUOUS
 62
     7
100
AcDbLine
 10
224.1155867116
 20
150.8391430365
 30
0.0
 11
224.4299063319
 21
150.8391430365
 31
0.0
  0
LINE
  5
1D9
330
1F
100
AcDbEntity
  8
0
  6
CONTINUOUS
 62
     7
100
AcDbLine
 10
224.1155867116
 20
152.7847126568
 30
0.0
 11
224.1155867116
 21
150.8391430365
 31
0.0
  0
LINE
  5
1DA
330
1F
100
AcDbEntity
  8
0
  6
CONTINUOUS
 62
     7
100
AcDbLine
 10
224.4299063319
 20
152.7847126568
 30
0.0
 11
224.1155867116
 21
152.7847126568
 31
0.0
  0
SPLINE
  5
1DB
330
1F
100
AcDbEntity
  8
0
  6
CONTINUOUS
 62
     7
100
AcDbSpline
210
0.0
220
0.0
230
1.0
 70
     8
 71
     3
 72
    23
 73
    19
 74
     0
 42
0.00000001
 43
0.00000001
 12
1.0
 22
0.0
 32
0.0
 13
1.0
 23
0.0
 33
0.0
 40
0.0
 40
0.0
 40
0.0
 40
0.0
 40
0.0733443071164516
 40
0.1420133276586171
 40
0.2072301749643488
 40
0.268674797235513
 40
0.3272386141388045
 40
0.3835712921087854
 40
0.4387308293658245
 40
0.4931388773341839
 40
0.5479414589140208
 40
0.6036763168267489
 40
0.6614045643245317
 40
0.7217108357299267
 40
0.7851225995981763
 40
0.8523169817813837
 40
0.9237967468718866
 40
0.9999999999999999
 40
0.9999999999999999
 40
0.9999999999999999
 40
0.9999999999999999
 10
225.437105698978
 20
151.814795726421
 30
0.0
 10
225.4363216579158
 20
151.8540162468971
 30
0.0
 10
225.434803553994
 20
151.9299572005213
 30
0.0
 10
225.4234908835953
 20
152.0403431425821
 30
0.0
 10
225.4034922672828
 20
152.143002711735
 30
0.0
 10
225.3759118953703
 20
152.238236589012
 30
0.0
 10
225.3414112960037
 20
152.3262354899708
 30
0.0
 10
225.2970281206783
 20
152.4058373497649
 30
0.0
 10
225.2462134636492
 20
152.478787068209
 30
0.0
 10
225.1864020279138
 20
152.5435584745068
 30
0.0
 10
225.1188371369959
 20
152.6005667972156
 30
0.0
 10
225.0435857758571
 20
152.650234882447
 30
0.0
 10
224.9605119618332
 20
152.6923566307048
 30
0.0
 10
224.8692259032206
 20
152.7256769661847
 30
0.0
 10
224.7707379462794
 20
152.7529872736061
 30
0.0
 10
224.6641349477906
 20
152.7715612272605
 30
0.0
 10
224.5496232530471
 20
152.782284726948
 30
0.0
 10
224.4706538899769
 20
152.7838862722617
 30
0.0
 10
224.4299063318894
 20
152.7847126568007
 30
0.0
  0
LINE
  5
1DC
330
1F
100
AcDbEntity
  8
0
  6
CONTINUOUS
 62
     7
100
AcDbLine
 10
224.3353006804
 20
146.782086542
 30
0.0
 11
225.3200310069
 21
146.782086542
 31
0.0
  0
LINE
  5
1DD
330
1F
100
AcDbEntity
  8
0
  6
CONTINUOUS
 62
     7
100
AcDbLine
 10
224.8278703482
 20
147.8283318382
 30
0.0
 11
224.3353006804
 21
146.782086542
 31
0.0
  0
LINE
  5
1DE
330
1F
100
AcDbEntity
  8
0
  6
CONTINUOUS
 62
     7
100
AcDbLine
 10
225.3200310069
 20
146.782086542
 30
0.0
 11
224.8278703482
 21
147.8283318382
 31
0.0
  0
LINE
  5
1DF
330
1F
100
AcDbEntity
  8
0
  6
CONTINUOUS
 62
     7
100
AcDbLine
 10
221.5340360787
 20
152.6063305365
 30
0.0
 11
221.111310604
 21
151.4264848087
 31
0.0
  0
LINE
  5
1E0
330
1F
100
AcDbEntity
  8
0
  6
CONTINUOUS
 62
     7
100
AcDbLine
 10
221.9579087053
 20
151.4264848087
 30
0.0
 11
221.5340360787
 21
152.6063305365
 31
0.0
  0
LINE
  5
1E1
330
1F
100
AcDbEntity
  8
0
  6
CONTINUOUS
 62
     7
100
AcDbLine
 10
221.111310604
 20
151.4264848087
 30
0.0
 11
221.9579087053
 21
151.4264848087
 31
0.0
  0
LINE
  5
1E2
330
1F
100
AcDbEntity
  8
0
  6
CONTINUOUS
 62
     7
100
AcDbLine
 10
184.5483715218
 20
165.3619278467
 30
0.0
 11
184.5483715218
 21
162.1619278467
 31
0.0
  0
LINE
  5
1E3
330
1F
100
AcDbEntity
  8
0
  6
CONTINUOUS
 62
     7
100
AcDbLine
 10
184.5483715218
 20
162.1619278467
 30
0.0
 11
182.5483715218
 21
162.1619278467
 31
0.0
  0
LINE
  5
1E4
330
1F
100
AcDbEntity
  8
0
  6
CONTINUOUS
 62
     7
100
AcDbLine
 10
182.5483715218
 20
165.3619278467
 30
0.0
 11
184.5483715218
 21
165.3619278467
 31
0.0
  0
LINE
  5
1E5
330
1F
100
AcDbEntity
  8
0
  6
CONTINUOUS
 62
     7
100
AcDbLine
 10
171.5483715218
 20
162.1619278467
 30
0.0
 11
182.5483715218
 21
162.1619278467
 31
0.0
  0
LINE
  5
1E6
330
1F
100
AcDbEntity
  8
0
  6
CONTINUOUS
 62
     7
100
AcDbLine
 10
171.5483715218
 20
165.3619278467
 30
0.0
 11
182.5483715218
 21
165.3619278467
 31
0.0
  0
LINE
  5
1E7
330
1F
100
AcDbEntity
  8
0
  6
CONTINUOUS
 62
     7
100
AcDbLine
 10
167.5483715218
 20
162.1619278467
 30
0.0
 11
167.5483715218
 21
165.3619278467
 31
0.0
  0
LINE
  5
1E8
330
1F
100
AcDbEntity
  8
0
  6
CONTINUOUS
 62
     7
100
AcDbLine
 10
171.5483715218
 20
162.1619278467
 30
0.0
 11
167.5483715218
 21
162.1619278467
 31
0.0
  0
LINE
  5
1E9
330
1F
100
AcDbEntity
  8
0
  6
CONTINUOUS
 62
     7
100
AcDbLine
 10
167.5483715218
 20
165.3619278467
 30
0.0
 11
171.5483715218
 21
165.3619278467
 31
0.0
  0
LINE
  5
1EA
330
1F
100
AcDbEntity
  8
0
  6
CONTINUOUS
 62
     7
100
AcDbLine
 10
270.5483715218
 20
162.1619278467
 30
0.0
 11
269.0483715218
 21
162.1619278467
 31
0.0
  0
LINE
  5
1EB
330
1F
100
AcDbEntity
  8
0
  6
CONTINUOUS
 62
     7
100
AcDbLine
 10
269.0483715218
 20
165.3619278467
 30
0.0
 11
270.5483715218
 21
165.3619278467
 31
0.0
  0
LINE
  5
1EC
330
1F
100
AcDbEntity
  8
0
  6
CONTINUOUS
 62
     7
100
AcDbLine
 10
269.0483715218
 20
162.1619278467
 30
0.0
 11
267.5483715218
 21
162.1619278467
 31
0.0
  0
LINE
  5
1ED
330
1F
100
AcDbEntity
  8
0
  6
CONTINUOUS
 62
     7
100
AcDbLine
 10
267.5483715218
 20
165.3619278467
 30
0.0
 11
269.0483715218
 21
165.3619278467
 31
0.0
  0
LINE
  5
1EE
330
1F
100
AcDbEntity
  8
0
  6
CONTINUOUS
 62
     7
100
AcDbLine
 10
187.5483715218
 20
162.1619278467
 30
0.0
 11
186.0483715218
 21
162.1619278467
 31
0.0
  0
LINE
  5
1EF
330
1F
100
AcDbEntity
  8
0
  6
CONTINUOUS
 62
     7
100
AcDbLine
 10
186.0483715218
 20
165.3619278467
 30
0.0
 11
187.5483715218
 21
165.3619278467
 31
0.0
  0
LINE
  5
1F0
330
1F
100
AcDbEntity
  8
0
  6
CONTINUOUS
 62
     7
100
AcDbLine
 10
186.0483715218
 20
162.1619278467
 30
0.0
 11
184.5483715218
 21
162.1619278467
 31
0.0
  0
LINE
  5
1F1
330
1F
100
AcDbEntity
  8
0
  6
CONTINUOUS
 62
     7
100
AcDbLine
 10
184.5483715218
 20
165.3619278467
 30
0.0
 11
186.0483715218
 21
165.3619278467
 31
0.0
  0
LINE
  5
1F2
330
1F
100
AcDbEntity
  8
0
  6
PHANTOM
 62
     7
100
AcDbLine
 10
283.5483715218
 20
162.1619278467
 30
0.0
 11
283.5483715218
 21
165.3619278467
 31
0.0
  0
LINE
  5
1F3
330
1F
100
AcDbEntity
  8
0
  6
PHANTOM
 62
     7
100
AcDbLine
 10
272.5483715218
 20
165.3619278467
 30
0.0
 11
272.5483715218
 21
162.1619278467
 31
0.0
  0
LINE
  5
1F4
330
1F
100
AcDbEntity
  8
0
  6
PHANTOM
 62
     7
100
AcDbLine
 10
267.5483715218
 20
162.1619278467
 30
0.0
 11
228.4802844049
 21
162.1619278467
 31
0.0
  0
LINE
  5
1F5
330
1F
100
AcDbEntity
  8
0
  6
PHANTOM
 62
     7
100
AcDbLine
 10
226.6164586386
 20
162.1619278467
 30
0.0
 11
187.5483715218
 21
162.1619278467
 31
0.0
  0
LINE
  5
1F6
330
1F
100
AcDbEntity
  8
0
  6
PHANTOM
 62
     7
100
AcDbLine
 10
182.5483715218
 20
162.1619278467
 30
0.0
 11
182.5483715218
 21
165.3619278467
 31
0.0
  0
LINE
  5
1F7
330
1F
100
AcDbEntity
  8
0
  6
PHANTOM
 62
     7
100
AcDbLine
 10
171.5483715218
 20
165.3619278467
 30
0.0
 11
171.5483715218
 21
162.1619278467
 31
0.0
  0
LINE
  5
1F8
330
1F
100
AcDbEntity
  8
0
  6
PHANTOM
 62
     7
100
AcDbLine
 10
269.0483715218
 20
165.3619278467
 30
0.0
 11
269.0483715218
 21
162.1619278467
 31
0.0
  0
LINE
  5
1F9
330
1F
100
AcDbEntity
  8
0
  6
PHANTOM
 62
     7
100
AcDbLine
 10
186.0483715218
 20
165.3619278467
 30
0.0
 11
186.0483715218
 21
162.1619278467
 31
0.0
  0
LINE
  5
1FA
330
1F
100
AcDbEntity
  8
0
  6
CONTINUOUS
 62
     7
100
AcDbLine
 10
72.9027282976
 20
165.3619278467
 30
0.0
 11
92.9027282976
 21
165.3619278467
 31
0.0
  0
LINE
  5
1FB
330
1F
100
AcDbEntity
  8
0
  6
CONTINUOUS
 62
     7
100
AcDbLine
 10
72.9027282976
 20
162.1619278467
 30
0.0
 11
92.9027282976
 21
162.1619278467
 31
0.0
  0
LINE
  5
1FC
330
1F
100
AcDbEntity
  8
0
  6
CONTINUOUS
 62
     7
100
AcDbLine
 10
68.9027282976
 20
162.1619278467
 30
0.0
 11
68.9027282976
 21
165.3619278467
 31
0.0
  0
LINE
  5
1FD
330
1F
100
AcDbEntity
  8
0
  6
CONTINUOUS
 62
     7
100
AcDbLine
 10
72.9027282976
 20
162.1619278467
 30
0.0
 11
68.9027282976
 21
162.1619278467
 31
0.0
  0
LINE
  5
1FE
330
1F
100
AcDbEntity
  8
0
  6
CONTINUOUS
 62
     7
100
AcDbLine
 10
68.9027282976
 20
165.3619278467
 30
0.0
 11
72.9027282976
 21
165.3619278467
 31
0.0
  0
LINE
  5
1FF
330
1F
100
AcDbEntity
  8
0
  6
CONTINUOUS
 62
     7
100
AcDbLine
 10
96.9027282976
 20
165.3619278467
 30
0.0
 11
96.9027282976
 21
162.1619278467
 31
0.0
  0
LINE
  5
200
330
1F
100
AcDbEntity
  8
0
  6
CONTINUOUS
 62
     7
100
AcDbLine
 10
96.9027282976
 20
162.1619278467
 30
0.0
 11
92.9027282976
 21
162.1619278467
 31
0.0
  0
LINE
  5
201
330
1F
100
AcDbEntity
  8
0
  6
CONTINUOUS
 62
     7
100
AcDbLine
 10
92.9027282976
 20
165.3619278467
 30
0.0
 11
96.9027282976
 21
165.3619278467
 31
0.0
  0
LINE
  5
202
330
1F
100
AcDbEntity
  8
0
  6
CONTINUOUS
 62
     7
100
AcDbLine
 10
93.7027282976
 20
162.1619278467
 30
0.0
 11
93.7027282976
 21
149.3619278467
 31
0.0
  0
LINE
  5
203
330
1F
100
AcDbEntity
  8
0
  6
CONTINUOUS
 62
     7
100
AcDbLine
 10
96.9027282976
 20
149.3619278467
 30
0.0
 11
96.9027282976
 21
162.1619278467
 31
0.0
  0
LINE
  5
204
330
1F
100
AcDbEntity
  8
0
  6
CONTINUOUS
 62
     7
100
AcDbLine
 10
93.7027282976
 20
149.3619278467
 30
0.0
 11
93.7027282976
 21
137.5091036119
 31
0.0
  0
LINE
  5
205
330
1F
100
AcDbEntity
  8
0
  6
CONTINUOUS
 62
     7
100
AcDbLine
 10
96.9027282976
 20
149.3619278467
 30
0.0
 11
96.9027282976
 21
137.5091036119
 31
0.0
  0
LINE
  5
206
330
1F
100
AcDbEntity
  8
0
  6
CONTINUOUS
 62
     7
100
AcDbLine
 10
96.9027282976
 20
136.9619278467
 30
0.0
 11
93.7027282976
 21
136.9619278467
 31
0.0
  0
LINE
  5
207
330
1F
100
AcDbEntity
  8
0
  6
CONTINUOUS
 62
     7
100
AcDbLine
 10
93.7027282976
 20
136.9619278467
 30
0.0
 11
93.7027282976
 21
137.5091036119
 31
0.0
  0
LINE
  5
208
330
1F
100
AcDbEntity
  8
0
  6
CONTINUOUS
 62
     7
100
AcDbLine
 10
96.9027282976
 20
137.5091036119
 30
0.0
 11
96.9027282976
 21
136.9619278467
 31
0.0
  0
LINE
  5
209
330
1F
100
AcDbEntity
  8
0
  6
CONTINUOUS
 62
     7
100
AcDbLine
 10
88.7027282976
 20
162.1619278467
 30
0.0
 11
93.7027282976
 21
157.1619278467
 31
0.0
  0
LINE
  5
20A
330
1F
100
AcDbEntity
  8
0
  6
PHANTOM
 62
     7
100
AcDbLine
 10
72.9027282976
 20
165.3619278467
 30
0.0
 11
72.9027282976
 21
162.1619278467
 31
0.0
  0
LINE
  5
20B
330
1F
100
AcDbEntity
  8
0
  6
PHANTOM
 62
     7
100
AcDbLine
 10
92.9027282976
 20
162.1619278467
 30
0.0
 11
92.9027282976
 21
165.3619278467
 31
0.0
  0
LINE
  5
20C
330
1F
100
AcDbEntity
  8
0
  6
PHANTOM
 62
     7
100
AcDbLine
 10
93.7027282976
 20
149.3619278467
 30
0.0
 11
96.9027282976
 21
149.3619278467
 31
0.0
  0
LINE
  5
20D
330
1F
100
AcDbEntity
  8
0
  6
PHANTOM
 62
     7
100
AcDbLine
 10
93.7027282976
 20
137.5091036119
 30
0.0
 11
96.9027282976
 21
137.5091036119
 31
0.0
  0
LINE
  5
20E
330
1F
100
AcDbEntity
  8
0
  6
CONTINUOUS
 62
     7
100
AcDbLine
 10
402.3755580609
 20
165.3619278467
 30
0.0
 11
406.3755580609
 21
165.3619278467
 31
0.0
  0
LINE
  5
20F
330
1F
100
AcDbEntity
  8
0
  6
CONTINUOUS
 62
     7
100
AcDbLine
 10
406.3755580609
 20
165.3619278467
 30
0.0
 11
406.3755580609
 21
162.1619278467
 31
0.0
  0
LINE
  5
210
330
1F
100
AcDbEntity
  8
0
  6
CONTINUOUS
 62
     7
100
AcDbLine
 10
406.3755580609
 20
162.1619278467
 30
0.0
 11
402.3755580609
 21
162.1619278467
 31
0.0
  0
LINE
  5
211
330
1F
100
AcDbEntity
  8
0
  6
CONTINUOUS
 62
     7
100
AcDbLine
 10
382.3755580609
 20
162.1619278467
 30
0.0
 11
402.3755580609
 21
162.1619278467
 31
0.0
  0
LINE
  5
212
330
1F
100
AcDbEntity
  8
0
  6
CONTINUOUS
 62
     7
100
AcDbLine
 10
382.3755580609
 20
165.3619278467
 30
0.0
 11
402.3755580609
 21
165.3619278467
 31
0.0
  0
LINE
  5
213
330
1F
100
AcDbEntity
  8
0
  6
CONTINUOUS
 62
     7
100
AcDbLine
 10
378.3755580609
 20
162.1619278467
 30
0.0
 11
378.3755580609
 21
165.3619278467
 31
0.0
  0
LINE
  5
214
330
1F
100
AcDbEntity
  8
0
  6
CONTINUOUS
 62
     7
100
AcDbLine
 10
382.3755580609
 20
162.1619278467
 30
0.0
 11
378.3755580609
 21
162.1619278467
 31
0.0
  0
LINE
  5
215
330
1F
100
AcDbEntity
  8
0
  6
CONTINUOUS
 62
     7
100
AcDbLine
 10
378.3755580609
 20
165.3619278467
 30
0.0
 11
382.3755580609
 21
165.3619278467
 31
0.0
  0
LINE
  5
216
330
1F
100
AcDbEntity
  8
0
  6
CONTINUOUS
 62
     7
100
AcDbLine
 10
381.5755580609
 20
162.1619278467
 30
0.0
 11
381.5755580609
 21
149.3619278467
 31
0.0
  0
LINE
  5
217
330
1F
100
AcDbEntity
  8
0
  6
CONTINUOUS
 62
     7
100
AcDbLine
 10
378.3755580609
 20
149.3619278467
 30
0.0
 11
378.3755580609
 21
162.1619278467
 31
0.0
  0
LINE
  5
218
330
1F
100
AcDbEntity
  8
0
  6
CONTINUOUS
 62
     7
100
AcDbLine
 10
381.5755580609
 20
137.5091036119
 30
0.0
 11
381.5755580609
 21
149.3619278467
 31
0.0
  0
LINE
  5
219
330
1F
100
AcDbEntity
  8
0
  6
CONTINUOUS
 62
     7
100
AcDbLine
 10
378.3755580609
 20
137.5091036119
 30
0.0
 11
378.3755580609
 21
149.3619278467
 31
0.0
  0
LINE
  5
21A
330
1F
100
AcDbEntity
  8
0
  6
CONTINUOUS
 62
     7
100
AcDbLine
 10
381.5755580609
 20
136.9619278467
 30
0.0
 11
378.3755580609
 21
136.9619278467
 31
0.0
  0
LINE
  5
21B
330
1F
100
AcDbEntity
  8
0
  6
CONTINUOUS
 62
     7
100
AcDbLine
 10
378.3755580609
 20
136.9619278467
 30
0.0
 11
378.3755580609
 21
137.5091036119
 31
0.0
  0
LINE
  5
21C
330
1F
100
AcDbEntity
  8
0
  6
CONTINUOUS
 62
     7
100
AcDbLine
 10
381.5755580609
 20
137.5091036119
 30
0.0
 11
381.5755580609
 21
136.9619278467
 31
0.0
  0
LINE
  5
21D
330
1F
100
AcDbEntity
  8
0
  6
CONTINUOUS
 62
     7
100
AcDbLine
 10
386.5755580609
 20
162.1619278467
 30
0.0
 11
381.5755580609
 21
157.1619278467
 31
0.0
  0
LINE
  5
21E
330
1F
100
AcDbEntity
  8
0
  6
PHANTOM
 62
     7
100
AcDbLine
 10
402.3755580609
 20
162.1619278467
 30
0.0
 11
402.3755580609
 21
165.3619278467
 31
0.0
  0
LINE
  5
21F
330
1F
100
AcDbEntity
  8
0
  6
PHANTOM
 62
     7
100
AcDbLine
 10
382.3755580609
 20
165.3619278467
 30
0.0
 11
382.3755580609
 21
162.1619278467
 31
0.0
  0
LINE
  5
220
330
1F
100
AcDbEntity
  8
0
  6
PHANTOM
 62
     7
100
AcDbLine
 10
381.5755580609
 20
149.3619278467
 30
0.0
 11
378.3755580609
 21
149.3619278467
 31
0.0
  0
LINE
  5
221
330
1F
100
AcDbEntity
  8
0
  6
PHANTOM
 62
     7
100
AcDbLine
 10
378.3755580609
 20
137.5091036119
 30
0.0
 11
381.5755580609
 21
137.5091036119
 31
0.0
  0
LINE
  5
222
330
1F
100
AcDbEntity
  8
0
  6
CONTINUOUS
 62
     7
100
AcDbLine
 10
195.1490757432
 20
95.5305411499
 30
0.0
 11
197.6524150858
 21
95.5305411499
 31
0.0
  0
LINE
  5
223
330
1F
100
AcDbEntity
  8
0
  6
CONTINUOUS
 62
     7
100
AcDbLine
 10
197.6524150858
 20
92.3305411499
 30
0.0
 11
195.1490757432
 21
92.3305411499
 31
0.0
  0
LINE
  5
224
330
1F
100
AcDbEntity
  8
0
  6
CONTINUOUS
 62
     7
100
AcDbLine
 10
197.6524150858
 20
95.5305411499
 30
0.0
 11
257.4443279577
 21
95.5305411499
 31
0.0
  0
LINE
  5
225
330
1F
100
AcDbEntity
  8
0
  6
CONTINUOUS
 62
     7
100
AcDbLine
 10
197.6524150858
 20
92.3305411499
 30
0.0
 11
257.4443279577
 21
92.3305411499
 31
0.0
  0
LINE
  5
226
330
1F
100
AcDbEntity
  8
0
  6
CONTINUOUS
 62
     7
100
AcDbLine
 10
257.4443279577
 20
95.5305411499
 30
0.0
 11
259.9476673004
 21
95.5305411499
 31
0.0
  0
LINE
  5
227
330
1F
100
AcDbEntity
  8
0
  6
CONTINUOUS
 62
     7
100
AcDbLine
 10
259.9476673004
 20
92.3305411499
 30
0.0
 11
257.4443279577
 21
92.3305411499
 31
0.0
  0
LINE
  5
228
330
1F
100
AcDbEntity
  8
0
  6
CONTINUOUS
 62
     7
100
AcDbLine
 10
187.5483715218
 20
92.3305411499
 30
0.0
 11
187.5483715218
 21
95.5305411499
 31
0.0
  0
LINE
  5
229
330
1F
100
AcDbEntity
  8
0
  6
CONTINUOUS
 62
     7
100
AcDbLine
 10
187.5483715218
 20
95.5305411499
 30
0.0
 11
195.1490757432
 21
95.5305411499
 31
0.0
  0
LINE
  5
22A
330
1F
100
AcDbEntity
  8
0
  6
CONTINUOUS
 62
     7
100
AcDbLine
 10
187.5483715218
 20
92.3305411499
 30
0.0
 11
195.1490757432
 21
92.3305411499
 31
0.0
  0
LINE
  5
22B
330
1F
100
AcDbEntity
  8
0
  6
CONTINUOUS
 62
     7
100
AcDbLine
 10
267.5483715218
 20
92.3305411499
 30
0.0
 11
267.5483715218
 21
95.5305411499
 31
0.0
  0
LINE
  5
22C
330
1F
100
AcDbEntity
  8
0
  6
CONTINUOUS
 62
     7
100
AcDbLine
 10
259.9476673004
 20
95.5305411499
 30
0.0
 11
267.5483715218
 21
95.5305411499
 31
0.0
  0
LINE
  5
22D
330
1F
100
AcDbEntity
  8
0
  6
CONTINUOUS
 62
     7
100
AcDbLine
 10
259.9476673004
 20
92.3305411499
 30
0.0
 11
267.5483715218
 21
92.3305411499
 31
0.0
  0
LINE
  5
22E
330
1F
100
AcDbEntity
  8
0
  6
CONTINUOUS
 62
     7
100
AcDbLine
 10
227.5483715218
 20
87.3305411499
 30
0.0
 11
227.5483715218
 21
92.3305411499
 31
0.0
  0
LINE
  5
22F
330
1F
100
AcDbEntity
  8
0
  6
CONTINUOUS
 62
     7
100
AcDbLine
 10
227.5483715218
 20
87.3305411499
 30
0.0
 11
224.3483715218
 21
92.3305411499
 31
0.0
  0
LINE
  5
230
330
1F
100
AcDbEntity
  8
0
  6
CONTINUOUS
 62
     7
100
AcDbLine
 10
227.5483715218
 20
87.3305411499
 30
0.0
 11
230.7483715218
 21
92.3305411499
 31
0.0
  0
ARC
  5
231
330
1F
100
AcDbEntity
  8
0
  6
CONTINUOUS
 62
     7
100
AcDbCircle
 10
269.0483715218
 20
91.0305411499
 30
0.0
 40
1.500000000000057
100
AcDbArc
 50
180.0
 51
270.0
  0
ARC
  5
232
330
1F
100
AcDbEntity
  8
0
  6
CONTINUOUS
 62
     7
100
AcDbCircle
 10
269.0483715218
 20
91.0305411499
 30
0.0
 40
1.5
100
AcDbArc
 50
270.0
 51
0.0
  0
LINE
  5
233
330
1F
100
AcDbEntity
  8
0
  6
CONTINUOUS
 62
     7
100
AcDbLine
 10
270.5483715218
 20
91.0305411499
 30
0.0
 11
270.5483715218
 21
93.5305411499
 31
0.0
  0
ARC
  5
234
330
1F
100
AcDbEntity
  8
0
  6
CONTINUOUS
 62
     7
100
AcDbCircle
 10
272.5483715218
 20
93.5305411499
 30
0.0
 40
2.000000000000014
100
AcDbArc
 50
90.0
 51
180.0
  0
LINE
  5
235
330
1F
100
AcDbEntity
  8
0
  6
CONTINUOUS
 62
     7
100
AcDbLine
 10
272.5483715218
 20
95.5305411499
 30
0.0
 11
283.5483715218
 21
95.5305411499
 31
0.0
  0
ARC
  5
236
330
1F
100
AcDbEntity
  8
0
  6
CONTINUOUS
 62
     7
100
AcDbCircle
 10
283.5483715218
 20
91.5305411499
 30
0.0
 40
4.000000000000014
100
AcDbArc
 50
0.0
 51
90.0
  0
LINE
  5
237
330
1F
100
AcDbEntity
  8
0
  6
CONTINUOUS
 62
     7
100
AcDbLine
 10
287.5483715218
 20
91.5305411499
 30
0.0
 11
287.5483715218
 21
71.5305411499
 31
0.0
  0
ARC
  5
238
330
1F
100
AcDbEntity
  8
0
  6
CONTINUOUS
 62
     7
100
AcDbCircle
 10
283.5483715218
 20
71.5305411499
 30
0.0
 40
4.0
100
AcDbArc
 50
270.0
 51
0.0
  0
LINE
  5
239
330
1F
100
AcDbEntity
  8
0
  6
CONTINUOUS
 62
     7
100
AcDbLine
 10
283.5483715218
 20
67.5305411499
 30
0.0
 11
171.5483715218
 21
67.5305411499
 31
0.0
  0
ARC
  5
23A
330
1F
100
AcDbEntity
  8
0
  6
CONTINUOUS
 62
     7
100
AcDbCircle
 10
171.5483715218
 20
71.5305411499
 30
0.0
 40
4.000000000000028
100
AcDbArc
 50
180.0
 51
270.0
  0
LINE
  5
23B
330
1F
100
AcDbEntity
  8
0
  6
CONTINUOUS
 62
     7
100
AcDbLine
 10
167.5483715218
 20
71.5305411499
 30
0.0
 11
167.5483715218
 21
91.5305411499
 31
0.0
  0
ARC
  5
23C
330
1F
100
AcDbEntity
  8
0
  6
CONTINUOUS
 62
     7
100
AcDbCircle
 10
171.5483715218
 20
91.5305411499
 30
0.0
 40
4.000000000000028
100
AcDbArc
 50
90.0
 51
180.0
  0
LINE
  5
23D
330
1F
100
AcDbEntity
  8
0
  6
CONTINUOUS
 62
     7
100
AcDbLine
 10
171.5483715218
 20
95.5305411499
 30
0.0
 11
182.5483715218
 21
95.5305411499
 31
0.0
  0
ARC
  5
23E
330
1F
100
AcDbEntity
  8
0
  6
CONTINUOUS
 62
     7
100
AcDbCircle
 10
182.5483715218
 20
93.5305411499
 30
0.0
 40
2.000000000000014
100
AcDbArc
 50
0.0
 51
90.0
  0
LINE
  5
23F
330
1F
100
AcDbEntity
  8
0
  6
CONTINUOUS
 62
     7
100
AcDbLine
 10
184.5483715218
 20
93.5305411499
 30
0.0
 11
184.5483715218
 21
91.0305411499
 31
0.0
  0
ARC
  5
240
330
1F
100
AcDbEntity
  8
0
  6
CONTINUOUS
 62
     7
100
AcDbCircle
 10
186.0483715218
 20
91.0305411499
 30
0.0
 40
1.5
100
AcDbArc
 50
180.0
 51
270.0
  0
ARC
  5
241
330
1F
100
AcDbEntity
  8
0
  6
CONTINUOUS
 62
     7
100
AcDbCircle
 10
186.0483715218
 20
91.0305411499
 30
0.0
 40
1.5
100
AcDbArc
 50
270.0
 51
0.0
  0
CIRCLE
  5
242
330
1F
100
AcDbEntity
  8
0
  6
CONTINUOUS
 62
     7
100
AcDbCircle
 10
227.5483715218
 20
73.5305411499
 30
0.0
 40
2.249999999999986
  0
CIRCLE
  5
243
330
1F
100
AcDbEntity
  8
0
  6
CONTINUOUS
 62
     7
100
AcDbCircle
 10
202.5483715218
 20
83.5305411499
 30
0.0
 40
2.25
  0
CIRCLE
  5
244
330
1F
100
AcDbEntity
  8
0
  6
CONTINUOUS
 62
     7
100
AcDbCircle
 10
252.5483715218
 20
83.5305411499
 30
0.0
 40
2.25
  0
LINE
  5
245
330
1F
100
AcDbEntity
  8
0
  6
CONTINUOUS
 62
     7
100
AcDbLine
 10
279.5483715218
 20
75.7305411499
 30
0.0
 11
275.5483715218
 21
75.7305411499
 31
0.0
  0
ARC
  5
246
330
1F
100
AcDbEntity
  8
0
  6
CONTINUOUS
 62
     7
100
AcDbCircle
 10
275.5483715218
 20
73.5305411499
 30
0.0
 40
2.200000000000017
100
AcDbArc
 50
90.0
 51
270.0
  0
LINE
  5
247
330
1F
100
AcDbEntity
  8
0
  6
CONTINUOUS
 62
     7
100
AcDbLine
 10
275.5483715218
 20
71.3305411499
 30
0.0
 11
279.5483715218
 21
71.3305411499
 31
0.0
  0
ARC
  5
248
330
1F
100
AcDbEntity
  8
0
  6
CONTINUOUS
 62
     7
100
AcDbCircle
 10
279.5483715218
 20
73.5305411499
 30
0.0
 40
2.200000000000017
100
AcDbArc
 50
270.0
 51
90.0
  0
LINE
  5
249
330
1F
100
AcDbEntity
  8
0
  6
CONTINUOUS
 62
     7
100
AcDbLine
 10
179.5483715218
 20
75.7305411499
 30
0.0
 11
175.5483715218
 21
75.7305411499
 31
0.0
  0
ARC
  5
24A
330
1F
100
AcDbEntity
  8
0
  6
CONTINUOUS
 62
     7
100
AcDbCircle
 10
175.5483715218
 20
73.5305411499
 30
0.0
 40
2.200000000000003
100
AcDbArc
 50
90.0
 51
270.0
  0
LINE
  5
24B
330
1F
100
AcDbEntity
  8
0
  6
CONTINUOUS
 62
     7
100
AcDbLine
 10
175.5483715218
 20
71.3305411499
 30
0.0
 11
179.5483715218
 21
71.3305411499
 31
0.0
  0
ARC
  5
24C
330
1F
100
AcDbEntity
  8
0
  6
CONTINUOUS
 62
     7
100
AcDbCircle
 10
179.5483715218
 20
73.5305411499
 30
0.0
 40
2.200000000000003
100
AcDbArc
 50
270.0
 51
90.0
  0
LINE
  5
24D
330
1F
100
AcDbEntity
  8
0
  6
CONTINUOUS
 62
     7
100
AcDbLine
 10
187.5483715218
 20
91.0305411499
 30
0.0
 11
187.5483715218
 21
92.3305411499
 31
0.0
  0
LINE
  5
24E
330
1F
100
AcDbEntity
  8
0
  6
CONTINUOUS
 62
     7
100
AcDbLine
 10
267.5483715218
 20
92.3305411499
 30
0.0
 11
267.5483715218
 21
91.0305411499
 31
0.0
  0
LINE
  5
24F
330
1F
100
AcDbEntity
  8
0
  6
PHANTOM
 62
     7
100
AcDbLine
 10
195.1490757432
 20
92.3305411499
 30
0.0
 11
195.1490757432
 21
95.5305411499
 31
0.0
  0
LINE
  5
250
330
1F
100
AcDbEntity
  8
0
  6
PHANTOM
 62
     7
100
AcDbLine
 10
197.6524150858
 20
95.5305411499
 30
0.0
 11
197.6524150858
 21
92.3305411499
 31
0.0
  0
LINE
  5
251
330
1F
100
AcDbEntity
  8
0
  6
PHANTOM
 62
     7
100
AcDbLine
 10
257.4443279577
 20
92.3305411499
 30
0.0
 11
257.4443279577
 21
95.5305411499
 31
0.0
  0
LINE
  5
252
330
1F
100
AcDbEntity
  8
0
  6
PHANTOM
 62
     7
100
AcDbLine
 10
259.9476673004
 20
95.5305411499
 30
0.0
 11
259.9476673004
 21
92.3305411499
 31
0.0
  0
LINE
  5
253
330
1F
100
AcDbEntity
  8
0
  6
CONTINUOUS
 62
     7
100
AcDbLine
 10
227.5483715218
 20
214.3507362024
 30
0.0
 11
226.6164586386
 21
212.8946223224
 31
0.0
  0
LINE
  5
254
330
1F
100
AcDbEntity
  8
0
  6
CONTINUOUS
 62
     7
100
AcDbLine
 10
187.5483715218
 20
212.8946223224
 30
0.0
 11
187.5483715218
 21
214.1946223224
 31
0.0
  0
ARC
  5
255
330
1F
100
AcDbEntity
  8
0
  6
CONTINUOUS
 62
     7
100
AcDbCircle
 10
186.0483715218
 20
214.1946223224
 30
0.0
 40
1.5
100
AcDbArc
 50
0.0
 51
90.0
  0
ARC
  5
256
330
1F
100
AcDbEntity
  8
0
  6
CONTINUOUS
 62
     7
100
AcDbCircle
 10
186.0483715218
 20
214.1946223224
 30
0.0
 40
1.5
100
AcDbArc
 50
90.0
 51
180.0
  0
LINE
  5
257
330
1F
100
AcDbEntity
  8
0
  6
CONTINUOUS
 62
     7
100
AcDbLine
 10
184.5483715218
 20
211.6946223224
 30
0.0
 11
184.5483715218
 21
214.1946223224
 31
0.0
  0
ARC
  5
258
330
1F
100
AcDbEntity
  8
0
  6
CONTINUOUS
 62
     7
100
AcDbCircle
 10
182.5483715218
 20
211.6946223224
 30
0.0
 40
2.0
100
AcDbArc
 50
270.0
 51
0.0
  0
LINE
  5
259
330
1F
100
AcDbEntity
  8
0
  6
CONTINUOUS
 62
     7
100
AcDbLine
 10
171.5483715218
 20
209.6946223224
 30
0.0
 11
182.5483715218
 21
209.6946223224
 31
0.0
  0
ARC
  5
25A
330
1F
100
AcDbEntity
  8
0
  6
CONTINUOUS
 62
     7
100
AcDbCircle
 10
171.5483715218
 20
213.6946223224
 30
0.0
 40
4.000000000000028
100
AcDbArc
 50
180.0
 51
270.0
  0
LINE
  5
25B
330
1F
100
AcDbEntity
  8
0
  6
CONTINUOUS
 62
     7
100
AcDbLine
 10
167.5483715218
 20
233.6946223224
 30
0.0
 11
167.5483715218
 21
213.6946223224
 31
0.0
  0
ARC
  5
25C
330
1F
100
AcDbEntity
  8
0
  6
CONTINUOUS
 62
     7
100
AcDbCircle
 10
171.5483715218
 20
233.6946223224
 30
0.0
 40
4.000000000000028
100
AcDbArc
 50
90.0
 51
180.0
  0
LINE
  5
25D
330
1F
100
AcDbEntity
  8
0
  6
CONTINUOUS
 62
     7
100
AcDbLine
 10
283.5483715218
 20
237.6946223224
 30
0.0
 11
171.5483715218
 21
237.6946223224
 31
0.0
  0
LINE
  5
25E
330
1F
100
AcDbEntity
  8
0
  6
CONTINUOUS
 62
     7
100
AcDbLine
 10
287.5483715218
 20
213.6946223224
 30
0.0
 11
287.5483715218
 21
233.6946223224
 31
0.0
  0
ARC
  5
25F
330
1F
100
AcDbEntity
  8
0
  6
CONTINUOUS
 62
     7
100
AcDbCircle
 10
283.5483715218
 20
213.6946223224
 30
0.0
 40
4.0
100
AcDbArc
 50
270.0
 51
0.0
  0
LINE
  5
260
330
1F
100
AcDbEntity
  8
0
  6
CONTINUOUS
 62
     7
100
AcDbLine
 10
272.5483715218
 20
209.6946223224
 30
0.0
 11
283.5483715218
 21
209.6946223224
 31
0.0
  0
ARC
  5
261
330
1F
100
AcDbEntity
  8
0
  6
CONTINUOUS
 62
     7
100
AcDbCircle
 10
272.5483715218
 20
211.6946223224
 30
0.0
 40
2.0
100
AcDbArc
 50
180.0
 51
270.0
  0
LINE
  5
262
330
1F
100
AcDbEntity
  8
0
  6
CONTINUOUS
 62
     7
100
AcDbLine
 10
270.5483715218
 20
214.1946223224
 30
0.0
 11
270.5483715218
 21
211.6946223224
 31
0.0
  0
ARC
  5
263
330
1F
100
AcDbEntity
  8
0
  6
CONTINUOUS
 62
     7
100
AcDbCircle
 10
269.0483715218
 20
214.1946223224
 30
0.0
 40
1.5
100
AcDbArc
 50
0.0
 51
90.0
  0
ARC
  5
264
330
1F
100
AcDbEntity
  8
0
  6
CONTINUOUS
 62
     7
100
AcDbCircle
 10
269.0483715218
 20
214.1946223224
 30
0.0
 40
1.500000000000057
100
AcDbArc
 50
90.0
 51
180.0
  0
LINE
  5
265
330
1F
100
AcDbEntity
  8
0
  6
CONTINUOUS
 62
     7
100
AcDbLine
 10
267.5483715218
 20
212.8946223224
 30
0.0
 11
267.5483715218
 21
214.1946223224
 31
0.0
  0
LINE
  5
266
330
1F
100
AcDbEntity
  8
0
  6
CONTINUOUS
 62
     7
100
AcDbLine
 10
227.5483715218
 20
214.3507362024
 30
0.0
 11
228.4802844049
 21
212.8946223224
 31
0.0
  0
ARC
  5
267
330
1F
100
AcDbEntity
  8
0
  6
CONTINUOUS
 62
     7
100
AcDbCircle
 10
175.5483715218
 20
231.6946223224
 30
0.0
 40
2.200000000000017
100
AcDbArc
 50
90.0
 51
270.0
  0
LINE
  5
268
330
1F
100
AcDbEntity
  8
0
  6
CONTINUOUS
 62
     7
100
AcDbLine
 10
175.5483715218
 20
229.4946223224
 30
0.0
 11
179.5483715218
 21
229.4946223224
 31
0.0
  0
ARC
  5
269
330
1F
100
AcDbEntity
  8
0
  6
CONTINUOUS
 62
     7
100
AcDbCircle
 10
179.5483715218
 20
231.6946223224
 30
0.0
 40
2.200000000000017
100
AcDbArc
 50
270.0
 51
90.0
  0
LINE
  5
26A
330
1F
100
AcDbEntity
  8
0
  6
CONTINUOUS
 62
     7
100
AcDbLine
 10
179.5483715218
 20
233.8946223224
 30
0.0
 11
175.5483715218
 21
233.8946223224
 31
0.0
  0
ARC
  5
26B
330
1F
100
AcDbEntity
  8
0
  6
CONTINUOUS
 62
     7
100
AcDbCircle
 10
275.5483715218
 20
231.6946223224
 30
0.0
 40
2.200000000000017
100
AcDbArc
 50
90.0
 51
270.0
  0
LINE
  5
26C
330
1F
100
AcDbEntity
  8
0
  6
CONTINUOUS
 62
     7
100
AcDbLine
 10
275.5483715218
 20
229.4946223224
 30
0.0
 11
279.5483715218
 21
229.4946223224
 31
0.0
  0
ARC
  5
26D
330
1F
100
AcDbEntity
  8
0
  6
CONTINUOUS
 62
     7
100
AcDbCircle
 10
279.5483715218
 20
231.6946223224
 30
0.0
 40
2.200000000000017
100
AcDbArc
 50
270.0
 51
90.0
  0
LINE
  5
26E
330
1F
100
AcDbEntity
  8
0
  6
CONTINUOUS
 62
     7
100
AcDbLine
 10
279.5483715218
 20
233.8946223224
 30
0.0
 11
275.5483715218
 21
233.8946223224
 31
0.0
  0
CIRCLE
  5
26F
330
1F
100
AcDbEntity
  8
0
  6
CONTINUOUS
 62
     7
100
AcDbCircle
 10
252.5483715218
 20
221.6946223224
 30
0.0
 40
2.250000000000028
  0
CIRCLE
  5
270
330
1F
100
AcDbEntity
  8
0
  6
CONTINUOUS
 62
     7
100
AcDbCircle
 10
202.5483715218
 20
221.6946223224
 30
0.0
 40
2.25
  0
CIRCLE
  5
271
330
1F
100
AcDbEntity
  8
0
  6
CONTINUOUS
 62
     7
100
AcDbCircle
 10
227.5483715218
 20
231.6946223224
 30
0.0
 40
2.25
  0
ARC
  5
272
330
1F
100
AcDbEntity
  8
0
  6
CONTINUOUS
 62
     7
100
AcDbCircle
 10
283.5483715218
 20
233.6946223224
 30
0.0
 40
4.0
100
AcDbArc
 50
0.0
 51
90.0
  0
LINE
  5
273
330
1F
100
AcDbEntity
  8
0
  6
CONTINUOUS
 62
     7
100
AcDbLine
 10
227.5483715218
 20
214.3507362024
 30
0.0
 11
227.5483715218
 21
209.6946223224
 31
0.0
  0
ELLIPSE
  5
274
330
1F
100
AcDbEntity
  8
0
  6
CONTINUOUS
 62
     7
100
AcDbEllipse
 10
226.4322844049
 20
212.8946223224
 30
0.0
 11
-2.617684889996638
 21
3.013417364887345
 31
0.0
210
0.0
220
0.0
230
1.0
 40
0.4113234866
 41
2.798423099776792
 42
4.369219426571691
  0
LINE
  5
275
330
1F
100
AcDbEntity
  8
0
  6
CONTINUOUS
 62
     7
100
AcDbLine
 10
227.5483715218
 20
209.6946223224
 30
0.0
 11
228.4802844049
 21
209.6946223224
 31
0.0
  0
LINE
  5
276
330
1F
100
AcDbEntity
  8
0
  6
CONTINUOUS
 62
     7
100
AcDbLine
 10
227.5483715218
 20
209.6946223224
 30
0.0
 11
226.6164586386
 21
209.6946223224
 31
0.0
  0
ELLIPSE
  5
277
330
1F
100
AcDbEntity
  8
0
  6
CONTINUOUS
 62
     7
100
AcDbEllipse
 10
228.6644586386
 20
212.8946223224
 30
0.0
 11
2.617684889996638
 21
3.013417364887345
 31
0.0
210
0.0
220
0.0
230
1.0
 40
0.4113234866
 41
1.913965880607912
 42
3.484762207402831
  0
LINE
  5
278
330
1F
100
AcDbEntity
  8
0
  6
CONTINUOUS
 62
     7
100
AcDbLine
 10
226.6164586386
 20
209.6946223224
 30
0.0
 11
187.5483715218
 21
209.6946223224
 31
0.0
  0
LINE
  5
279
330
1F
100
AcDbEntity
  8
0
  6
CONTINUOUS
 62
     7
100
AcDbLine
 10
187.5483715218
 20
209.6946223224
 30
0.0
 11
187.5483715218
 21
212.8946223224
 31
0.0
  0
LINE
  5
27A
330
1F
100
AcDbEntity
  8
0
  6
CONTINUOUS
 62
     7
100
AcDbLine
 10
267.5483715218
 20
209.6946223224
 30
0.0
 11
228.4802844049
 21
209.6946223224
 31
0.0
  0
LINE
  5
27B
330
1F
100
AcDbEntity
  8
0
  6
CONTINUOUS
 62
     7
100
AcDbLine
 10
267.5483715218
 20
212.8946223224
 30
0.0
 11
267.5483715218
 21
209.6946223224
 31
0.0
  0
LINE
  5
27C
330
1F
100
AcDbEntity
  8
0
  6
PHANTOM
 62
     7
100
AcDbLine
 10
187.5483715218
 20
212.8946223224
 30
0.0
 11
226.6164586386
 21
212.8946223224
 31
0.0
  0
LINE
  5
27D
330
1F
100
AcDbEntity
  8
0
  6
PHANTOM
 62
     7
100
AcDbLine
 10
228.4802844049
 20
212.8946223224
 30
0.0
 11
267.5483715218
 21
212.8946223224
 31
0.0
  0
LINE
  5
27E
330
1F
100
AcDbEntity
  8
0
  6
CONTINUOUS
 62
     7
100
AcDbLine
 10
587.7699210823
 20
165.3619278467
 30
0.0
 11
587.7699210823
 21
162.1619278467
 31
0.0
  0
LINE
  5
27F
330
1F
100
AcDbEntity
  8
0
  6
CONTINUOUS
 62
     7
100
AcDbLine
 10
587.7699210823
 20
162.1619278467
 30
0.0
 11
583.7699210823
 21
162.1619278467
 31
0.0
  0
LINE
  5
280
330
1F
100
AcDbEntity
  8
0
  6
CONTINUOUS
 62
     7
100
AcDbLine
 10
583.7699210823
 20
165.3619278467
 30
0.0
 11
587.7699210823
 21
165.3619278467
 31
0.0
  0
LINE
  5
281
330
1F
100
AcDbEntity
  8
0
  6
CONTINUOUS
 62
     7
100
AcDbLine
 10
471.7699210823
 20
162.1619278467
 30
0.0
 11
583.7699210823
 21
162.1619278467
 31
0.0
  0
LINE
  5
282
330
1F
100
AcDbEntity
  8
0
  6
CONTINUOUS
 62
     7
100
AcDbLine
 10
471.7699210823
 20
165.3619278467
 30
0.0
 11
583.7699210823
 21
165.3619278467
 31
0.0
  0
LINE
  5
283
330
1F
100
AcDbEntity
  8
0
  6
CONTINUOUS
 62
     7
100
AcDbLine
 10
467.7699210823
 20
162.1619278467
 30
0.0
 11
467.7699210823
 21
165.3619278467
 31
0.0
  0
LINE
  5
284
330
1F
100
AcDbEntity
  8
0
  6
CONTINUOUS
 62
     7
100
AcDbLine
 10
471.7699210823
 20
162.1619278467
 30
0.0
 11
467.7699210823
 21
162.1619278467
 31
0.0
  0
LINE
  5
285
330
1F
100
AcDbEntity
  8
0
  6
CONTINUOUS
 62
     7
100
AcDbLine
 10
467.7699210823
 20
165.3619278467
 30
0.0
 11
471.7699210823
 21
165.3619278467
 31
0.0
  0
LINE
  5
286
330
1F
100
AcDbEntity
  8
0
  6
CONTINUOUS
 62
     7
100
AcDbLine
 10
527.7699210823
 20
162.1619278467
 30
0.0
 11
527.7699210823
 21
157.1619278467
 31
0.0
  0
LINE
  5
287
330
1F
100
AcDbEntity
  8
0
  6
CONTINUOUS
 62
     7
100
AcDbLine
 10
527.7699210823
 20
157.1619278467
 30
0.0
 11
530.9699210823
 21
162.1619278467
 31
0.0
  0
LINE
  5
288
330
1F
100
AcDbEntity
  8
0
  6
CONTINUOUS
 62
     7
100
AcDbLine
 10
527.7699210823
 20
157.1619278467
 30
0.0
 11
524.5699210823
 21
162.1619278467
 31
0.0
  0
ARC
  5
289
330
1F
100
AcDbEntity
  8
0
  6
CONTINUOUS
 62
     7
100
AcDbCircle
 10
497.8739646464
 20
142.9619278467
 30
0.0
 40
6.000000000000013
100
AcDbArc
 50
245.3405982933
 51
270.0
  0
ARC
  5
28A
330
1F
100
AcDbEntity
  8
0
  6
CONTINUOUS
 62
     7
100
AcDbCircle
 10
500.8121433045
 20
149.3619278467
 30
0.0
 40
13.04222222222224
100
AcDbArc
 50
180.0
 51
245.3405982933
  0
ARC
  5
28B
330
1F
100
AcDbEntity
  8
0
  6
CONTINUOUS
 62
     7
100
AcDbCircle
 10
554.7276988601
 20
149.3619278467
 30
0.0
 40
13.04222222222222
100
AcDbArc
 50
294.6594017067
 51
0.0
  0
ARC
  5
28C
330
1F
100
AcDbEntity
  8
0
  6
CONTINUOUS
 62
     7
100
AcDbCircle
 10
557.6658775182
 20
142.9619278467
 30
0.0
 40
6.0
100
AcDbArc
 50
270.0
 51
294.6594017067
  0
LINE
  5
28D
330
1F
100
AcDbEntity
  8
0
  6
CONTINUOUS
 62
     7
100
AcDbLine
 10
557.6658775182
 20
136.9619278467
 30
0.0
 11
497.8739646464
 21
136.9619278467
 31
0.0
  0
CIRCLE
  5
28E
330
1F
100
AcDbEntity
  8
0
  6
CONTINUOUS
 62
     7
100
AcDbCircle
 10
545.7699210823
 20
143.3619278467
 30
0.0
 40
2.0
  0
CIRCLE
  5
28F
330
1F
100
AcDbEntity
  8
0
  6
CONTINUOUS
 62
     7
100
AcDbCircle
 10
547.7699210823
 20
155.3619278467
 30
0.0
 40
2.0
  0
CIRCLE
  5
290
330
1F
100
AcDbEntity
  8
0
  6
CONTINUOUS
 62
     7
100
AcDbCircle
 10
559.7699210823
 20
155.3619278467
 30
0.0
 40
2.0
  0
CIRCLE
  5
291
330
1F
100
AcDbEntity
  8
0
  6
CONTINUOUS
 62
     7
100
AcDbCircle
 10
497.7699210823
 20
143.3619278467
 30
0.0
 40
2.0
  0
CIRCLE
  5
292
330
1F
100
AcDbEntity
  8
0
  6
CONTINUOUS
 62
     7
100
AcDbCircle
 10
495.7699210823
 20
155.3619278467
 30
0.0
 40
2.0
  0
CIRCLE
  5
293
330
1F
100
AcDbEntity
  8
0
  6
CONTINUOUS
 62
     7
100
AcDbCircle
 10
557.7699210823
 20
143.3619278467
 30
0.0
 40
2.0
  0
CIRCLE
  5
294
330
1F
100
AcDbEntity
  8
0
  6
CONTINUOUS
 62
     7
100
AcDbCircle
 10
507.7699210823
 20
155.3619278467
 30
0.0
 40
2.0
  0
CIRCLE
  5
295
330
1F
100
AcDbEntity
  8
0
  6
CONTINUOUS
 62
     7
100
AcDbCircle
 10
509.7699210823
 20
143.3619278467
 30
0.0
 40
2.0
  0
LINE
  5
296
330
1F
100
AcDbEntity
  8
0
  6
CONTINUOUS
 62
     7
100
AcDbLine
 10
487.7699210823
 20
162.1619278467
 30
0.0
 11
487.7699210823
 21
149.3619278467
 31
0.0
  0
LINE
  5
297
330
1F
100
AcDbEntity
  8
0
  6
CONTINUOUS
 62
     7
100
AcDbLine
 10
567.7699210823
 20
162.1619278467
 30
0.0
 11
567.7699210823
 21
149.3619278467
 31
0.0
  0
LINE
  5
298
330
1F
100
AcDbEntity
  8
0
  6
PHANTOM
 62
     7
100
AcDbLine
 10
583.7699210823
 20
162.1619278467
 30
0.0
 11
583.7699210823
 21
165.3619278467
 31
0.0
  0
LINE
  5
299
330
1F
100
AcDbEntity
  8
0
  6
PHANTOM
 62
     7
100
AcDbLine
 10
471.7699210823
 20
165.3619278467
 30
0.0
 11
471.7699210823
 21
162.1619278467
 31
0.0
  0
ENDSEC
  0
SECTION
  2
OBJECTS
  0
DICTIONARY
  5
C
330
0
100
AcDbDictionary
  3
ACAD_GROUP
350
D
  3
ACAD_MLINESTYLE
350
17
  0
DICTIONARY
  5
D
102
{ACAD_REACTORS
330
C
102
}
330
C
100
AcDbDictionary
  0
DICTIONARY
  5
17
102
{ACAD_REACTORS
330
C
102
}
330
C
100
AcDbDictionary
  3
STANDARD
350
18
  0
MLINESTYLE
  5
18
102
{ACAD_REACTORS
330
17
102
}
330
17
100
AcDbMlineStyle
  2
Standard
 70
     0
  3

 62
   256
 51
90.0
 52
90.0
 71
     2
 49
0.5
 62
   256
  6
BYLAYER
 49
-0.5
 62
   256
  6
BYLAYER
  0
ENDSEC
  0
EOF
